0
SECTION
2
HEADER
9
$INSUNITS
70
5
9
$ACADVER
1
AC1014
9
$HANDSEED
5
FFFF
0
ENDSEC
0
SECTION
2
TABLES
0
TABLE
2
VPORT
5
8
100
AcDbSymbolTable
0
ENDTAB
0
TABLE
2
LTYPE
5
5
100
AcDbSymbolTable
0
LTYPE
5
14
100
AcDbSymbolTableRecord
100
AcDbLinetypeTableRecord
2
BYBLOCK
70
0
0
LTYPE
5
15
100
AcDbSymbolTableRecord
100
AcDbLinetypeTableRecord
2
BYLAYER
70
0
0
ENDTAB
0
TABLE
2
LAYER
5
2
100
AcDbSymbolTable
70
2
0
LAYER
5
50
100
AcDbSymbolTableRecord
100
AcDbLayerTableRecord
2
0
70
0
6
CONTINUOUS
0
ENDTAB
0
TABLE
2
STYLE
5
3
100
AcDbSymbolTable
70
1
0
STYLE
5
11
100
AcDbSymbolTableRecord
100
AcDbTextStyleTableRecord
2
STANDARD
70
0
0
ENDTAB
0
TABLE
2
VIEW
5
6
100
AcDbSymbolTable
70
0
0
ENDTAB
0
TABLE
2
UCS
5
7
100
AcDbSymbolTable
70
0
0
ENDTAB
0
TABLE
2
APPID
5
9
100
AcDbSymbolTable
70
2
0
APPID
5
12
100
AcDbSymbolTableRecord
100
AcDbRegAppTableRecord
2
ACAD
70
0
0
ENDTAB
0
TABLE
2
DIMSTYLE
5
A
100
AcDbSymbolTable
70
1
0
ENDTAB
0
TABLE
2
BLOCK_RECORD
5
1
100
AcDbSymbolTable
70
1
0
BLOCK_RECORD
5
1F
100
AcDbSymbolTableRecord
100
AcDbBlockTableRecord
2
*MODEL_SPACE
0
BLOCK_RECORD
5
1B
100
AcDbSymbolTableRecord
100
AcDbBlockTableRecord
2
*PAPER_SPACE
0
ENDTAB
0
ENDSEC
0
SECTION
2
BLOCKS
0
BLOCK
5
20
100
AcDbEntity
100
AcDbBlockBegin
2
*MODEL_SPACE
0
ENDBLK
5
21
100
AcDbEntity
100
AcDbBlockEnd
0
BLOCK
5
1C
100
AcDbEntity
100
AcDbBlockBegin
2
*PAPER_SPACE
0
ENDBLK
5
1D
100
AcDbEntity
100
AcDbBlockEnd
0
ENDSEC
0
SECTION
2
ENTITIES
0
LWPOLYLINE
5
100
100
AcDbEntity
8
0
100
AcDbPolyline
90
4
70
1
43
0.0
10
20
20
0
10
-20
20
0
10
-20
20
0.59999999999999998
10
20
20
0.59999999999999998
0
LWPOLYLINE
5
101
100
AcDbEntity
8
0
100
AcDbPolyline
90
4
70
1
43
0.0
10
20
20
0
10
-20
20
0
10
-20
20
10
10
20
20
10
0
LINE
5
102
100
AcDbEntity
8
0
100
AcDbLine
10
-19.399999999999999
20
10
30
0
11
-19.399999999999999
21
0
31
0
0
LINE
5
103
100
AcDbEntity
8
0
100
AcDbLine
10
19.399999999999999
20
10
30
0
11
19.399999999999999
21
0
31
0
0
LINE
5
104
100
AcDbEntity
8
0
100
AcDbLine
10
-20
20
0.60000000000000009
30
0
11
20
21
0.60000000000000009
31
0
0
LINE
5
105
100
AcDbEntity
8
0
100
AcDbLine
10
-20
20
8
30
0
11
-19.399999999999999
21
8
31
0
0
LINE
5
106
100
AcDbEntity
8
0
100
AcDbLine
10
-20
20
6
30
0
11
-19.399999999999999
21
6
31
0
0
LINE
5
107
100
AcDbEntity
8
0
100
AcDbLine
10
-20
20
4
30
0
11
-19.399999999999999
21
4
31
0
0
LINE
5
108
100
AcDbEntity
8
0
100
AcDbLine
10
-20
20
2
30
0
11
-19.399999999999999
21
2
31
0
0
LINE
5
109
100
AcDbEntity
8
0
100
AcDbLine
10
-17.999999999999996
20
0.60000000000000009
30
0
11
-18
21
0
31
0
0
LINE
5
110
100
AcDbEntity
8
0
100
AcDbLine
10
-15.999999999999996
20
0.60000000000000009
30
0
11
-16
21
0
31
0
0
LINE
5
111
100
AcDbEntity
8
0
100
AcDbLine
10
-18
20
0
30
0
11
22
21
0
31
0
0
LINE
5
112
100
AcDbEntity
8
0
100
AcDbLine
10
-13.999999999999996
20
0.60000000000000009
30
0
11
-14
21
0
31
0
0
LINE
5
113
100
AcDbEntity
8
0
100
AcDbLine
10
-16
20
0
30
0
11
24
21
0
31
0
0
LINE
5
114
100
AcDbEntity
8
0
100
AcDbLine
10
-11.999999999999996
20
0.60000000000000009
30
0
11
-12
21
0
31
0
0
LINE
5
115
100
AcDbEntity
8
0
100
AcDbLine
10
-14
20
0
30
0
11
26
21
0
31
0
0
LINE
5
116
100
AcDbEntity
8
0
100
AcDbLine
10
-9.9999999999999964
20
0.60000000000000009
30
0
11
-10
21
0
31
0
0
LINE
5
117
100
AcDbEntity
8
0
100
AcDbLine
10
-12
20
0
30
0
11
28
21
0
31
0
0
LINE
5
118
100
AcDbEntity
8
0
100
AcDbLine
10
-7.9999999999999964
20
0.60000000000000009
30
0
11
-8
21
0
31
0
0
LINE
5
119
100
AcDbEntity
8
0
100
AcDbLine
10
-10
20
0
30
0
11
30
21
0
31
0
0
LINE
5
120
100
AcDbEntity
8
0
100
AcDbLine
10
-5.9999999999999964
20
0.60000000000000009
30
0
11
-6
21
0
31
0
0
LINE
5
121
100
AcDbEntity
8
0
100
AcDbLine
10
-8
20
0
30
0
11
32
21
0
31
0
0
LINE
5
122
100
AcDbEntity
8
0
100
AcDbLine
10
-3.9999999999999964
20
0.60000000000000009
30
0
11
-4
21
0
31
0
0
LINE
5
123
100
AcDbEntity
8
0
100
AcDbLine
10
-6
20
0
30
0
11
34
21
0
31
0
0
LINE
5
124
100
AcDbEntity
8
0
100
AcDbLine
10
-1.9999999999999964
20
0.60000000000000009
30
0
11
-2
21
0
31
0
0
LINE
5
125
100
AcDbEntity
8
0
100
AcDbLine
10
-4
20
0
30
0
11
36
21
0
31
0
0
LINE
5
126
100
AcDbEntity
8
0
100
AcDbLine
10
3.5527136788005009e-15
20
0.60000000000000009
30
0
11
0
21
0
31
0
0
LINE
5
127
100
AcDbEntity
8
0
100
AcDbLine
10
-2
20
0
30
0
11
38
21
0
31
0
0
LINE
5
128
100
AcDbEntity
8
0
100
AcDbLine
10
2.0000000000000036
20
0.60000000000000009
30
0
11
2
21
0
31
0
0
LINE
5
129
100
AcDbEntity
8
0
100
AcDbLine
10
0
20
0
30
0
11
40
21
0
31
0
0
LINE
5
130
100
AcDbEntity
8
0
100
AcDbLine
10
4.0000000000000036
20
0.60000000000000009
30
0
11
4
21
0
31
0
0
LINE
5
131
100
AcDbEntity
8
0
100
AcDbLine
10
2
20
0
30
0
11
42
21
0
31
0
0
LINE
5
132
100
AcDbEntity
8
0
100
AcDbLine
10
6.0000000000000036
20
0.60000000000000009
30
0
11
6
21
0
31
0
0
LINE
5
133
100
AcDbEntity
8
0
100
AcDbLine
10
4
20
0
30
0
11
44
21
0
31
0
0
LINE
5
134
100
AcDbEntity
8
0
100
AcDbLine
10
8.0000000000000036
20
0.60000000000000009
30
0
11
8
21
0
31
0
0
LINE
5
135
100
AcDbEntity
8
0
100
AcDbLine
10
6
20
0
30
0
11
46
21
0
31
0
0
LINE
5
136
100
AcDbEntity
8
0
100
AcDbLine
10
10.000000000000004
20
0.60000000000000009
30
0
11
10
21
0
31
0
0
LINE
5
137
100
AcDbEntity
8
0
100
AcDbLine
10
8
20
0
30
0
11
48
21
0
31
0
0
LINE
5
138
100
AcDbEntity
8
0
100
AcDbLine
10
12.000000000000004
20
0.60000000000000009
30
0
11
12
21
0
31
0
0
LINE
5
139
100
AcDbEntity
8
0
100
AcDbLine
10
10
20
0
30
0
11
50
21
0
31
0
0
LINE
5
140
100
AcDbEntity
8
0
100
AcDbLine
10
14.000000000000004
20
0.60000000000000009
30
0
11
14
21
0
31
0
0
LINE
5
141
100
AcDbEntity
8
0
100
AcDbLine
10
12
20
0
30
0
11
52
21
0
31
0
0
LINE
5
142
100
AcDbEntity
8
0
100
AcDbLine
10
16.000000000000004
20
0.60000000000000009
30
0
11
16
21
0
31
0
0
LINE
5
143
100
AcDbEntity
8
0
100
AcDbLine
10
14
20
0
30
0
11
54
21
0
31
0
0
LINE
5
144
100
AcDbEntity
8
0
100
AcDbLine
10
18.000000000000004
20
0.60000000000000009
30
0
11
18
21
0
31
0
0
LINE
5
145
100
AcDbEntity
8
0
100
AcDbLine
10
16
20
0
30
0
11
56
21
0
31
0
0
LINE
5
146
100
AcDbEntity
8
0
100
AcDbLine
10
19.399999999999999
20
8
30
0
11
20
21
8
31
0
0
LINE
5
147
100
AcDbEntity
8
0
100
AcDbLine
10
19.399999999999999
20
6
30
0
11
20
21
6
31
0
0
LINE
5
148
100
AcDbEntity
8
0
100
AcDbLine
10
19.399999999999999
20
4
30
0
11
20
21
4
31
0
0
LINE
5
149
100
AcDbEntity
8
0
100
AcDbLine
10
19.399999999999999
20
2
30
0
11
20
21
2
31
0
0
ENDSEC
0
SECTION
2
OBJECTS
0
DICTIONARY
5
C
100
AcDbDictionary
3
ACAD_GROUP
350
D
3
ACAD_MLINESTYLE
350
17
0
DICTIONARY
5
D
100
AcDbDictionary
0
DICTIONARY
5
1A
330
C
100
AcDbDictionary
0
DICTIONARY
5
17
100
AcDbDictionary
0
ENDSEC
0
EOF
