0
SECTION
2
HEADER
9
$INSUNITS
70
4
9
$ACADVER
1
AC1014
9
$HANDSEED
5
FFFF
0
ENDSEC
0
SECTION
2
TABLES
0
TABLE
2
VPORT
5
8
100
AcDbSymbolTable
0
ENDTAB
0
TABLE
2
LTYPE
5
5
100
AcDbSymbolTable
0
LTYPE
5
14
100
AcDbSymbolTableRecord
100
AcDbLinetypeTableRecord
2
BYBLOCK
70
0
0
LTYPE
5
15
100
AcDbSymbolTableRecord
100
AcDbLinetypeTableRecord
2
BYLAYER
70
0
0
ENDTAB
0
TABLE
2
LAYER
5
2
100
AcDbSymbolTable
70
2
0
LAYER
5
50
100
AcDbSymbolTableRecord
100
AcDbLayerTableRecord
2
0
70
0
6
CONTINUOUS
0
ENDTAB
0
TABLE
2
STYLE
5
3
100
AcDbSymbolTable
70
1
0
STYLE
5
11
100
AcDbSymbolTableRecord
100
AcDbTextStyleTableRecord
2
STANDARD
70
0
0
ENDTAB
0
TABLE
2
VIEW
5
6
100
AcDbSymbolTable
70
0
0
ENDTAB
0
TABLE
2
UCS
5
7
100
AcDbSymbolTable
70
0
0
ENDTAB
0
TABLE
2
APPID
5
9
100
AcDbSymbolTable
70
2
0
APPID
5
12
100
AcDbSymbolTableRecord
100
AcDbRegAppTableRecord
2
ACAD
70
0
0
ENDTAB
0
TABLE
2
DIMSTYLE
5
A
100
AcDbSymbolTable
70
1
0
ENDTAB
0
TABLE
2
BLOCK_RECORD
5
1
100
AcDbSymbolTable
70
1
0
BLOCK_RECORD
5
1F
100
AcDbSymbolTableRecord
100
AcDbBlockTableRecord
2
*MODEL_SPACE
0
BLOCK_RECORD
5
1B
100
AcDbSymbolTableRecord
100
AcDbBlockTableRecord
2
*PAPER_SPACE
0
ENDTAB
0
ENDSEC
0
SECTION
2
BLOCKS
0
BLOCK
5
20
100
AcDbEntity
100
AcDbBlockBegin
2
*MODEL_SPACE
0
ENDBLK
5
21
100
AcDbEntity
100
AcDbBlockEnd
0
BLOCK
5
1C
100
AcDbEntity
100
AcDbBlockBegin
2
*PAPER_SPACE
0
ENDBLK
5
1D
100
AcDbEntity
100
AcDbBlockEnd
0
ENDSEC
0
SECTION
2
ENTITIES
0
LWPOLYLINE
5
100
100
AcDbEntity
8
0
100
AcDbPolyline
90
51
70
1
43
0.0
10
-575
20
25
10
-550
20
0
10
-230
20
0
10
-230
20
9.5500000000000007
42
-2.4142135623730949
10
-227.5
20
12.050000000000001
10
-212.30000000000001
20
12.050000000000001
42
-2.4142135623730949
10
-209.80000000000001
20
9.5499999999999989
10
-209.80000000000001
20
0
10
-75
20
0
10
-75.000000000000014
20
41.978283936341242
42
0.35152398627589243
10
-82.830695421813445
20
51.740154538180761
10
-298.43386114547809
20
99.651969143439601
42
-0.3515239460348219
10
-300.00000022984079
20
101.60434297728426
10
-300.00000104636462
20
107.30387211129494
10
-309.55000104636463
20
107.30387211129494
42
-2.4142135623730949
10
-312.05000104636463
20
109.80387211129494
10
-312.05000104636463
20
125.00387211129492
42
-2.4142135623730949
10
-309.55000104636463
20
127.50387211129492
10
-300.00000104636462
20
127.50387211129492
10
-300.00000447034836
20
217.50387211129492
10
-309.55000447034837
20
217.50387211129492
42
-2.4140900157270102
10
-312.05018540372754
20
220.00387210914585
10
-312.05018540372754
20
235.05387210914589
42
-2.3153022216354207
10
-309.554689461034
20
237.70387210914581
10
-300
20
237.70387210914581
10
-300
20
247.75466967844875
42
-0.21422836025367847
10
-298.32181919414961
20
251.49171627186703
10
-82.92666551767141
20
442.95407509540303
42
0.43152934535063958
10
-82.499236094105186
20
457.49923609410519
10
-100.71644302003176
20
475.7164430200317
10
-107.46931278036328
20
468.96357325970024
42
-2.4142135623731114
10
-111.00484668629602
20
468.96357325970024
10
-121.75286976033152
20
479.71159633373577
42
-2.4142135623730767
10
-121.75286976033152
20
483.24713023966854
10
-115
20
490
10
-125
20
500
10
-179.80000000000001
20
500
10
-179.80000000000001
20
490.44549594269358
42
-2.315302221635398
10
-182.45000000000002
20
487.95000000000005
10
-197.5
20
487.95000000000005
42
-2.4142135623730949
10
-200
20
490.45000000000005
10
-200
20
500
10
-375
20
500
10
-564.75513823605593
20
333.96425404345109
42
0.21627193764837963
10
-575
20
311.3869532022448
10
-575
20
198.87728716118787
10
-565.45000000000005
20
198.87728716118787
42
-2.4142135623730949
10
-562.95000000000005
20
196.37728716118787
10
-562.95000000000005
20
181.3272871611878
42
-2.3153022216353949
10
-565.44549594269347
20
178.67728716118788
10
-575
20
178.67728716118788
0
CIRCLE
5
101
100
AcDbEntity
8
0
100
AcDbCircle
10
-278.82499999999999
20
453.82499999999999
30
0
40
8.595000000000006
0
CIRCLE
5
102
100
AcDbEntity
8
0
100
AcDbCircle
10
-294.08716774773063
20
469.08716774773069
30
0
40
1.445000000000001
0
CIRCLE
5
103
100
AcDbEntity
8
0
100
AcDbCircle
10
-263.5628322522694
20
469.08716774773069
30
0
40
1.4450000000000074
0
CIRCLE
5
104
100
AcDbEntity
8
0
100
AcDbCircle
10
-294.08716774773063
20
438.56283225226935
30
0
40
1.4450000000000194
0
CIRCLE
5
105
100
AcDbEntity
8
0
100
AcDbCircle
10
-263.5628322522694
20
438.56283225226935
30
0
40
1.4450000000000007
0
CIRCLE
5
106
100
AcDbEntity
8
0
100
AcDbCircle
10
-400
20
350
30
0
40
3.9999999999999987
0
CIRCLE
5
107
100
AcDbEntity
8
0
100
AcDbCircle
10
-300.125
20
453.82499999999999
30
0
40
7.879999999999975
0
CIRCLE
5
108
100
AcDbEntity
8
0
100
AcDbCircle
10
-380
20
180
30
0
40
3.9999999999999858
0
CIRCLE
5
109
100
AcDbEntity
8
0
100
AcDbCircle
10
-450.00000000000023
20
90.000000000000071
30
0
40
4.0000000000000195
0
CIRCLE
5
110
100
AcDbEntity
8
0
100
AcDbCircle
10
-385.00000000000006
20
120
30
0
40
3.9999999999999858
0
CIRCLE
5
111
100
AcDbEntity
8
0
100
AcDbCircle
10
43.700458734083014
20
245.26521581480793
30
0
40
4.0000000000000195
0
SPLINE
5
112
100
AcDbEntity
8
0
100
AcDbSpline
70
1064
71
5
72
36
73
30
74
0
42
0.000000001
43
0.0000000001
44
0.0000000001
40
0
40
0
40
0
40
0
40
0
40
0
40
0.040000000000000001
40
0.080000000000000002
40
0.12
40
0.16
40
0.20000000000000001
40
0.24000000000000002
40
0.28000000000000003
40
0.32000000000000001
40
0.35999999999999999
40
0.39999999999999997
40
0.43999999999999995
40
0.47999999999999993
40
0.51999999999999991
40
0.55999999999999994
40
0.59999999999999998
40
0.64000000000000001
40
0.68000000000000005
40
0.72000000000000008
40
0.76000000000000012
40
0.80000000000000016
40
0.84000000000000019
40
0.88000000000000023
40
0.92000000000000026
40
0.9600000000000003
40
1
40
1
40
1
40
1
40
1
40
1
10
123.70045873408287
20
365.26521581480733
30
0
10
122.05217613006366
20
364.71985473467788
30
0
10
118.92164335161436
20
363.53167286336202
30
0
10
114.72396413580412
20
361.45701529600274
30
0
10
110.12570215132747
20
358.10455859468135
30
0
10
106.00373794607344
20
352.94328501315636
30
0
10
103.3613821103465
20
346.84704281441981
30
0
10
101.89101733882494
20
339.89799580178271
30
0
10
101.04184194730847
20
332.24919120707392
30
0
10
100.11077710033236
20
324.10517752911198
30
0
10
98.37241929866272
20
315.69270381137261
30
0
10
95.199808368006146
20
307.23453667779114
30
0
10
90.179340116352421
20
298.92397593748933
30
0
10
83.258206960721409
20
290.89421477204394
30
0
10
74.697162765217371
20
283.22076092643539
30
0
10
64.96641278324087
20
275.93358499872051
30
0
10
54.663302034564467
20
269.02536548831137
30
0
10
44.42414834013266
20
262.46073274311118
30
0
10
34.837332121128853
20
256.18462792731202
30
0
10
26.361139085544334
20
250.13049158259156
30
0
10
19.223722738400145
20
244.22860852917523
30
0
10
13.465489220079354
20
238.41051390615857
30
0
10
9.0044681908052286
20
232.61257100519623
30
0
10
5.6928124607765245
20
226.77999313952432
30
0
10
3.3727739433154325
20
220.87039104955181
30
0
10
1.9392392403324277
20
214.85858543754131
30
0
10
1.456971277408089
20
209.9580768807559
30
0
10
1.4585526731062572
20
206.22998078307177
30
0
10
1.6206753813852026
20
203.72121947485394
30
0
10
1.7420021370044481
20
202.46099762143598
30
0
0
LINE
5
113
100
AcDbEntity
8
0
100
AcDbLine
10
123.70045873408287
20
365.26521581480733
30
0
11
143.70045873408273
21
365.26521581480733
31
0
0
CIRCLE
5
114
100
AcDbEntity
8
0
100
AcDbCircle
10
108.70045873408287
20
275.26521581480773
30
0
40
3.9999999999999858
0
CIRCLE
5
115
100
AcDbEntity
8
0
100
AcDbCircle
10
113.70045873408287
20
335.26521581480733
30
0
40
3.9999999999999858
0
SPLINE
5
116
100
AcDbEntity
8
0
100
AcDbSpline
70
1064
71
5
72
36
73
30
74
0
42
0.000000001
43
0.0000000001
44
0.0000000001
40
0
40
0
40
0
40
0
40
0
40
0
40
0.040000000000000001
40
0.080000000000000002
40
0.12
40
0.16
40
0.20000000000000001
40
0.24000000000000002
40
0.28000000000000003
40
0.32000000000000001
40
0.35999999999999999
40
0.39999999999999997
40
0.43999999999999995
40
0.47999999999999993
40
0.51999999999999991
40
0.55999999999999994
40
0.59999999999999998
40
0.64000000000000001
40
0.68000000000000005
40
0.72000000000000008
40
0.76000000000000012
40
0.80000000000000016
40
0.84000000000000019
40
0.88000000000000023
40
0.92000000000000026
40
0.9600000000000003
40
1
40
1
40
1
40
1
40
1
40
1
10
143.70045873408273
20
365.26521581480733
30
0
10
142.52073559599026
20
363.6793774370816
30
0
10
140.26378662865716
20
360.53751497524365
30
0
10
137.18593912531529
20
355.91394256229256
30
0
10
133.69817044693835
20
349.93001167720109
30
0
10
130.37333649210603
20
342.66120464717568
30
0
10
128.07790400603545
20
335.36295600011863
30
0
10
126.81184504490449
20
327.48659874336522
30
0
10
126.5171203665556
20
318.22425826202334
30
0
10
126.72749919691313
20
307.7361334006012
30
0
10
126.81792401152737
20
296.5667295136659
30
0
10
126.10315057557109
20
285.5141876939212
30
0
10
123.98486895432808
20
275.34064490279019
30
0
10
120.10672228047461
20
266.5019619347463
30
0
10
114.4030888194264
20
259.05259464011885
30
0
10
107.00796106775827
20
252.80386889490799
30
0
10
98.202680657116886
20
247.41394863802407
30
0
10
88.353084915832071
20
242.49590351351631
30
0
10
77.846306779246987
20
237.73478953132727
30
0
10
67.057221866339916
20
232.92403698880238
30
0
10
56.341465544248202
20
227.93154933865307
30
0
10
46.020998193040221
20
222.68730167343878
30
0
10
36.371608554389056
20
217.16248203502929
30
0
10
27.610900203677993
20
211.35377920937205
30
0
10
19.880307516098426
20
205.26365539048487
30
0
10
13.254905676898499
20
198.8948095534443
30
0
10
8.8634739450016991
20
193.57937175958506
30
0
10
6.0829551437064833
20
189.4699410855641
30
0
10
4.4567176631292789
20
186.67586674866538
30
0
10
3.7004587340834405
20
185.26521581480813
30
0
0
LINE
5
117
100
AcDbEntity
8
0
100
AcDbLine
10
1.7420021370044481
20
202.46099762143598
30
0
11
3.7004587340834405
21
185.26521581480813
31
0
0
CIRCLE
5
118
100
AcDbEntity
8
0
100
AcDbCircle
10
-26.463019329117827
20
282.46061749006702
30
0
40
4.0000000000000195
0
LINE
5
119
100
AcDbEntity
8
0
100
AcDbLine
10
53.536980670881746
20
402.46061749006617
30
0
11
73.536980670881604
21
402.46061749006617
31
0
0
LINE
5
120
100
AcDbEntity
8
0
100
AcDbLine
10
-68.421475926196393
20
239.6563992966951
30
0
11
-66.463019329117401
21
222.46061749006731
31
0
0
SPLINE
5
121
100
AcDbEntity
8
0
100
AcDbSpline
70
1064
71
5
72
36
73
30
74
0
42
0.000000001
43
0.0000000001
44
0.0000000001
40
0
40
0
40
0
40
0
40
0
40
0
40
0.040000000000000001
40
0.080000000000000002
40
0.12
40
0.16
40
0.20000000000000001
40
0.24000000000000002
40
0.28000000000000003
40
0.32000000000000001
40
0.35999999999999999
40
0.39999999999999997
40
0.43999999999999995
40
0.47999999999999993
40
0.51999999999999991
40
0.55999999999999994
40
0.59999999999999998
40
0.64000000000000001
40
0.68000000000000005
40
0.72000000000000008
40
0.76000000000000012
40
0.80000000000000016
40
0.84000000000000019
40
0.88000000000000023
40
0.92000000000000026
40
0.9600000000000003
40
1
40
1
40
1
40
1
40
1
40
1
10
73.536980670881604
20
402.46061749006617
30
0
10
72.357257532779926
20
400.87477911233873
30
0
10
70.100308565432385
20
397.73291665049845
30
0
10
67.022461062080964
20
393.10934423754668
30
0
10
63.534692383710329
20
387.12541335245737
30
0
10
60.209858428897071
20
379.85660632243503
30
0
10
57.914425942837326
20
372.55835767537735
30
0
10
56.648366981702189
20
364.68200041862394
30
0
10
56.3536423033473
20
355.41965993728269
30
0
10
56.564021133701303
20
344.93153507586044
30
0
10
56.654445948316777
20
333.76213118892497
30
0
10
55.939672512365924
20
322.70958936918072
30
0
10
53.821390891130363
20
312.53604657804919
30
0
10
49.943244217283606
20
303.69736361000315
30
0
10
44.239610756238832
20
296.2479963153732
30
0
10
36.844483004569128
20
289.99927057016157
30
0
10
28.039202593920919
20
284.60935031328012
30
0
10
18.189606852625527
20
279.69130518877824
30
0
10
7.6828287160285127
20
274.93019120659801
30
0
10
-3.1062561968879594
20
270.11943866408149
30
0
10
-13.822012518982781
20
265.12695101393672
30
0
10
-24.142479870184669
20
259.88270334871891
30
0
10
-33.79186950881995
20
254.35788371029599
30
0
10
-42.552577859507991
20
248.54918088461739
30
0
10
-50.283170547064458
20
242.45905706570846
30
0
10
-56.908572386251642
20
236.09021122865516
30
0
10
-61.300004118154405
20
230.77477343480129
30
0
10
-64.080522919466731
20
226.66534276079676
30
0
10
-65.706760400061356
20
223.87126842391473
30
0
10
-66.463019329117401
20
222.46061749006731
30
0
0
CIRCLE
5
122
100
AcDbEntity
8
0
100
AcDbCircle
10
38.536980670881888
20
312.46061749006674
30
0
40
3.9999999999999858
0
CIRCLE
5
123
100
AcDbEntity
8
0
100
AcDbCircle
10
43.536980670881746
20
372.4606174900664
30
0
40
3.9999999999999858
0
SPLINE
5
124
100
AcDbEntity
8
0
100
AcDbSpline
70
1064
71
5
72
36
73
30
74
0
42
0.000000001
43
0.0000000001
44
0.0000000001
40
0
40
0
40
0
40
0
40
0
40
0
40
0.040000000000000001
40
0.080000000000000002
40
0.12
40
0.16
40
0.20000000000000001
40
0.24000000000000002
40
0.28000000000000003
40
0.32000000000000001
40
0.35999999999999999
40
0.39999999999999997
40
0.43999999999999995
40
0.47999999999999993
40
0.51999999999999991
40
0.55999999999999994
40
0.59999999999999998
40
0.64000000000000001
40
0.68000000000000005
40
0.72000000000000008
40
0.76000000000000012
40
0.80000000000000016
40
0.84000000000000019
40
0.88000000000000023
40
0.92000000000000026
40
0.9600000000000003
40
1
40
1
40
1
40
1
40
1
40
1
10
53.536980670881746
20
402.46061749006617
30
0
10
51.888698066863498
20
401.91525640997048
30
0
10
48.758165288415867
20
400.72707453871152
30
0
10
44.560486072607041
20
398.65241697140476
30
0
10
39.962224088130512
20
395.29996027009122
30
0
10
35.840259882874747
20
390.13868668850881
30
0
10
33.197904047145805
20
384.04244448969018
30
0
10
31.727539275622473
20
377.09339747698471
30
0
10
30.878363884105102
20
369.44459288224141
30
0
10
29.947299037129152
20
361.30057920428055
30
0
10
28.208941235460472
20
352.88810548657193
30
0
10
25.03633030480508
20
344.42993835303815
30
0
10
20.015862053151942
20
336.11937761278568
30
0
10
13.094728897520316
20
328.089616447379
30
0
10
4.5336847020151341
20
320.41616260179234
30
0
10
-5.1970652799626826
20
313.12898667407967
30
0
10
-15.500176028639952
20
306.22076716365353
30
0
10
-25.7393297230713
20
299.65613441842044
30
0
10
-35.326145942072948
20
293.38002960257813
30
0
10
-43.802338977653726
20
287.32589325781339
30
0
10
-50.939755324793964
20
281.42401020436358
30
0
10
-56.697988843112704
20
275.60591558133638
30
0
10
-61.159009872388239
20
269.80797268039333
30
0
10
-64.4706656024225
20
263.97539481476997
30
0
10
-66.790704119891757
20
258.06579272486135
30
0
10
-68.224238822881802
20
252.05398711290084
30
0
10
-68.706506785806482
20
247.15347855611569
30
0
10
-68.704925390103554
20
243.42538245839646
30
0
10
-68.542802681818984
20
240.91662115013776
30
0
10
-68.421475926196393
20
239.6563992966951
30
0
0
LWPOLYLINE
5
125
100
AcDbEntity
8
0
100
AcDbPolyline
90
36
70
1
43
0.0
10
-597.33276284390513
20
-51.703188331293148
10
-597.33276284390513
20
-31.703188331293148
10
-587.83276284390513
20
-31.703188331293148
42
0.41421356237309503
10
-585.33276284390513
20
-34.203188331293148
42
0.99999999999999989
10
-585.33276284390513
20
-29.203188331293148
10
-585.33276284390513
20
-21.703188331293148
10
-145.3327628439051
20
-21.703188331293148
10
-145.3327628439051
20
-29.203188331293148
42
0.99999999999999989
10
-145.3327628439051
20
-34.203188331293148
42
0.41421356237309503
10
-142.8327628439051
20
-31.703188331293148
10
-133.33276284390507
20
-31.703188331293148
10
-133.33276284390507
20
-51.703188331293148
10
-142.8327628439051
20
-51.703188331293148
42
0.41421356237309503
10
-145.3327628439051
20
-49.203188331293148
42
0.99999999999999989
10
-145.3327628439051
20
-54.203188331293148
10
-145.3327628439051
20
-139.20318833129306
42
0.99999999999999989
10
-145.3327628439051
20
-144.20318833129306
42
0.41421356237309503
10
-142.8327628439051
20
-141.70318833129306
10
-133.33276284390507
20
-141.70318833129306
10
-133.33276284390507
20
-161.70318833129306
10
-142.8327628439051
20
-161.70318833129306
42
0.41421356237309503
10
-145.3327628439051
20
-159.20318833129301
42
0.99999999999999989
10
-145.3327628439051
20
-164.20318833129315
10
-145.3327628439051
20
-171.70318833129306
10
-585.33276284390513
20
-171.70318833129306
10
-585.33276284390513
20
-164.20318833129306
42
0.99999999999999989
10
-585.33276284390513
20
-159.20318833129306
42
0.41421356237309503
10
-587.83276284390513
20
-161.70318833129306
10
-597.33276284390513
20
-161.70318833129306
10
-597.33276284390513
20
-141.70318833129306
10
-587.83276284390513
20
-141.70318833129306
42
0.41421356237309503
10
-585.33276284390513
20
-144.20318833129306
42
0.99999999999999989
10
-585.33276284390513
20
-139.20318833129306
10
-585.33276284390513
20
-54.203188331293148
42
0.99999999999999989
10
-585.33276284390513
20
-49.203188331293148
42
0.41421356237309503
10
-587.83276284390513
20
-51.703188331293148
0
LWPOLYLINE
5
126
100
AcDbEntity
8
0
100
AcDbPolyline
90
16
70
1
43
0.0
10
-627.43084573211343
20
2.6571414035475627
10
-607.43084573211343
20
2.6571414035475627
10
-607.43084573211343
20
12.157141403547591
42
-2.4142135623730949
10
-604.93084573211343
20
14.657141403547591
10
-597.43084573211343
20
14.657141403547627
10
-597.43084573211354
20
454.65714140354777
10
-604.93084573211354
20
454.65714140354777
42
-2.4142135623730949
10
-607.43084573211354
20
457.15714140354777
10
-607.43084573211354
20
466.65714140354766
10
-627.43084573211354
20
466.65714140354766
10
-627.43084573211354
20
457.15714140354777
42
-2.4142135623730949
10
-629.93084573211354
20
454.65714140354777
10
-637.43084573211354
20
454.65714140354777
10
-637.43084573211343
20
14.657141403547591
10
-629.93084573211343
20
14.657141403547591
42
-2.4142135623730949
10
-627.43084573211343
20
12.157141403547591
0
LWPOLYLINE
5
127
100
AcDbEntity
8
0
100
AcDbPolyline
90
16
70
1
43
0.0
10
-672.2058602666491
20
-225.48048428138515
42
-2.4142135623730949
10
-669.7058602666491
20
-227.98048428138515
10
-669.7058602666491
20
-235.48048428138515
10
-229.70586026664904
20
-235.48048428138515
10
-229.70586026664904
20
-227.98048428138515
42
-2.4142135623730949
10
-227.20586026664904
20
-225.48048428138515
10
-217.7058602666491
20
-225.48048428138515
10
-217.7058602666491
20
-205.48048428138515
10
-227.20586026664904
20
-205.48048428138515
42
-2.4142135623730949
10
-229.70586026664904
20
-202.98048428138515
10
-229.70586026664904
20
-195.48048428138515
10
-669.7058602666491
20
-195.48048428138515
10
-669.7058602666491
20
-202.98048428138515
42
-2.4142135623730949
10
-672.2058602666491
20
-205.48048428138515
10
-681.7058602666491
20
-205.48048428138515
10
-681.7058602666491
20
-225.48048428138515
0
LWPOLYLINE
5
128
100
AcDbEntity
8
0
100
AcDbPolyline
90
12
70
1
43
0.0
10
-264.00020537974854
20
187.7844575690651
10
-214.00020537974854
20
187.7844575690651
10
-209.00020537974854
20
194.7844575690651
10
-209.00020537974854
20
237.7844575690651
10
-214.00020537974854
20
237.7844575690651
42
-0.99999999999999989
10
-214.00020537974854
20
242.7844575690651
10
-214.00020537974854
20
249.7844575690651
10
-264.00020537974854
20
249.7844575690651
10
-264.00020537974854
20
242.78445756906495
42
-0.99999999999999989
10
-264.00020537974854
20
237.78445756906524
10
-269.00020537974854
20
237.78445756906524
10
-269.00020537974854
20
194.7844575690651
0
CIRCLE
5
129
100
AcDbEntity
8
0
100
AcDbCircle
10
-239.00020537974882
20
214.78445756906527
30
0
40
3.9999999999999596
0
LWPOLYLINE
5
130
100
AcDbEntity
8
0
100
AcDbPolyline
90
4
70
1
43
0.0
10
-130.93182743800662
20
321.19558901269056
10
-173.28182743800659
20
321.19558901269056
10
-173.28182743800659
20
278.8455890126906
10
-130.93182743800662
20
278.8455890126906
0
LWPOLYLINE
5
131
100
AcDbEntity
8
0
100
AcDbPolyline
90
12
70
1
43
0.0
10
-184.00020537974854
20
242.78445756906493
42
-0.99999999999999989
10
-184.00020537974854
20
237.7844575690653
10
-189.00020537974854
20
237.7844575690653
10
-189.00020537974854
20
194.7844575690651
10
-184.00020537974854
20
187.7844575690651
10
-134.00020537974854
20
187.7844575690651
10
-129.00020537974854
20
194.7844575690651
10
-129.00020537974854
20
237.7844575690651
10
-134.00020537974854
20
237.7844575690651
42
-0.99999999999999989
10
-134.00020537974854
20
242.7844575690651
10
-134.00020537974854
20
249.7844575690651
10
-184.00020537974854
20
249.7844575690651
0
LINE
5
132
100
AcDbEntity
8
0
100
AcDbLine
10
-173.28182743800659
20
206.83960320443501
30
0
11
-173.28182743800659
21
208.89831023679801
31
0
0
LWPOLYLINE
5
133
100
AcDbEntity
8
0
100
AcDbPolyline
90
14
70
1
43
0.0
10
-178.28182743800659
20
331.19558901269056
10
-183.28182743800659
20
326.19558901269056
10
-183.28182743800659
20
273.8455890126906
10
-178.28182743800659
20
268.8455890126906
10
-125.93182743800661
20
268.8455890126906
10
-120.93182743800661
20
273.8455890126906
10
-120.93182743800661
20
326.19558901269056
10
-125.93182743800661
20
331.19558901269056
10
-139.60682743800652
20
331.19558901269056
42
-2.4142135623730949
10
-142.10682743800652
20
333.69558901269056
10
-142.10682743800652
20
343.19558901269062
10
-162.10682743800652
20
343.19558901269062
10
-162.10682743800652
20
333.69558901269056
42
-2.4142135623730949
10
-164.60682743800652
20
331.19558901269056
0
LINE
5
134
100
AcDbEntity
8
0
100
AcDbLine
10
-467.00000695884228
20
294.90000000000003
30
0
11
-466.00000694394112
21
294.90000000000003
31
0
0
LWPOLYLINE
5
135
100
AcDbEntity
8
0
100
AcDbPolyline
90
8
70
1
43
0.0
10
-432.02499999999992
20
304.90000000000003
10
-438.02500000000003
20
304.90000000000003
42
0.41421356237309503
10
-442.02499999999998
20
300.90000000000003
10
-442.02499999999998
20
283.89999999999998
42
0.41421356237309503
10
-438.02500000000003
20
279.90000000000003
10
-432.02499999999992
20
279.90000000000003
42
0.41421356237309503
10
-428.02499999999998
20
283.89999999999998
10
-428.02499999999998
20
300.90000000000003
42
0.41421356237309503
0
CIRCLE
5
136
100
AcDbEntity
8
0
100
AcDbCircle
10
-447.52499999999998
20
290.80000000000001
30
0
40
4.0000000000000018
0
LWPOLYLINE
5
137
100
AcDbEntity
8
0
100
AcDbPolyline
90
8
70
1
43
0.0
10
-460.19999999018069
20
229.19900709324818
10
-460.19999999018069
20
236.39900709324817
42
-2.4142135623730949
10
-457.69999999018069
20
238.89900709324817
10
-412.49999999018064
20
238.89900709324817
42
-2.4142135623730949
10
-409.99999999018064
20
236.39900709324817
10
-409.99999999018064
20
229.19900709324818
42
-2.4142135623730949
10
-412.49999999018064
20
226.69900709324818
10
-457.69999999018069
20
226.69900709324818
42
-2.4142135623730949
0
LWPOLYLINE
5
138
100
AcDbEntity
8
0
100
AcDbPolyline
90
8
70
1
43
0.0
10
-442.54999999999995
20
267.91420310090967
10
-427.34999999999985
20
267.91420310090967
42
-2.4142135623730949
10
-424.84999999999991
20
265.41420310090973
10
-424.84999999999991
20
258.21420310090969
42
-2.4142135623730949
10
-427.34999999999991
20
255.71420310090969
10
-442.54999999999995
20
255.71420310090969
42
-2.4142135623730949
10
-445.04999999999995
20
258.21420310090969
10
-445.04999999999995
20
265.41420310090967
42
-2.4142135623730949
0
LWPOLYLINE
5
139
100
AcDbEntity
8
0
100
AcDbPolyline
90
16
70
1
43
0.0
10
-264.67287591886122
20
-265.32010374348488
42
-2.4142135623730949
10
-267.17287591886122
20
-262.82010374348488
10
-267.17287591886122
20
-255.32010374348488
10
-707.17287591886122
20
-255.32010374348488
10
-707.17287591886122
20
-262.82010374348488
42
-2.4142135623730949
10
-709.67287591886122
20
-265.32010374348488
10
-719.17287591886122
20
-265.32010374348488
10
-719.17287591886122
20
-285.32010374348488
10
-709.67287591886122
20
-285.32010374348488
42
-2.4142135623730949
10
-707.17287591886122
20
-287.82010374348488
10
-707.17287591886122
20
-295.32010374348488
10
-267.17287591886122
20
-295.32010374348488
10
-267.17287591886122
20
-287.82010374348488
42
-2.4142135623730949
10
-264.67287591886122
20
-285.32010374348488
10
-255.17287591886122
20
-285.32010374348488
10
-255.17287591886122
20
-265.32010374348488
0
LWPOLYLINE
5
140
100
AcDbEntity
8
0
100
AcDbPolyline
90
16
70
1
43
0.0
10
-688.6240273971755
20
273.80476563735192
42
-2.4142135623730949
10
-691.1240273971755
20
271.30476563735192
10
-698.6240273971755
20
271.30476563735192
10
-698.62402739717538
20
-168.69523436264762
10
-691.12402739717538
20
-168.69523436264762
42
-2.4142135623730949
10
-688.62402739717538
20
-171.19523436264762
10
-688.62402739717538
20
-180.6952343626476
10
-668.62402739717538
20
-180.6952343626476
10
-668.62402739717538
20
-171.19523436264762
42
-2.4142135623730949
10
-666.12402739717538
20
-168.69523436264762
10
-658.62402739717538
20
-168.69523436264762
10
-658.6240273971755
20
271.30476563735192
10
-666.1240273971755
20
271.30476563735192
42
-2.4142135623730949
10
-668.6240273971755
20
273.80476563735192
10
-668.6240273971755
20
283.30476563735181
10
-688.6240273971755
20
283.30476563735181
0
LWPOLYLINE
5
141
100
AcDbEntity
8
0
100
AcDbPolyline
90
51
70
1
43
0.0
10
248.56018133049218
20
-36.133897200698627
10
258.1101813304922
20
-36.133897200698627
10
258.11018133049208
20
-148.64356324175546
42
-0.21627193764837954
10
247.86531956654798
20
-171.22086408296178
10
58.11018133049231
20
-337.25661003951063
10
-116.88981866950762
20
-337.25661003951052
10
-116.88981866950769
20
-327.70661003951057
42
2.4142135623730949
10
-119.38981866950769
20
-325.20661003951057
10
-134.43981866950764
20
-325.20661003951057
42
2.3153022216353527
10
-137.08981866950762
20
-327.70210598220416
10
-137.08981866950762
20
-337.25661003951063
10
-191.88981866950763
20
-337.25661003951063
10
-201.88981866950763
20
-327.25661003951063
10
-195.13694890917611
20
-320.50374027917911
42
2.4142135623730949
10
-195.13694890917611
20
-316.96820637324635
10
-205.88497198321159
20
-306.22018329921082
42
2.4142135623730949
10
-209.42050588914435
20
-306.22018329921082
10
-216.17337564947582
20
-312.97305305954234
10
-234.39058257540242
20
-294.75584613361571
42
-0.43152934535064036
10
-233.9631531518362
20
-280.21068513491366
10
-18.567999475358121
20
-88.748326311377767
42
0.2142283602536785
10
-16.88981866950769
20
-85.011279717959468
10
-16.88981866950769
20
-74.960482148656538
10
-7.3351292084737452
20
-74.960482148656538
42
2.3153022216354207
10
-4.8396332657802077
20
-72.310482148656575
10
-4.8396332657802077
20
-57.260482148656578
42
2.4140900157270102
10
-7.3398141991593491
20
-54.760482150805686
10
-16.889814199159332
20
-54.760482150805686
10
-16.889817623143202
20
35.239517849194314
10
-7.3398176231431478
20
35.239517849194314
42
2.4142135623730949
10
-4.8398176231431478
20
37.739517849194314
10
-4.8398176231431478
20
52.939517849194289
42
2.4142135623730949
10
-7.3398176231431478
20
55.439517849194289
10
-16.889817623143202
20
55.439517849194289
10
-16.889818439666939
20
61.139046983204963
42
0.3515239460348219
10
-18.455957524029643
20
63.091420817049624
10
-234.0591232476942
20
111.00323542230839
42
-0.3515239862758921
10
-241.88981866950766
20
120.76510602414794
10
-241.88981866950766
20
162.7433899604892
10
-107.08981866950765
20
162.74338996048914
10
-107.08981866950765
20
153.19338996048916
42
2.4142135623730949
10
-104.58981866950765
20
150.69338996048916
10
-89.38981866950769
20
150.69338996048916
42
2.4142135623730949
10
-86.88981866950769
20
153.19338996048916
10
-86.88981866950769
20
162.74338996048914
10
233.11018133049217
20
162.74338996048914
10
258.1101813304922
20
137.74338996048917
10
258.1101813304922
20
-15.933897200698635
10
248.55567727318558
20
-15.933897200698635
42
2.3153022216353922
10
246.06018133049218
20
-18.583897200698676
10
246.06018133049218
20
-33.633897200698627
42
2.4142135623730949
0
CIRCLE
5
142
100
AcDbEntity
8
0
100
AcDbCircle
10
133.11018133049237
20
72.743389960489125
30
0
40
4.0000000000000195
0
LWPOLYLINE
5
143
100
AcDbEntity
8
0
100
AcDbPolyline
90
8
70
1
43
0.0
10
140.81018132067294
20
-111.15561713275889
10
95.610181320672893
20
-111.15561713275886
42
-2.4142135623730949
10
93.110181320672893
20
-108.65561713275886
10
93.110181320672893
20
-101.45561713275887
42
-2.4142135623730949
10
95.610181320672893
20
-98.955617132758874
10
140.81018132067294
20
-98.955617132758903
42
-2.4142135623730949
10
143.31018132067294
20
-101.4556171327589
10
143.31018132067294
20
-108.65561713275889
42
-2.4142135623730949
0
CIRCLE
5
144
100
AcDbEntity
8
0
100
AcDbCircle
10
68.11018133049231
20
42.743389960489196
30
0
40
3.9999999999999858
0
LWPOLYLINE
5
145
100
AcDbEntity
8
0
100
AcDbPolyline
90
8
70
1
43
0.0
10
111.13518133049219
20
-121.1566100395107
10
111.13518133049219
20
-138.1566100395107
42
0.41421356237309503
10
115.1351813304921
20
-142.15661003951067
10
121.13518133049219
20
-142.15661003951067
42
0.41421356237309503
10
125.13518133049224
20
-138.1566100395107
10
125.13518133049224
20
-121.1566100395107
42
0.41421356237309503
10
121.13518133049219
20
-117.15661003951071
10
115.1351813304921
20
-117.15661003951071
42
0.41421356237309503
0
CIRCLE
5
146
100
AcDbEntity
8
0
100
AcDbCircle
10
63.11018133049231
20
-17.256610039510729
30
0
40
3.9999999999999858
0
CIRCLE
5
147
100
AcDbEntity
8
0
100
AcDbCircle
10
130.63518133049223
20
-128.0566100395107
30
0
40
4.0000000000000018
0
LINE
5
148
100
AcDbEntity
8
0
100
AcDbLine
10
150.11018828933453
20
-132.15661003951075
30
0
11
149.11018827443337
21
-132.15661003951075
31
0
0
CIRCLE
5
149
100
AcDbEntity
8
0
100
AcDbCircle
10
-16.764818669507804
20
-291.08161003951057
30
0
40
7.879999999999975
0
CIRCLE
5
150
100
AcDbEntity
8
0
100
AcDbCircle
10
83.11018133049231
20
-187.25661003951069
30
0
40
3.9999999999999987
0
ENDSEC
0
SECTION
2
OBJECTS
0
DICTIONARY
5
C
100
AcDbDictionary
3
ACAD_GROUP
350
D
3
ACAD_MLINESTYLE
350
17
0
DICTIONARY
5
D
100
AcDbDictionary
0
DICTIONARY
5
1A
330
C
100
AcDbDictionary
0
DICTIONARY
5
17
100
AcDbDictionary
0
ENDSEC
0
EOF
