  0
SECTION
  2
HEADER
  9
$ACADVER
  1
AC1014
  9
$HANDSEED
  5
FFFF
  9
$MEASUREMENT
 70
     1
  0
ENDSEC
  0
SECTION
  2
TABLES
  0
TABLE
  2
VPORT
  5
8
330
0
100
AcDbSymbolTable
 70
     4
  0
VPORT
  5
2E
330
8
100
AcDbSymbolTableRecord
100
AcDbViewportTableRecord
  2
*ACTIVE
 70
     0
 10
0.0
 20
0.0
 11
1.0
 21
1.0
 12
210.0
 22
148.5
 13
0.0
 23
0.0
 14
10.0
 24
10.0
 15
10.0
 25
10.0
 16
0.0
 26
0.0
 36
1.0
 17
0.0
 27
0.0
 37
0.0
 40
341.0
 41
1.24
 42
50.0
 43
0.0
 44
0.0
 50
0.0
 51
0.0
 71
     0
 72
   100
 73
     1
 74
     3
 75
     0
 76
     0
 77
     0
 78
     0
  0
ENDTAB
  0
TABLE
  2
LTYPE
  5
5
330
0
100
AcDbSymbolTable
 70
     1
  0
LTYPE
  5
14
330
5
100
AcDbSymbolTableRecord
100
AcDbLinetypeTableRecord
  2
BYBLOCK
 70
     0
  3

 72
    65
 73
     0
 40
0.0
  0
LTYPE
  5
15
330
5
100
AcDbSymbolTableRecord
100
AcDbLinetypeTableRecord
  2
BYLAYER
 70
     0
  3

 72
    65
 73
     0
 40
0.0
  0
LTYPE
  5
16
330
5
100
AcDbSymbolTableRecord
100
AcDbLinetypeTableRecord
  2
CONTINUOUS
 70
     0
  3
Solid line
 72
    65
 73
     0
 40
0.0
  0
ENDTAB
  0
TABLE
  2
LAYER
  5
2
100
AcDbSymbolTable
 70
2
  0
LAYER
  5
50
100
AcDbSymbolTableRecord
100
AcDbLayerTableRecord
  2
0
 70
0
  6
CONTINUOUS
  0
LAYER
  5
51
100
AcDbSymbolTableRecord
100
AcDbLayerTableRecord
  2
Calque_1
 70
0
  6
CONTINUOUS
  0
ENDTAB
  0
TABLE
  2
STYLE
  5
3
330
0
100
AcDbSymbolTable
 70
     1
  0
STYLE
  5
11
330
3
100
AcDbSymbolTableRecord
100
AcDbTextStyleTableRecord
  2
STANDARD
 70
     0
 40
0.0
 41
1.0
 50
0.0
 71
     0
 42
2.5
  3
txt
  4

  0
ENDTAB
  0
TABLE
  2
VIEW
  5
6
330
0
100
AcDbSymbolTable
 70
     0
  0
ENDTAB
  0
TABLE
  2
UCS
  5
7
330
0
100
AcDbSymbolTable
 70
     0
  0
ENDTAB
  0
TABLE
  2
APPID
  5
9
330
0
100
AcDbSymbolTable
 70
     2
  0
APPID
  5
12
330
9
100
AcDbSymbolTableRecord
100
AcDbRegAppTableRecord
  2
ACAD
 70
     0
  0
ENDTAB
  0
TABLE
  2
DIMSTYLE
  5
A
330
0
100
AcDbSymbolTable
 70
     1
  0
DIMSTYLE
105
27
330
A
100
AcDbSymbolTableRecord
100
AcDbDimStyleTableRecord
  2
ISO-25
 70
     0
  3

  4

  5

  6

  7

 40
1.0
 41
2.5
 42
0.625
 43
3.75
 44
1.25
 45
0.0
 46
0.0
 47
0.0
 48
0.0
140
2.5
141
2.5
142
0.0
143
0.03937007874016
144
1.0
145
0.0
146
1.0
147
0.625
 71
     0
 72
     0
 73
     0
 74
     0
 75
     0
 76
     0
 77
     1
 78
     8
170
     0
171
     3
172
     1
173
     0
174
     0
175
     0
176
     0
177
     0
178
     0
270
     2
271
     2
272
     2
273
     2
274
     3
340
11
275
     0
280
     0
281
     0
282
     0
283
     0
284
     8
285
     0
286
     0
287
     3
288
     0
  0
ENDTAB
  0
TABLE
  2
BLOCK_RECORD
  5
1
330
0
100
AcDbSymbolTable
 70
     1
  0
BLOCK_RECORD
  5
1F
330
1
100
AcDbSymbolTableRecord
100
AcDbBlockTableRecord
  2
*MODEL_SPACE
  0
BLOCK_RECORD
  5
1B
330
1
100
AcDbSymbolTableRecord
100
AcDbBlockTableRecord
  2
*PAPER_SPACE
  0
ENDTAB
  0
ENDSEC
  0
SECTION
  2
BLOCKS
  0
BLOCK
  5
20
330
1F
100
AcDbEntity
  8
0
100
AcDbBlockBegin
  2
*MODEL_SPACE
 70
     0
 10
0.0
 20
0.0
 30
0.0
  3
*MODEL_SPACE
  1

  0
ENDBLK
  5
21
330
1F
100
AcDbEntity
  8
0
100
AcDbBlockEnd
  0
BLOCK
  5
1C
330
1B
100
AcDbEntity
 67
     1
  8
0
100
AcDbBlockBegin
  2
*PAPER_SPACE
  1

  0
ENDBLK
  5
1D
330
1B
100
AcDbEntity
 67
     1
  8
0
100
AcDbBlockEnd
  0
ENDSEC
  0
SECTION
  2
ENTITIES
  0
LWPOLYLINE
  5
100
100
AcDbEntity
  8
Calque_1
 62
1
100
AcDbPolyline
 90
116
 70
1
 10
2.043269
 20
802.511745
 30
0.0
 10
30.531458
 20
802.511745
 30
0.0
 10
30.531458
 20
794.007808
 30
0.0
 10
58.594450
 20
794.007808
 30
0.0
 10
58.594450
 20
802.511745
 30
0.0
 10
87.224372
 20
802.511745
 30
0.0
 10
87.224372
 20
794.007808
 30
0.0
 10
115.287364
 20
794.007808
 30
0.0
 10
115.287364
 20
802.511745
 30
0.0
 10
143.917285
 20
802.511745
 30
0.0
 10
143.917285
 20
794.007808
 30
0.0
 10
171.980277
 20
794.007808
 30
0.0
 10
171.980277
 20
802.511745
 30
0.0
 10
200.610198
 20
802.511745
 30
0.0
 10
200.610198
 20
794.007808
 30
0.0
 10
228.673191
 20
794.007808
 30
0.0
 10
228.673191
 20
802.511745
 30
0.0
 10
257.303140
 20
802.511745
 30
0.0
 10
257.303140
 20
794.007808
 30
0.0
 10
285.366121
 20
794.007808
 30
0.0
 10
285.366121
 20
802.511745
 30
0.0
 10
313.996042
 20
802.511745
 30
0.0
 10
313.996042
 20
794.007808
 30
0.0
 10
342.059034
 20
794.007808
 30
0.0
 10
342.059034
 20
802.511745
 30
0.0
 10
370.688970
 20
802.511745
 30
0.0
 10
370.688970
 20
794.007808
 30
0.0
 10
398.751962
 20
794.007808
 30
0.0
 10
398.751962
 20
802.511745
 30
0.0
 10
427.240151
 20
802.511745
 30
0.0
 10
427.240151
 20
774.023557
 30
0.0
 10
418.736214
 20
774.023557
 30
0.0
 10
418.736214
 20
745.960573
 30
0.0
 10
427.240151
 20
745.960573
 30
0.0
 10
427.240151
 20
717.330652
 30
0.0
 10
418.736214
 20
717.330652
 30
0.0
 10
418.736214
 20
689.267659
 30
0.0
 10
427.240151
 20
689.267659
 30
0.0
 10
427.240151
 20
660.637738
 30
0.0
 10
418.736214
 20
660.637738
 30
0.0
 10
418.736214
 20
632.574746
 30
0.0
 10
427.240151
 20
632.574746
 30
0.0
 10
427.240151
 20
603.944825
 30
0.0
 10
418.736214
 20
603.944825
 30
0.0
 10
418.736214
 20
575.881833
 30
0.0
 10
427.240151
 20
575.881833
 30
0.0
 10
427.240151
 20
547.251911
 30
0.0
 10
418.736214
 20
547.251911
 30
0.0
 10
418.736214
 20
519.188919
 30
0.0
 10
427.240151
 20
519.188919
 30
0.0
 10
427.240151
 20
490.559072
 30
0.0
 10
418.736214
 20
490.559072
 30
0.0
 10
418.736214
 20
462.496051
 30
0.0
 10
427.240151
 20
462.496051
 30
0.0
 10
427.240151
 20
433.866130
 30
0.0
 10
418.736214
 20
433.866130
 30
0.0
 10
418.736214
 20
405.803138
 30
0.0
 10
427.240151
 20
405.803138
 30
0.0
 10
427.240151
 20
377.314949
 30
0.0
 10
398.751962
 20
377.314949
 30
0.0
 10
398.751962
 20
385.818886
 30
0.0
 10
370.688970
 20
385.818886
 30
0.0
 10
370.688970
 20
377.314949
 30
0.0
 10
342.059034
 20
377.314949
 30
0.0
 10
342.059034
 20
385.818886
 30
0.0
 10
313.996042
 20
385.818886
 30
0.0
 10
313.996042
 20
377.314949
 30
0.0
 10
285.366121
 20
377.314949
 30
0.0
 10
285.366121
 20
385.818886
 30
0.0
 10
257.303140
 20
385.818886
 30
0.0
 10
257.303140
 20
377.314949
 30
0.0
 10
228.673191
 20
377.314949
 30
0.0
 10
228.673191
 20
385.818886
 30
0.0
 10
200.610198
 20
385.818886
 30
0.0
 10
200.610198
 20
377.314949
 30
0.0
 10
171.980277
 20
377.314949
 30
0.0
 10
171.980277
 20
385.818886
 30
0.0
 10
143.917285
 20
385.818886
 30
0.0
 10
143.917285
 20
377.314949
 30
0.0
 10
115.287364
 20
377.314949
 30
0.0
 10
115.287364
 20
385.818886
 30
0.0
 10
87.224372
 20
385.818886
 30
0.0
 10
87.224372
 20
377.314949
 30
0.0
 10
58.594450
 20
377.314949
 30
0.0
 10
58.594450
 20
385.818886
 30
0.0
 10
30.531458
 20
385.818886
 30
0.0
 10
30.531458
 20
377.314949
 30
0.0
 10
2.043269
 20
377.314949
 30
0.0
 10
2.043269
 20
405.803138
 30
0.0
 10
10.547206
 20
405.803138
 30
0.0
 10
10.547206
 20
433.866130
 30
0.0
 10
2.043269
 20
433.866130
 30
0.0
 10
2.043269
 20
462.496051
 30
0.0
 10
10.547206
 20
462.496051
 30
0.0
 10
10.547206
 20
490.559072
 30
0.0
 10
2.043269
 20
490.559072
 30
0.0
 10
2.043269
 20
519.188919
 30
0.0
 10
10.547206
 20
519.188919
 30
0.0
 10
10.547206
 20
547.251911
 30
0.0
 10
2.043269
 20
547.251911
 30
0.0
 10
2.043269
 20
575.881833
 30
0.0
 10
10.547206
 20
575.881833
 30
0.0
 10
10.547206
 20
603.944825
 30
0.0
 10
2.043269
 20
603.944825
 30
0.0
 10
2.043269
 20
632.574746
 30
0.0
 10
10.547206
 20
632.574746
 30
0.0
 10
10.547206
 20
660.637738
 30
0.0
 10
2.043269
 20
660.637738
 30
0.0
 10
2.043269
 20
689.267659
 30
0.0
 10
10.547206
 20
689.267659
 30
0.0
 10
10.547206
 20
717.330652
 30
0.0
 10
2.043269
 20
717.330652
 30
0.0
 10
2.043269
 20
745.960573
 30
0.0
 10
10.547206
 20
745.960573
 30
0.0
 10
10.547206
 20
774.023557
 30
0.0
 10
2.043269
 20
774.023557
 30
0.0
  0
LWPOLYLINE
  5
101
100
AcDbEntity
  8
Calque_1
 62
1
100
AcDbPolyline
 90
52
 70
1
 10
426.614097
 20
202.068905
 30
0.0
 10
369.779451
 20
202.068905
 30
0.0
 10
341.716467
 20
299.155519
 30
0.0
 10
86.314961
 20
299.155519
 30
0.0
 10
58.251969
 20
202.068905
 30
0.0
 10
1.417323
 20
202.068905
 30
0.0
 10
1.417323
 20
234.525598
 30
0.0
 10
9.921260
 20
234.525598
 30
0.0
 10
9.921260
 20
266.557094
 30
0.0
 10
1.417323
 20
266.557094
 30
0.0
 10
1.417323
 20
299.155519
 30
0.0
 10
9.921260
 20
299.155519
 30
0.0
 10
9.921260
 20
331.187015
 30
0.0
 10
1.417323
 20
331.187015
 30
0.0
 10
1.417323
 20
363.643708
 30
0.0
 10
29.622047
 20
363.643708
 30
0.0
 10
29.622047
 20
372.147645
 30
0.0
 10
58.251969
 20
372.147645
 30
0.0
 10
58.251969
 20
363.643708
 30
0.0
 10
86.314961
 20
363.643708
 30
0.0
 10
86.314961
 20
372.147645
 30
0.0
 10
114.944882
 20
372.147645
 30
0.0
 10
114.944882
 20
363.643708
 30
0.0
 10
143.007874
 20
363.643708
 30
0.0
 10
143.007874
 20
372.147645
 30
0.0
 10
171.637795
 20
372.147645
 30
0.0
 10
171.637795
 20
363.643708
 30
0.0
 10
199.700787
 20
363.643708
 30
0.0
 10
199.700787
 20
372.147645
 30
0.0
 10
228.330680
 20
372.147645
 30
0.0
 10
228.330680
 20
363.643708
 30
0.0
 10
256.393672
 20
363.643708
 30
0.0
 10
256.393672
 20
372.147645
 30
0.0
 10
285.023554
 20
372.147645
 30
0.0
 10
285.023554
 20
363.643708
 30
0.0
 10
313.086546
 20
363.643708
 30
0.0
 10
313.086546
 20
372.147645
 30
0.0
 10
341.716467
 20
372.147645
 30
0.0
 10
341.716467
 20
363.643708
 30
0.0
 10
369.779451
 20
363.643708
 30
0.0
 10
369.779451
 20
372.147645
 30
0.0
 10
398.409372
 20
372.147645
 30
0.0
 10
398.409372
 20
363.643708
 30
0.0
 10
426.614097
 20
363.643708
 30
0.0
 10
426.614097
 20
331.187015
 30
0.0
 10
418.110160
 20
331.187015
 30
0.0
 10
418.110160
 20
299.155519
 30
0.0
 10
426.614097
 20
299.155519
 30
0.0
 10
426.614097
 20
266.557094
 30
0.0
 10
418.110160
 20
266.557094
 30
0.0
 10
418.110160
 20
234.525598
 30
0.0
 10
426.614097
 20
234.525598
 30
0.0
  0
LWPOLYLINE
  5
102
100
AcDbEntity
  8
Calque_1
 62
1
100
AcDbPolyline
 90
52
 70
1
 10
369.779536
 20
1.417321
 30
0.0
 10
341.716524
 20
98.220470
 30
0.0
 10
89.316680
 20
98.220470
 30
0.0
 10
58.251969
 20
1.417321
 30
0.0
 10
9.921260
 20
1.417321
 30
0.0
 10
9.921260
 20
33.590549
 30
0.0
 10
1.417323
 20
33.590549
 30
0.0
 10
1.417323
 20
66.188974
 30
0.0
 10
9.921260
 20
66.188974
 30
0.0
 10
9.921260
 20
98.220470
 30
0.0
 10
1.417323
 20
98.220470
 30
0.0
 10
1.417323
 20
130.818895
 30
0.0
 10
9.921260
 20
130.818895
 30
0.0
 10
9.921260
 20
162.992124
 30
0.0
 10
29.622047
 20
162.992124
 30
0.0
 10
29.622047
 20
171.496061
 30
0.0
 10
58.251969
 20
171.496061
 30
0.0
 10
58.251969
 20
162.992124
 30
0.0
 10
86.314961
 20
162.992124
 30
0.0
 10
86.314961
 20
171.496061
 30
0.0
 10
114.944882
 20
171.496061
 30
0.0
 10
114.944882
 20
162.992124
 30
0.0
 10
143.007874
 20
162.992124
 30
0.0
 10
143.007874
 20
171.496061
 30
0.0
 10
171.637795
 20
171.496061
 30
0.0
 10
171.637795
 20
162.992124
 30
0.0
 10
199.700787
 20
162.992124
 30
0.0
 10
199.700787
 20
171.496061
 30
0.0
 10
228.330709
 20
171.496061
 30
0.0
 10
228.330709
 20
162.992124
 30
0.0
 10
256.393701
 20
162.992124
 30
0.0
 10
256.393701
 20
171.496061
 30
0.0
 10
285.023611
 20
171.496061
 30
0.0
 10
285.023611
 20
162.992124
 30
0.0
 10
313.086603
 20
162.992124
 30
0.0
 10
313.086603
 20
171.496061
 30
0.0
 10
341.716524
 20
171.496061
 30
0.0
 10
341.716524
 20
162.992124
 30
0.0
 10
369.779536
 20
162.992124
 30
0.0
 10
369.779536
 20
171.496061
 30
0.0
 10
398.409457
 20
171.496061
 30
0.0
 10
398.409457
 20
162.992124
 30
0.0
 10
418.110245
 20
162.992124
 30
0.0
 10
418.110245
 20
130.818895
 30
0.0
 10
426.614182
 20
130.818895
 30
0.0
 10
426.614182
 20
98.220470
 30
0.0
 10
418.110245
 20
98.220470
 30
0.0
 10
418.110245
 20
66.188974
 30
0.0
 10
426.614182
 20
66.188974
 30
0.0
 10
426.614182
 20
33.590549
 30
0.0
 10
418.110245
 20
33.590549
 30
0.0
 10
418.110245
 20
1.417321
 30
0.0
  0
LWPOLYLINE
  5
103
100
AcDbEntity
  8
Calque_1
 62
1
100
AcDbPolyline
 90
52
 70
1
 10
890.751855
 20
202.068905
 30
0.0
 10
833.917209
 20
202.068905
 30
0.0
 10
805.854226
 20
299.155519
 30
0.0
 10
550.452709
 20
299.155519
 30
0.0
 10
522.389716
 20
202.068905
 30
0.0
 10
465.555070
 20
202.068905
 30
0.0
 10
465.555070
 20
234.525598
 30
0.0
 10
474.059007
 20
234.525598
 30
0.0
 10
474.059007
 20
266.557094
 30
0.0
 10
465.555070
 20
266.557094
 30
0.0
 10
465.555070
 20
299.155519
 30
0.0
 10
474.059007
 20
299.155519
 30
0.0
 10
474.059007
 20
331.187015
 30
0.0
 10
465.555070
 20
331.187015
 30
0.0
 10
465.555070
 20
363.643708
 30
0.0
 10
493.759794
 20
363.643708
 30
0.0
 10
493.759794
 20
372.147645
 30
0.0
 10
522.389716
 20
372.147645
 30
0.0
 10
522.389716
 20
363.643708
 30
0.0
 10
550.452709
 20
363.643708
 30
0.0
 10
550.452709
 20
372.147645
 30
0.0
 10
579.082629
 20
372.147645
 30
0.0
 10
579.082629
 20
363.643708
 30
0.0
 10
607.145621
 20
363.643708
 30
0.0
 10
607.145621
 20
372.147645
 30
0.0
 10
635.775542
 20
372.147645
 30
0.0
 10
635.775542
 20
363.643708
 30
0.0
 10
663.838535
 20
363.643708
 30
0.0
 10
663.838535
 20
372.147645
 30
0.0
 10
692.468427
 20
372.147645
 30
0.0
 10
692.468427
 20
363.643708
 30
0.0
 10
720.531420
 20
363.643708
 30
0.0
 10
720.531420
 20
372.147645
 30
0.0
 10
749.161312
 20
372.147645
 30
0.0
 10
749.161312
 20
363.643708
 30
0.0
 10
777.224305
 20
363.643708
 30
0.0
 10
777.224305
 20
372.147645
 30
0.0
 10
805.854226
 20
372.147645
 30
0.0
 10
805.854226
 20
363.643708
 30
0.0
 10
833.917209
 20
363.643708
 30
0.0
 10
833.917209
 20
372.147645
 30
0.0
 10
862.547131
 20
372.147645
 30
0.0
 10
862.547131
 20
363.643708
 30
0.0
 10
890.751855
 20
363.643708
 30
0.0
 10
890.751855
 20
331.187015
 30
0.0
 10
882.247918
 20
331.187015
 30
0.0
 10
882.247918
 20
299.155519
 30
0.0
 10
890.751855
 20
299.155519
 30
0.0
 10
890.751855
 20
266.557094
 30
0.0
 10
882.247918
 20
266.557094
 30
0.0
 10
882.247918
 20
234.525598
 30
0.0
 10
890.751855
 20
234.525598
 30
0.0
  0
LWPOLYLINE
  5
104
100
AcDbEntity
  8
Calque_1
 62
1
100
AcDbPolyline
 90
52
 70
1
 10
833.917295
 20
1.417321
 30
0.0
 10
805.854283
 20
98.220470
 30
0.0
 10
553.454428
 20
98.220470
 30
0.0
 10
522.389716
 20
1.417321
 30
0.0
 10
474.059007
 20
1.417321
 30
0.0
 10
474.059007
 20
33.590549
 30
0.0
 10
465.555070
 20
33.590549
 30
0.0
 10
465.555070
 20
66.188974
 30
0.0
 10
474.059007
 20
66.188974
 30
0.0
 10
474.059007
 20
98.220470
 30
0.0
 10
465.555070
 20
98.220470
 30
0.0
 10
465.555070
 20
130.818895
 30
0.0
 10
474.059007
 20
130.818895
 30
0.0
 10
474.059007
 20
162.992124
 30
0.0
 10
493.759794
 20
162.992124
 30
0.0
 10
493.759794
 20
171.496061
 30
0.0
 10
522.389716
 20
171.496061
 30
0.0
 10
522.389716
 20
162.992124
 30
0.0
 10
550.452709
 20
162.992124
 30
0.0
 10
550.452709
 20
171.496061
 30
0.0
 10
579.082629
 20
171.496061
 30
0.0
 10
579.082629
 20
162.992124
 30
0.0
 10
607.145621
 20
162.992124
 30
0.0
 10
607.145621
 20
171.496061
 30
0.0
 10
635.775542
 20
171.496061
 30
0.0
 10
635.775542
 20
162.992124
 30
0.0
 10
663.838535
 20
162.992124
 30
0.0
 10
663.838535
 20
171.496061
 30
0.0
 10
692.468456
 20
171.496061
 30
0.0
 10
692.468456
 20
162.992124
 30
0.0
 10
720.531448
 20
162.992124
 30
0.0
 10
720.531448
 20
171.496061
 30
0.0
 10
749.161369
 20
171.496061
 30
0.0
 10
749.161369
 20
162.992124
 30
0.0
 10
777.224361
 20
162.992124
 30
0.0
 10
777.224361
 20
171.496061
 30
0.0
 10
805.854283
 20
171.496061
 30
0.0
 10
805.854283
 20
162.992124
 30
0.0
 10
833.917295
 20
162.992124
 30
0.0
 10
833.917295
 20
171.496061
 30
0.0
 10
862.547216
 20
171.496061
 30
0.0
 10
862.547216
 20
162.992124
 30
0.0
 10
882.248003
 20
162.992124
 30
0.0
 10
882.248003
 20
130.818895
 30
0.0
 10
890.751940
 20
130.818895
 30
0.0
 10
890.751940
 20
98.220470
 30
0.0
 10
882.248003
 20
98.220470
 30
0.0
 10
882.248003
 20
66.188974
 30
0.0
 10
890.751940
 20
66.188974
 30
0.0
 10
890.751940
 20
33.590549
 30
0.0
 10
882.248003
 20
33.590549
 30
0.0
 10
882.248003
 20
1.417321
 30
0.0
  0
LWPOLYLINE
  5
105
100
AcDbEntity
  8
Calque_1
 62
7
100
AcDbPolyline
 90
6
 70
1
 10
-335.628000
 20
636.738206
 30
0.0
 10
-335.628000
 20
636.738206
 30
0.0
 10
-335.628000
 20
636.738206
 30
0.0
 10
-335.628000
 20
636.738206
 30
0.0
 10
-335.628000
 20
636.738206
 30
0.0
 10
-335.628000
 20
636.738206
 30
0.0
  0
LWPOLYLINE
  5
106
100
AcDbEntity
  8
Calque_1
 62
7
100
AcDbPolyline
 90
3
 70
1
 10
-335.628000
 20
628.234269
 30
0.0
 10
-335.628000
 20
628.234269
 30
0.0
 10
-335.628000
 20
628.234269
 30
0.0
  0
LWPOLYLINE
  5
107
100
AcDbEntity
  8
Calque_1
 62
7
100
AcDbPolyline
 90
3
 70
1
 10
-327.124063
 20
636.738206
 30
0.0
 10
-327.124063
 20
636.738206
 30
0.0
 10
-327.124063
 20
636.738206
 30
0.0
  0
SPLINE
  5
108
100
AcDbEntity
  8
Calque_1
 62
1
100
AcDbSpline
 70
8
 71
3
 72
8
 73
4
 74
0
 40
0
 40
0
 40
0
 40
0
 40
1
 40
1
 40
1
 40
1
 10
229.641722
 20
589.913360
 30
0.0
 10
229.641722
 20
584.554376
 30
0.0
 10
226.782739
 20
579.602471
 30
0.0
 10
222.141723
 20
576.922979
 30
0.0
  0
SPLINE
  5
109
100
AcDbEntity
  8
Calque_1
 62
1
100
AcDbSpline
 70
8
 71
3
 72
8
 73
4
 74
0
 40
0
 40
0
 40
0
 40
0
 40
1
 40
1
 40
1
 40
1
 10
222.141723
 20
576.922979
 30
0.0
 10
217.500707
 20
574.243487
 30
0.0
 10
211.782739
 20
574.243487
 30
0.0
 10
207.141723
 20
576.922979
 30
0.0
  0
SPLINE
  5
10a
100
AcDbEntity
  8
Calque_1
 62
1
100
AcDbSpline
 70
8
 71
3
 72
8
 73
4
 74
0
 40
0
 40
0
 40
0
 40
0
 40
1
 40
1
 40
1
 40
1
 10
207.141723
 20
576.922979
 30
0.0
 10
202.500707
 20
579.602471
 30
0.0
 10
199.641723
 20
584.554376
 30
0.0
 10
199.641723
 20
589.913360
 30
0.0
  0
SPLINE
  5
10b
100
AcDbEntity
  8
Calque_1
 62
1
100
AcDbSpline
 70
8
 71
3
 72
8
 73
4
 74
0
 40
0
 40
0
 40
0
 40
0
 40
1
 40
1
 40
1
 40
1
 10
199.641723
 20
589.913360
 30
0.0
 10
199.641723
 20
595.272344
 30
0.0
 10
202.500707
 20
600.224249
 30
0.0
 10
207.141723
 20
602.903741
 30
0.0
  0
SPLINE
  5
10c
100
AcDbEntity
  8
Calque_1
 62
1
100
AcDbSpline
 70
8
 71
3
 72
8
 73
4
 74
0
 40
0
 40
0
 40
0
 40
0
 40
1
 40
1
 40
1
 40
1
 10
207.141723
 20
602.903741
 30
0.0
 10
211.782739
 20
605.583232
 30
0.0
 10
217.500707
 20
605.583232
 30
0.0
 10
222.141723
 20
602.903741
 30
0.0
  0
SPLINE
  5
10d
100
AcDbEntity
  8
Calque_1
 62
1
100
AcDbSpline
 70
8
 71
3
 72
8
 73
4
 74
0
 40
0
 40
0
 40
0
 40
0
 40
1
 40
1
 40
1
 40
1
 10
222.141723
 20
602.903741
 30
0.0
 10
226.782739
 20
600.224249
 30
0.0
 10
229.641722
 20
595.272344
 30
0.0
 10
229.641722
 20
589.913360
 30
0.0
  0
LWPOLYLINE
  5
10e
100
AcDbEntity
  8
Calque_1
 62
7
100
AcDbPolyline
 90
3
 70
1
 10
-327.124063
 20
628.234269
 30
0.0
 10
-327.124063
 20
628.234269
 30
0.0
 10
-327.124063
 20
628.234269
 30
0.0
  0
SPLINE
  5
10f
100
AcDbEntity
  8
Calque_1
 62
1
100
AcDbSpline
 70
8
 71
3
 72
8
 73
4
 74
0
 40
0
 40
0
 40
0
 40
0
 40
1
 40
1
 40
1
 40
1
 10
176.634019
 20
620.713670
 30
0.0
 10
176.634019
 20
619.512404
 30
0.0
 10
175.993151
 20
618.402388
 30
0.0
 10
174.952824
 20
617.801755
 30
0.0
  0
SPLINE
  5
110
100
AcDbEntity
  8
Calque_1
 62
1
100
AcDbSpline
 70
8
 71
3
 72
8
 73
4
 74
0
 40
0
 40
0
 40
0
 40
0
 40
1
 40
1
 40
1
 40
1
 10
174.952824
 20
617.801755
 30
0.0
 10
173.912496
 20
617.201121
 30
0.0
 10
172.630760
 20
617.201121
 30
0.0
 10
171.590433
 20
617.801755
 30
0.0
  0
SPLINE
  5
111
100
AcDbEntity
  8
Calque_1
 62
1
100
AcDbSpline
 70
8
 71
3
 72
8
 73
4
 74
0
 40
0
 40
0
 40
0
 40
0
 40
1
 40
1
 40
1
 40
1
 10
171.590433
 20
617.801755
 30
0.0
 10
170.550106
 20
618.402388
 30
0.0
 10
169.909237
 20
619.512404
 30
0.0
 10
169.909237
 20
620.713670
 30
0.0
  0
SPLINE
  5
112
100
AcDbEntity
  8
Calque_1
 62
1
100
AcDbSpline
 70
8
 71
3
 72
8
 73
4
 74
0
 40
0
 40
0
 40
0
 40
0
 40
1
 40
1
 40
1
 40
1
 10
169.909237
 20
620.713670
 30
0.0
 10
169.909237
 20
621.914937
 30
0.0
 10
170.550106
 20
623.024953
 30
0.0
 10
171.590433
 20
623.625586
 30
0.0
  0
SPLINE
  5
113
100
AcDbEntity
  8
Calque_1
 62
1
100
AcDbSpline
 70
8
 71
3
 72
8
 73
4
 74
0
 40
0
 40
0
 40
0
 40
0
 40
1
 40
1
 40
1
 40
1
 10
171.590433
 20
623.625586
 30
0.0
 10
172.630760
 20
624.226220
 30
0.0
 10
173.912496
 20
624.226220
 30
0.0
 10
174.952824
 20
623.625586
 30
0.0
  0
SPLINE
  5
114
100
AcDbEntity
  8
Calque_1
 62
1
100
AcDbSpline
 70
8
 71
3
 72
8
 73
4
 74
0
 40
0
 40
0
 40
0
 40
0
 40
1
 40
1
 40
1
 40
1
 10
174.952824
 20
623.625586
 30
0.0
 10
175.993151
 20
623.024953
 30
0.0
 10
176.634019
 20
621.914937
 30
0.0
 10
176.634019
 20
620.713670
 30
0.0
  0
LWPOLYLINE
  5
115
100
AcDbEntity
  8
Calque_1
 62
1
100
AcDbPolyline
 90
1
 70
1
 10
229.641722
 20
589.913360
 30
0.0
  0
SPLINE
  5
116
100
AcDbEntity
  8
Calque_1
 62
1
100
AcDbSpline
 70
8
 71
3
 72
8
 73
4
 74
0
 40
0
 40
0
 40
0
 40
0
 40
1
 40
1
 40
1
 40
1
 10
176.634049
 20
559.113024
 30
0.0
 10
176.634049
 20
557.911758
 30
0.0
 10
175.993181
 20
556.801742
 30
0.0
 10
174.952853
 20
556.201109
 30
0.0
  0
SPLINE
  5
117
100
AcDbEntity
  8
Calque_1
 62
1
100
AcDbSpline
 70
8
 71
3
 72
8
 73
4
 74
0
 40
0
 40
0
 40
0
 40
0
 40
1
 40
1
 40
1
 40
1
 10
174.952853
 20
556.201109
 30
0.0
 10
173.912526
 20
555.600475
 30
0.0
 10
172.630790
 20
555.600475
 30
0.0
 10
171.590462
 20
556.201109
 30
0.0
  0
SPLINE
  5
118
100
AcDbEntity
  8
Calque_1
 62
1
100
AcDbSpline
 70
8
 71
3
 72
8
 73
4
 74
0
 40
0
 40
0
 40
0
 40
0
 40
1
 40
1
 40
1
 40
1
 10
171.590462
 20
556.201109
 30
0.0
 10
170.550135
 20
556.801742
 30
0.0
 10
169.909267
 20
557.911758
 30
0.0
 10
169.909267
 20
559.113024
 30
0.0
  0
SPLINE
  5
119
100
AcDbEntity
  8
Calque_1
 62
1
100
AcDbSpline
 70
8
 71
3
 72
8
 73
4
 74
0
 40
0
 40
0
 40
0
 40
0
 40
1
 40
1
 40
1
 40
1
 10
169.909267
 20
559.113024
 30
0.0
 10
169.909267
 20
560.314291
 30
0.0
 10
170.550135
 20
561.424307
 30
0.0
 10
171.590462
 20
562.024940
 30
0.0
  0
SPLINE
  5
11a
100
AcDbEntity
  8
Calque_1
 62
1
100
AcDbSpline
 70
8
 71
3
 72
8
 73
4
 74
0
 40
0
 40
0
 40
0
 40
0
 40
1
 40
1
 40
1
 40
1
 10
171.590462
 20
562.024940
 30
0.0
 10
172.630790
 20
562.625574
 30
0.0
 10
173.912526
 20
562.625574
 30
0.0
 10
174.952853
 20
562.024940
 30
0.0
  0
SPLINE
  5
11b
100
AcDbEntity
  8
Calque_1
 62
1
100
AcDbSpline
 70
8
 71
3
 72
8
 73
4
 74
0
 40
0
 40
0
 40
0
 40
0
 40
1
 40
1
 40
1
 40
1
 10
174.952853
 20
562.024940
 30
0.0
 10
175.993181
 20
561.424307
 30
0.0
 10
176.634049
 20
560.314291
 30
0.0
 10
176.634049
 20
559.113024
 30
0.0
  0
LWPOLYLINE
  5
11c
100
AcDbEntity
  8
Calque_1
 62
1
100
AcDbPolyline
 90
1
 70
1
 10
176.634019
 20
620.713670
 30
0.0
  0
SPLINE
  5
11d
100
AcDbEntity
  8
Calque_1
 62
1
100
AcDbSpline
 70
8
 71
3
 72
8
 73
4
 74
0
 40
0
 40
0
 40
0
 40
0
 40
1
 40
1
 40
1
 40
1
 10
259.374160
 20
620.713670
 30
0.0
 10
259.374160
 20
619.512404
 30
0.0
 10
258.733292
 20
618.402388
 30
0.0
 10
257.692965
 20
617.801755
 30
0.0
  0
SPLINE
  5
11e
100
AcDbEntity
  8
Calque_1
 62
1
100
AcDbSpline
 70
8
 71
3
 72
8
 73
4
 74
0
 40
0
 40
0
 40
0
 40
0
 40
1
 40
1
 40
1
 40
1
 10
257.692965
 20
617.801755
 30
0.0
 10
256.652637
 20
617.201121
 30
0.0
 10
255.370901
 20
617.201121
 30
0.0
 10
254.330574
 20
617.801755
 30
0.0
  0
SPLINE
  5
11f
100
AcDbEntity
  8
Calque_1
 62
1
100
AcDbSpline
 70
8
 71
3
 72
8
 73
4
 74
0
 40
0
 40
0
 40
0
 40
0
 40
1
 40
1
 40
1
 40
1
 10
254.330574
 20
617.801755
 30
0.0
 10
253.290246
 20
618.402388
 30
0.0
 10
252.649378
 20
619.512404
 30
0.0
 10
252.649378
 20
620.713670
 30
0.0
  0
SPLINE
  5
120
100
AcDbEntity
  8
Calque_1
 62
1
100
AcDbSpline
 70
8
 71
3
 72
8
 73
4
 74
0
 40
0
 40
0
 40
0
 40
0
 40
1
 40
1
 40
1
 40
1
 10
252.649378
 20
620.713670
 30
0.0
 10
252.649378
 20
621.914937
 30
0.0
 10
253.290246
 20
623.024953
 30
0.0
 10
254.330574
 20
623.625586
 30
0.0
  0
SPLINE
  5
121
100
AcDbEntity
  8
Calque_1
 62
1
100
AcDbSpline
 70
8
 71
3
 72
8
 73
4
 74
0
 40
0
 40
0
 40
0
 40
0
 40
1
 40
1
 40
1
 40
1
 10
254.330574
 20
623.625586
 30
0.0
 10
255.370901
 20
624.226220
 30
0.0
 10
256.652637
 20
624.226220
 30
0.0
 10
257.692965
 20
623.625586
 30
0.0
  0
SPLINE
  5
122
100
AcDbEntity
  8
Calque_1
 62
1
100
AcDbSpline
 70
8
 71
3
 72
8
 73
4
 74
0
 40
0
 40
0
 40
0
 40
0
 40
1
 40
1
 40
1
 40
1
 10
257.692965
 20
623.625586
 30
0.0
 10
258.733292
 20
623.024953
 30
0.0
 10
259.374160
 20
621.914937
 30
0.0
 10
259.374160
 20
620.713670
 30
0.0
  0
LWPOLYLINE
  5
123
100
AcDbEntity
  8
Calque_1
 62
1
100
AcDbPolyline
 90
1
 70
1
 10
176.634049
 20
559.113024
 30
0.0
  0
SPLINE
  5
124
100
AcDbEntity
  8
Calque_1
 62
1
100
AcDbSpline
 70
8
 71
3
 72
8
 73
4
 74
0
 40
0
 40
0
 40
0
 40
0
 40
1
 40
1
 40
1
 40
1
 10
259.374188
 20
559.113024
 30
0.0
 10
259.374188
 20
557.911758
 30
0.0
 10
258.733320
 20
556.801742
 30
0.0
 10
257.692993
 20
556.201109
 30
0.0
  0
SPLINE
  5
125
100
AcDbEntity
  8
Calque_1
 62
1
100
AcDbSpline
 70
8
 71
3
 72
8
 73
4
 74
0
 40
0
 40
0
 40
0
 40
0
 40
1
 40
1
 40
1
 40
1
 10
257.692993
 20
556.201109
 30
0.0
 10
256.652666
 20
555.600475
 30
0.0
 10
255.370929
 20
555.600475
 30
0.0
 10
254.330602
 20
556.201109
 30
0.0
  0
SPLINE
  5
126
100
AcDbEntity
  8
Calque_1
 62
1
100
AcDbSpline
 70
8
 71
3
 72
8
 73
4
 74
0
 40
0
 40
0
 40
0
 40
0
 40
1
 40
1
 40
1
 40
1
 10
254.330602
 20
556.201109
 30
0.0
 10
253.290275
 20
556.801742
 30
0.0
 10
252.649407
 20
557.911758
 30
0.0
 10
252.649407
 20
559.113024
 30
0.0
  0
SPLINE
  5
127
100
AcDbEntity
  8
Calque_1
 62
1
100
AcDbSpline
 70
8
 71
3
 72
8
 73
4
 74
0
 40
0
 40
0
 40
0
 40
0
 40
1
 40
1
 40
1
 40
1
 10
252.649407
 20
559.113024
 30
0.0
 10
252.649407
 20
560.314291
 30
0.0
 10
253.290275
 20
561.424307
 30
0.0
 10
254.330602
 20
562.024940
 30
0.0
  0
SPLINE
  5
128
100
AcDbEntity
  8
Calque_1
 62
1
100
AcDbSpline
 70
8
 71
3
 72
8
 73
4
 74
0
 40
0
 40
0
 40
0
 40
0
 40
1
 40
1
 40
1
 40
1
 10
254.330602
 20
562.024940
 30
0.0
 10
255.370929
 20
562.625574
 30
0.0
 10
256.652666
 20
562.625574
 30
0.0
 10
257.692993
 20
562.024940
 30
0.0
  0
SPLINE
  5
129
100
AcDbEntity
  8
Calque_1
 62
1
100
AcDbSpline
 70
8
 71
3
 72
8
 73
4
 74
0
 40
0
 40
0
 40
0
 40
0
 40
1
 40
1
 40
1
 40
1
 10
257.692993
 20
562.024940
 30
0.0
 10
258.733320
 20
561.424307
 30
0.0
 10
259.374188
 20
560.314291
 30
0.0
 10
259.374188
 20
559.113024
 30
0.0
  0
LWPOLYLINE
  5
12a
100
AcDbEntity
  8
Calque_1
 62
1
100
AcDbPolyline
 90
1
 70
1
 10
259.374160
 20
620.713670
 30
0.0
  0
LWPOLYLINE
  5
12b
100
AcDbEntity
  8
Calque_1
 62
1
100
AcDbPolyline
 90
1
 70
1
 10
259.374188
 20
559.113024
 30
0.0
  0
ENDSEC
  0
SECTION
  2
OBJECTS
  0
DICTIONARY
  5
C
330
0
100
AcDbDictionary
  3
ACAD_GROUP
350
D
  3
ACAD_MLINESTYLE
350
17
  0
DICTIONARY
  5
D
330
C
100
AcDbDictionary
  0
DICTIONARY
  5
1A
330
C
100
AcDbDictionary
  0
DICTIONARY
  5
17
330
C
100
AcDbDictionary
  3
STANDARD
350
18
  0
DICTIONARY
  5
19
330
C
100
AcDbDictionary
  0
ENDSEC
  0
EOF
