  0
SECTION
  2
HEADER
  9
$ACADVER
  1
AC1009
  9
$EXTMIN
 10
0.0
 20
0.0
 30
0.0
  9
$EXTMAX
 10
1000.0
 20
1000.0
 30
0.0
  9
$FILLMODE
 70
 0
  9
$SPLFRAME
 70
 1
  0
ENDSEC
  0
SECTION
  2
TABLES
  0
TABLE
  2
LAYER
 70
1
  0
LAYER
  2
0
 70
     0
 62
     7
  6
CONTINUOUS
  0
ENDTAB
  0
ENDSEC
  0
SECTION
  2
ENTITIES
  0
POLYLINE
  8
0
 62
     0
 66
     1
 10
0
 20
0
 30
0.0
 40
0.8
 41
0.8
  0
VERTEX
  8
0
 10
13.5766
 20
38.8547
 30
0.0
 40
0.0111111
 41
0.0111111
  0
VERTEX
  8
0
 10
13.5766
 20
38.1835
 30
0.0
 40
0.0111111
 41
0.0111111
  0
SEQEND
 8
0
  0
POLYLINE
  8
0
 62
     0
 66
     1
 10
0
 20
0
 30
0.0
 40
0.8
 41
0.8
  0
VERTEX
  8
0
 10
13.5766
 20
38.8547
 30
0.0
 40
0.0111111
 41
0.0111111
  0
VERTEX
  8
0
 10
13.5703
 20
38.8854
 30
0.0
 40
0.0111111
 41
0.0111111
  0
VERTEX
  8
0
 10
13.5534
 20
38.9104
 30
0.0
 40
0.0111111
 41
0.0111111
  0
VERTEX
  8
0
 10
13.5284
 20
38.9274
 30
0.0
 40
0.0111111
 41
0.0111111
  0
VERTEX
  8
0
 10
13.4978
 20
38.9335
 30
0.0
 40
0.0111111
 41
0.0111111
  0
SEQEND
 8
0
  0
POLYLINE
  8
0
 62
     0
 66
     1
 10
0
 20
0
 30
0.0
 40
0.8
 41
0.8
  0
VERTEX
  8
0
 10
13.5766
 20
38.1835
 30
0.0
 40
0.0111111
 41
0.0111111
  0
VERTEX
  8
0
 10
14.7576
 20
38.1835
 30
0.0
 40
0.0111111
 41
0.0111111
  0
SEQEND
 8
0
  0
POLYLINE
  8
0
 62
     0
 66
     1
 10
0
 20
0
 30
0.0
 40
0.8
 41
0.8
  0
VERTEX
  8
0
 10
9.35314
 20
38.9335
 30
0.0
 40
0.0111111
 41
0.0111111
  0
VERTEX
  8
0
 10
13.4978
 20
38.9335
 30
0.0
 40
0.0111111
 41
0.0111111
  0
SEQEND
 8
0
  0
POLYLINE
  8
0
 62
     0
 66
     1
 10
0
 20
0
 30
0.0
 40
0.8
 41
0.8
  0
VERTEX
  8
0
 10
9.35314
 20
38.9335
 30
0.0
 40
0.0111111
 41
0.0111111
  0
VERTEX
  8
0
 10
9.32243
 20
38.9274
 30
0.0
 40
0.0111111
 41
0.0111111
  0
VERTEX
  8
0
 10
9.29742
 20
38.9104
 30
0.0
 40
0.0111111
 41
0.0111111
  0
VERTEX
  8
0
 10
9.28054
 20
38.8854
 30
0.0
 40
0.0111111
 41
0.0111111
  0
VERTEX
  8
0
 10
9.27442
 20
38.8547
 30
0.0
 40
0.0111111
 41
0.0111111
  0
SEQEND
 8
0
  0
POLYLINE
  8
0
 62
     0
 66
     1
 10
0
 20
0
 30
0.0
 40
0.8
 41
0.8
  0
VERTEX
  8
0
 10
9.27442
 20
37.8686
 30
0.0
 40
0.0111111
 41
0.0111111
  0
VERTEX
  8
0
 10
9.27442
 20
38.8547
 30
0.0
 40
0.0111111
 41
0.0111111
  0
SEQEND
 8
0
  0
POLYLINE
  8
0
 62
     0
 66
     1
 10
0
 20
0
 30
0.0
 40
0.8
 41
0.8
  0
VERTEX
  8
0
 10
9.52772
 20
37.6128
 30
0.0
 40
0.0111111
 41
0.0111111
  0
VERTEX
  8
0
 10
9.50786
 20
37.7118
 30
0.0
 40
0.0111111
 41
0.0111111
  0
VERTEX
  8
0
 10
9.45367
 20
37.7928
 30
0.0
 40
0.0111111
 41
0.0111111
  0
VERTEX
  8
0
 10
9.37315
 20
37.8478
 30
0.0
 40
0.0111111
 41
0.0111111
  0
VERTEX
  8
0
 10
9.27442
 20
37.8686
 30
0.0
 40
0.0111111
 41
0.0111111
  0
SEQEND
 8
0
  0
POLYLINE
  8
0
 62
     0
 66
     1
 10
0
 20
0
 30
0.0
 40
0.8
 41
0.8
  0
VERTEX
  8
0
 10
9.24164
 20
37.3586
 30
0.0
 40
0.0111111
 41
0.0111111
  0
VERTEX
  8
0
 10
9.35053
 20
37.3692
 30
0.0
 40
0.0111111
 41
0.0111111
  0
VERTEX
  8
0
 10
9.44174
 20
37.4215
 30
0.0
 40
0.0111111
 41
0.0111111
  0
VERTEX
  8
0
 10
9.50439
 20
37.506
 30
0.0
 40
0.0111111
 41
0.0111111
  0
VERTEX
  8
0
 10
9.52772
 20
37.6128
 30
0.0
 40
0.0111111
 41
0.0111111
  0
SEQEND
 8
0
  0
POLYLINE
  8
0
 62
     0
 66
     1
 10
0
 20
0
 30
0.0
 40
0.8
 41
0.8
  0
VERTEX
  8
0
 10
8.56635
 20
37.3586
 30
0.0
 40
0.0111111
 41
0.0111111
  0
VERTEX
  8
0
 10
9.24164
 20
37.3586
 30
0.0
 40
0.0111111
 41
0.0111111
  0
SEQEND
 8
0
  0
POLYLINE
  8
0
 62
     0
 66
     1
 10
0
 20
0
 30
0.0
 40
0.8
 41
0.8
  0
VERTEX
  8
0
 10
8.5165
 20
37.8651
 30
0.0
 40
0.0111111
 41
0.0111111
  0
VERTEX
  8
0
 10
8.41
 20
37.8431
 30
0.0
 40
0.0111111
 41
0.0111111
  0
VERTEX
  8
0
 10
8.32531
 20
37.7819
 30
0.0
 40
0.0111111
 41
0.0111111
  0
VERTEX
  8
0
 10
8.27186
 20
37.6921
 30
0.0
 40
0.0111111
 41
0.0111111
  0
VERTEX
  8
0
 10
8.25944
 20
37.584
 30
0.0
 40
0.0111111
 41
0.0111111
  0
VERTEX
  8
0
 10
8.29269
 20
37.4807
 30
0.0
 40
0.0111111
 41
0.0111111
  0
VERTEX
  8
0
 10
8.36257
 20
37.4029
 30
0.0
 40
0.0111111
 41
0.0111111
  0
VERTEX
  8
0
 10
8.45757
 20
37.3594
 30
0.0
 40
0.0111111
 41
0.0111111
  0
VERTEX
  8
0
 10
8.56635
 20
37.3586
 30
0.0
 40
0.0111111
 41
0.0111111
  0
SEQEND
 8
0
  0
POLYLINE
  8
0
 62
     0
 66
     1
 10
0
 20
0
 30
0.0
 40
0.8
 41
0.8
  0
VERTEX
  8
0
 10
8.5165
 20
38.8547
 30
0.0
 40
0.0111111
 41
0.0111111
  0
VERTEX
  8
0
 10
8.5165
 20
37.8651
 30
0.0
 40
0.0111111
 41
0.0111111
  0
SEQEND
 8
0
  0
POLYLINE
  8
0
 62
     0
 66
     1
 10
0
 20
0
 30
0.0
 40
0.8
 41
0.8
  0
VERTEX
  8
0
 10
8.5165
 20
38.8547
 30
0.0
 40
0.0111111
 41
0.0111111
  0
VERTEX
  8
0
 10
8.51031
 20
38.8854
 30
0.0
 40
0.0111111
 41
0.0111111
  0
VERTEX
  8
0
 10
8.49343
 20
38.9104
 30
0.0
 40
0.0111111
 41
0.0111111
  0
VERTEX
  8
0
 10
8.46843
 20
38.9274
 30
0.0
 40
0.0111111
 41
0.0111111
  0
VERTEX
  8
0
 10
8.43778
 20
38.9335
 30
0.0
 40
0.0111111
 41
0.0111111
  0
SEQEND
 8
0
  0
POLYLINE
  8
0
 62
     0
 66
     1
 10
0
 20
0
 30
0.0
 40
0.8
 41
0.8
  0
VERTEX
  8
0
 10
4.29308
 20
38.9335
 30
0.0
 40
0.0111111
 41
0.0111111
  0
VERTEX
  8
0
 10
8.43778
 20
38.9335
 30
0.0
 40
0.0111111
 41
0.0111111
  0
SEQEND
 8
0
  0
POLYLINE
  8
0
 62
     0
 66
     1
 10
0
 20
0
 30
0.0
 40
0.8
 41
0.8
  0
VERTEX
  8
0
 10
4.29308
 20
38.9335
 30
0.0
 40
0.0111111
 41
0.0111111
  0
VERTEX
  8
0
 10
4.26243
 20
38.9274
 30
0.0
 40
0.0111111
 41
0.0111111
  0
VERTEX
  8
0
 10
4.23742
 20
38.9104
 30
0.0
 40
0.0111111
 41
0.0111111
  0
VERTEX
  8
0
 10
4.22054
 20
38.8854
 30
0.0
 40
0.0111111
 41
0.0111111
  0
VERTEX
  8
0
 10
4.21436
 20
38.8547
 30
0.0
 40
0.0111111
 41
0.0111111
  0
SEQEND
 8
0
  0
POLYLINE
  8
0
 62
     0
 66
     1
 10
0
 20
0
 30
0.0
 40
0.8
 41
0.8
  0
VERTEX
  8
0
 10
4.21436
 20
38.1835
 30
0.0
 40
0.0111111
 41
0.0111111
  0
VERTEX
  8
0
 10
4.21436
 20
38.8547
 30
0.0
 40
0.0111111
 41
0.0111111
  0
SEQEND
 8
0
  0
POLYLINE
  8
0
 62
     0
 66
     1
 10
0
 20
0
 30
0.0
 40
0.8
 41
0.8
  0
VERTEX
  8
0
 10
2.94661
 20
38.1835
 30
0.0
 40
0.0111111
 41
0.0111111
  0
VERTEX
  8
0
 10
4.21436
 20
38.1835
 30
0.0
 40
0.0111111
 41
0.0111111
  0
SEQEND
 8
0
  0
POLYLINE
  8
0
 62
     0
 66
     1
 10
0
 20
0
 30
0.0
 40
0.8
 41
0.8
  0
VERTEX
  8
0
 10
0.212022
 20
22.6746
 30
0.0
 40
0.0111111
 41
0.0111111
  0
VERTEX
  8
0
 10
2.94661
 20
38.1835
 30
0.0
 40
0.0111111
 41
0.0111111
  0
SEQEND
 8
0
  0
POLYLINE
  8
0
 62
     0
 66
     1
 10
0
 20
0
 30
0.0
 40
0.8
 41
0.8
  0
VERTEX
  8
0
 10
0.212022
 20
22.6746
 30
0.0
 40
0.0111111
 41
0.0111111
  0
VERTEX
  8
0
 10
3.3616
 20
22.6746
 30
0.0
 40
0.0111111
 41
0.0111111
  0
SEQEND
 8
0
  0
POLYLINE
  8
0
 62
     0
 66
     1
 10
0
 20
0
 30
0.0
 40
0.8
 41
0.8
  0
VERTEX
  8
0
 10
3.3616
 20
22.6746
 30
0.0
 40
0.0111111
 41
0.0111111
  0
VERTEX
  8
0
 10
5.72846
 20
36.0978
 30
0.0
 40
0.0111111
 41
0.0111111
  0
SEQEND
 8
0
  0
POLYLINE
  8
0
 62
     0
 66
     1
 10
0
 20
0
 30
0.0
 40
0.8
 41
0.8
  0
VERTEX
  8
0
 10
5.72846
 20
36.0978
 30
0.0
 40
0.0111111
 41
0.0111111
  0
VERTEX
  8
0
 10
11.9758
 20
36.0978
 30
0.0
 40
0.0111111
 41
0.0111111
  0
SEQEND
 8
0
  0
POLYLINE
  8
0
 62
     0
 66
     1
 10
0
 20
0
 30
0.0
 40
0.8
 41
0.8
  0
VERTEX
  8
0
 10
11.9758
 20
36.0978
 30
0.0
 40
0.0111111
 41
0.0111111
  0
VERTEX
  8
0
 10
14.3426
 20
22.6746
 30
0.0
 40
0.0111111
 41
0.0111111
  0
SEQEND
 8
0
  0
POLYLINE
  8
0
 62
     0
 66
     1
 10
0
 20
0
 30
0.0
 40
0.8
 41
0.8
  0
VERTEX
  8
0
 10
17.4924
 20
22.6746
 30
0.0
 40
0.0111111
 41
0.0111111
  0
VERTEX
  8
0
 10
14.3426
 20
22.6746
 30
0.0
 40
0.0111111
 41
0.0111111
  0
SEQEND
 8
0
  0
POLYLINE
  8
0
 62
     0
 66
     1
 10
0
 20
0
 30
0.0
 40
0.8
 41
0.8
  0
VERTEX
  8
0
 10
14.7576
 20
38.1835
 30
0.0
 40
0.0111111
 41
0.0111111
  0
VERTEX
  8
0
 10
17.4924
 20
22.6746
 30
0.0
 40
0.0111111
 41
0.0111111
  0
SEQEND
 8
0
  0
POLYLINE
  8
0
 62
     0
 66
     1
 10
0
 20
0
 30
0.0
 40
0.8
 41
0.8
  0
VERTEX
  8
0
 10
19.7078
 20
18.9229
 30
0.0
 40
0.0111111
 41
0.0111111
  0
VERTEX
  8
0
 10
19.7383
 20
18.929
 30
0.0
 40
0.0111111
 41
0.0111111
  0
VERTEX
  8
0
 10
19.7633
 20
18.946
 30
0.0
 40
0.0111111
 41
0.0111111
  0
VERTEX
  8
0
 10
19.7803
 20
18.971
 30
0.0
 40
0.0111111
 41
0.0111111
  0
VERTEX
  8
0
 10
19.7865
 20
19.0015
 30
0.0
 40
0.0111111
 41
0.0111111
  0
SEQEND
 8
0
  0
POLYLINE
  8
0
 62
     0
 66
     1
 10
0
 20
0
 30
0.0
 40
0.8
 41
0.8
  0
VERTEX
  8
0
 10
19.7078
 20
18.9229
 30
0.0
 40
0.0111111
 41
0.0111111
  0
VERTEX
  8
0
 10
15.4404
 20
18.9229
 30
0.0
 40
0.0111111
 41
0.0111111
  0
SEQEND
 8
0
  0
POLYLINE
  8
0
 62
     0
 66
     1
 10
0
 20
0
 30
0.0
 40
0.8
 41
0.8
  0
VERTEX
  8
0
 10
15.4404
 20
18.9229
 30
0.0
 40
0.0111111
 41
0.0111111
  0
VERTEX
  8
0
 10
14.6837
 20
18.9229
 30
0.0
 40
0.0111111
 41
0.0111111
  0
SEQEND
 8
0
  0
POLYLINE
  8
0
 62
     0
 66
     1
 10
0
 20
0
 30
0.0
 40
0.8
 41
0.8
  0
VERTEX
  8
0
 10
14.6837
 20
18.9229
 30
0.0
 40
0.0111111
 41
0.0111111
  0
VERTEX
  8
0
 10
10.4164
 20
18.9229
 30
0.0
 40
0.0111111
 41
0.0111111
  0
SEQEND
 8
0
  0
POLYLINE
  8
0
 62
     0
 66
     1
 10
0
 20
0
 30
0.0
 40
0.8
 41
0.8
  0
VERTEX
  8
0
 10
10.3377
 20
19.0015
 30
0.0
 40
0.0111111
 41
0.0111111
  0
VERTEX
  8
0
 10
10.3438
 20
18.971
 30
0.0
 40
0.0111111
 41
0.0111111
  0
VERTEX
  8
0
 10
10.3607
 20
18.946
 30
0.0
 40
0.0111111
 41
0.0111111
  0
VERTEX
  8
0
 10
10.3857
 20
18.929
 30
0.0
 40
0.0111111
 41
0.0111111
  0
VERTEX
  8
0
 10
10.4164
 20
18.9229
 30
0.0
 40
0.0111111
 41
0.0111111
  0
SEQEND
 8
0
  0
POLYLINE
  8
0
 62
     0
 66
     1
 10
0
 20
0
 30
0.0
 40
0.8
 41
0.8
  0
VERTEX
  8
0
 10
10.3377
 20
19.0015
 30
0.0
 40
0.0111111
 41
0.0111111
  0
VERTEX
  8
0
 10
10.3377
 20
19.6729
 30
0.0
 40
0.0111111
 41
0.0111111
  0
SEQEND
 8
0
  0
POLYLINE
  8
0
 62
     0
 66
     1
 10
0
 20
0
 30
0.0
 40
0.8
 41
0.8
  0
VERTEX
  8
0
 10
10.3377
 20
19.6729
 30
0.0
 40
0.0111111
 41
0.0111111
  0
VERTEX
  8
0
 10
9.15653
 20
19.6729
 30
0.0
 40
0.0111111
 41
0.0111111
  0
SEQEND
 8
0
  0
POLYLINE
  8
0
 62
     0
 66
     1
 10
0
 20
0
 30
0.0
 40
0.8
 41
0.8
  0
VERTEX
  8
0
 10
9.15653
 20
19.6729
 30
0.0
 40
0.0111111
 41
0.0111111
  0
VERTEX
  8
0
 10
6.42193
 20
35.1817
 30
0.0
 40
0.0111111
 41
0.0111111
  0
SEQEND
 8
0
  0
POLYLINE
  8
0
 62
     0
 66
     1
 10
0
 20
0
 30
0.0
 40
0.8
 41
0.8
  0
VERTEX
  8
0
 10
6.42193
 20
35.1817
 30
0.0
 40
0.0111111
 41
0.0111111
  0
VERTEX
  8
0
 10
9.57156
 20
35.1817
 30
0.0
 40
0.0111111
 41
0.0111111
  0
SEQEND
 8
0
  0
POLYLINE
  8
0
 62
     0
 66
     1
 10
0
 20
0
 30
0.0
 40
0.8
 41
0.8
  0
VERTEX
  8
0
 10
11.9404
 20
21.7471
 30
0.0
 40
0.0111111
 41
0.0111111
  0
VERTEX
  8
0
 10
9.57156
 20
35.1817
 30
0.0
 40
0.0111111
 41
0.0111111
  0
SEQEND
 8
0
  0
POLYLINE
  8
0
 62
     0
 66
     1
 10
0
 20
0
 30
0.0
 40
0.8
 41
0.8
  0
VERTEX
  8
0
 10
14.6083
 20
21.7471
 30
0.0
 40
0.0111111
 41
0.0111111
  0
VERTEX
  8
0
 10
11.9404
 20
21.7471
 30
0.0
 40
0.0111111
 41
0.0111111
  0
SEQEND
 8
0
  0
POLYLINE
  8
0
 62
     0
 66
     1
 10
0
 20
0
 30
0.0
 40
0.8
 41
0.8
  0
VERTEX
  8
0
 10
14.6871
 20
21.6685
 30
0.0
 40
0.0111111
 41
0.0111111
  0
VERTEX
  8
0
 10
14.6808
 20
21.699
 30
0.0
 40
0.0111111
 41
0.0111111
  0
VERTEX
  8
0
 10
14.6639
 20
21.724
 30
0.0
 40
0.0111111
 41
0.0111111
  0
VERTEX
  8
0
 10
14.6389
 20
21.741
 30
0.0
 40
0.0111111
 41
0.0111111
  0
VERTEX
  8
0
 10
14.6083
 20
21.7471
 30
0.0
 40
0.0111111
 41
0.0111111
  0
SEQEND
 8
0
  0
POLYLINE
  8
0
 62
     0
 66
     1
 10
0
 20
0
 30
0.0
 40
0.8
 41
0.8
  0
VERTEX
  8
0
 10
14.6871
 20
20.9836
 30
0.0
 40
0.0111111
 41
0.0111111
  0
VERTEX
  8
0
 10
14.6871
 20
21.6685
 30
0.0
 40
0.0111111
 41
0.0111111
  0
SEQEND
 8
0
  0
POLYLINE
  8
0
 62
     0
 66
     1
 10
0
 20
0
 30
0.0
 40
0.8
 41
0.8
  0
VERTEX
  8
0
 10
14.6871
 20
20.9836
 30
0.0
 40
0.0111111
 41
0.0111111
  0
VERTEX
  8
0
 10
14.5843
 20
20.9664
 30
0.0
 40
0.0111111
 41
0.0111111
  0
VERTEX
  8
0
 10
14.4999
 20
20.9122
 30
0.0
 40
0.0111111
 41
0.0111111
  0
VERTEX
  8
0
 10
14.4425
 20
20.8299
 30
0.0
 40
0.0111111
 41
0.0111111
  0
VERTEX
  8
0
 10
14.4215
 20
20.7278
 30
0.0
 40
0.0111111
 41
0.0111111
  0
SEQEND
 8
0
  0
POLYLINE
  8
0
 62
     0
 66
     1
 10
0
 20
0
 30
0.0
 40
0.8
 41
0.8
  0
VERTEX
  8
0
 10
14.4215
 20
20.7278
 30
0.0
 40
0.0111111
 41
0.0111111
  0
VERTEX
  8
0
 10
14.4286
 20
20.6672
 30
0.0
 40
0.0111111
 41
0.0111111
  0
VERTEX
  8
0
 10
14.4489
 20
20.6122
 30
0.0
 40
0.0111111
 41
0.0111111
  0
VERTEX
  8
0
 10
14.4804
 20
20.5644
 30
0.0
 40
0.0111111
 41
0.0111111
  0
VERTEX
  8
0
 10
14.5214
 20
20.525
 30
0.0
 40
0.0111111
 41
0.0111111
  0
VERTEX
  8
0
 10
14.57
 20
20.4956
 30
0.0
 40
0.0111111
 41
0.0111111
  0
VERTEX
  8
0
 10
14.6243
 20
20.4774
 30
0.0
 40
0.0111111
 41
0.0111111
  0
VERTEX
  8
0
 10
14.6826
 20
20.4718
 30
0.0
 40
0.0111111
 41
0.0111111
  0
VERTEX
  8
0
 10
14.7431
 20
20.4804
 30
0.0
 40
0.0111111
 41
0.0111111
  0
SEQEND
 8
0
  0
POLYLINE
  8
0
 62
     0
 66
     1
 10
0
 20
0
 30
0.0
 40
0.8
 41
0.8
  0
VERTEX
  8
0
 10
15.3729
 20
20.4804
 30
0.0
 40
0.0111111
 41
0.0111111
  0
VERTEX
  8
0
 10
14.7431
 20
20.4804
 30
0.0
 40
0.0111111
 41
0.0111111
  0
SEQEND
 8
0
  0
POLYLINE
  8
0
 62
     0
 66
     1
 10
0
 20
0
 30
0.0
 40
0.8
 41
0.8
  0
VERTEX
  8
0
 10
15.3729
 20
20.4804
 30
0.0
 40
0.0111111
 41
0.0111111
  0
VERTEX
  8
0
 10
15.4801
 20
20.4804
 30
0.0
 40
0.0111111
 41
0.0111111
  0
VERTEX
  8
0
 10
15.5744
 20
20.5221
 30
0.0
 40
0.0111111
 41
0.0111111
  0
VERTEX
  8
0
 10
15.6449
 20
20.5974
 30
0.0
 40
0.0111111
 41
0.0111111
  0
VERTEX
  8
0
 10
15.6803
 20
20.6986
 30
0.0
 40
0.0111111
 41
0.0111111
  0
VERTEX
  8
0
 10
15.6712
 20
20.8054
 30
0.0
 40
0.0111111
 41
0.0111111
  0
VERTEX
  8
0
 10
15.6218
 20
20.896
 30
0.0
 40
0.0111111
 41
0.0111111
  0
VERTEX
  8
0
 10
15.5408
 20
20.9597
 30
0.0
 40
0.0111111
 41
0.0111111
  0
VERTEX
  8
0
 10
15.4371
 20
20.9864
 30
0.0
 40
0.0111111
 41
0.0111111
  0
SEQEND
 8
0
  0
POLYLINE
  8
0
 62
     0
 66
     1
 10
0
 20
0
 30
0.0
 40
0.8
 41
0.8
  0
VERTEX
  8
0
 10
15.4371
 20
20.9864
 30
0.0
 40
0.0111111
 41
0.0111111
  0
VERTEX
  8
0
 10
15.4371
 20
21.6685
 30
0.0
 40
0.0111111
 41
0.0111111
  0
SEQEND
 8
0
  0
POLYLINE
  8
0
 62
     0
 66
     1
 10
0
 20
0
 30
0.0
 40
0.8
 41
0.8
  0
VERTEX
  8
0
 10
15.5158
 20
21.7471
 30
0.0
 40
0.0111111
 41
0.0111111
  0
VERTEX
  8
0
 10
15.4851
 20
21.741
 30
0.0
 40
0.0111111
 41
0.0111111
  0
VERTEX
  8
0
 10
15.4601
 20
21.724
 30
0.0
 40
0.0111111
 41
0.0111111
  0
VERTEX
  8
0
 10
15.4432
 20
21.699
 30
0.0
 40
0.0111111
 41
0.0111111
  0
VERTEX
  8
0
 10
15.4371
 20
21.6685
 30
0.0
 40
0.0111111
 41
0.0111111
  0
SEQEND
 8
0
  0
POLYLINE
  8
0
 62
     0
 66
     1
 10
0
 20
0
 30
0.0
 40
0.8
 41
0.8
  0
VERTEX
  8
0
 10
18.1837
 20
21.7471
 30
0.0
 40
0.0111111
 41
0.0111111
  0
VERTEX
  8
0
 10
15.5158
 20
21.7471
 30
0.0
 40
0.0111111
 41
0.0111111
  0
SEQEND
 8
0
  0
POLYLINE
  8
0
 62
     0
 66
     1
 10
0
 20
0
 30
0.0
 40
0.8
 41
0.8
  0
VERTEX
  8
0
 10
20.5526
 20
35.1817
 30
0.0
 40
0.0111111
 41
0.0111111
  0
VERTEX
  8
0
 10
18.1837
 20
21.7471
 30
0.0
 40
0.0111111
 41
0.0111111
  0
SEQEND
 8
0
  0
POLYLINE
  8
0
 62
     0
 66
     1
 10
0
 20
0
 30
0.0
 40
0.8
 41
0.8
  0
VERTEX
  8
0
 10
23.7022
 20
35.1817
 30
0.0
 40
0.0111111
 41
0.0111111
  0
VERTEX
  8
0
 10
20.5526
 20
35.1817
 30
0.0
 40
0.0111111
 41
0.0111111
  0
SEQEND
 8
0
  0
POLYLINE
  8
0
 62
     0
 66
     1
 10
0
 20
0
 30
0.0
 40
0.8
 41
0.8
  0
VERTEX
  8
0
 10
23.7022
 20
35.1817
 30
0.0
 40
0.0111111
 41
0.0111111
  0
VERTEX
  8
0
 10
20.9675
 20
19.6729
 30
0.0
 40
0.0111111
 41
0.0111111
  0
SEQEND
 8
0
  0
POLYLINE
  8
0
 62
     0
 66
     1
 10
0
 20
0
 30
0.0
 40
0.8
 41
0.8
  0
VERTEX
  8
0
 10
20.9675
 20
19.6729
 30
0.0
 40
0.0111111
 41
0.0111111
  0
VERTEX
  8
0
 10
19.7865
 20
19.6729
 30
0.0
 40
0.0111111
 41
0.0111111
  0
SEQEND
 8
0
  0
POLYLINE
  8
0
 62
     0
 66
     1
 10
0
 20
0
 30
0.0
 40
0.8
 41
0.8
  0
VERTEX
  8
0
 10
19.7865
 20
19.6729
 30
0.0
 40
0.0111111
 41
0.0111111
  0
VERTEX
  8
0
 10
19.7865
 20
19.0015
 30
0.0
 40
0.0111111
 41
0.0111111
  0
SEQEND
 8
0
  0
POLYLINE
  8
0
 62
     0
 66
     1
 10
0
 20
0
 30
0.0
 40
0.8
 41
0.8
  0
VERTEX
  8
0
 10
5.53347
 20
12.8009
 30
0.0
 40
0.0111111
 41
0.0111111
  0
VERTEX
  8
0
 10
1.77561
 20
12.8009
 30
0.0
 40
0.0111111
 41
0.0111111
  0
SEQEND
 8
0
  0
POLYLINE
  8
0
 62
     0
 66
     1
 10
0
 20
0
 30
0.0
 40
0.8
 41
0.8
  0
VERTEX
  8
0
 10
1.77576
 20
12.7914
 30
0.0
 40
0.0111111
 41
0.0111111
  0
VERTEX
  8
0
 10
1.77561
 20
12.8009
 30
0.0
 40
0.0111111
 41
0.0111111
  0
SEQEND
 8
0
  0
POLYLINE
  8
0
 62
     0
 66
     1
 10
0
 20
0
 30
0.0
 70
     1
 40
0.8
 41
0.8
  0
VERTEX
  8
0
 10
11.9006
 20
13.1793
 30
0.0
 40
0.0111111
 41
0.0111111
  0
VERTEX
  8
0
 10
11.8717
 20
13.763
 30
0.0
 40
0.0111111
 41
0.0111111
  0
VERTEX
  8
0
 10
11.7861
 20
14.3368
 30
0.0
 40
0.0111111
 41
0.0111111
  0
VERTEX
  8
0
 10
11.6453
 20
14.8968
 30
0.0
 40
0.0111111
 41
0.0111111
  0
VERTEX
  8
0
 10
11.4511
 20
15.4393
 30
0.0
 40
0.0111111
 41
0.0111111
  0
VERTEX
  8
0
 10
11.2049
 20
15.9601
 30
0.0
 40
0.0111111
 41
0.0111111
  0
VERTEX
  8
0
 10
10.9084
 20
16.4557
 30
0.0
 40
0.0111111
 41
0.0111111
  0
VERTEX
  8
0
 10
10.5632
 20
16.9219
 30
0.0
 40
0.0111111
 41
0.0111111
  0
VERTEX
  8
0
 10
10.1709
 20
17.3551
 30
0.0
 40
0.0111111
 41
0.0111111
  0
VERTEX
  8
0
 10
9.73774
 20
17.7474
 30
0.0
 40
0.0111111
 41
0.0111111
  0
VERTEX
  8
0
 10
9.27143
 20
18.0926
 30
0.0
 40
0.0111111
 41
0.0111111
  0
VERTEX
  8
0
 10
8.77593
 20
18.3892
 30
0.0
 40
0.0111111
 41
0.0111111
  0
VERTEX
  8
0
 10
8.25504
 20
18.6353
 30
0.0
 40
0.0111111
 41
0.0111111
  0
VERTEX
  8
0
 10
7.71263
 20
18.8296
 30
0.0
 40
0.0111111
 41
0.0111111
  0
VERTEX
  8
0
 10
7.15256
 20
18.9703
 30
0.0
 40
0.0111111
 41
0.0111111
  0
VERTEX
  8
0
 10
6.57878
 20
19.056
 30
0.0
 40
0.0111111
 41
0.0111111
  0
VERTEX
  8
0
 10
5.99511
 20
19.0849
 30
0.0
 40
0.0111111
 41
0.0111111
  0
VERTEX
  8
0
 10
5.4114
 20
19.056
 30
0.0
 40
0.0111111
 41
0.0111111
  0
VERTEX
  8
0
 10
4.83762
 20
18.9703
 30
0.0
 40
0.0111111
 41
0.0111111
  0
VERTEX
  8
0
 10
4.27756
 20
18.8296
 30
0.0
 40
0.0111111
 41
0.0111111
  0
VERTEX
  8
0
 10
3.73514
 20
18.6353
 30
0.0
 40
0.0111111
 41
0.0111111
  0
VERTEX
  8
0
 10
3.21425
 20
18.3892
 30
0.0
 40
0.0111111
 41
0.0111111
  0
VERTEX
  8
0
 10
2.71869
 20
18.0926
 30
0.0
 40
0.0111111
 41
0.0111111
  0
VERTEX
  8
0
 10
2.25239
 20
17.7474
 30
0.0
 40
0.0111111
 41
0.0111111
  0
VERTEX
  8
0
 10
1.81928
 20
17.3551
 30
0.0
 40
0.0111111
 41
0.0111111
  0
VERTEX
  8
0
 10
1.42697
 20
16.9219
 30
0.0
 40
0.0111111
 41
0.0111111
  0
VERTEX
  8
0
 10
1.08176
 20
16.4557
 30
0.0
 40
0.0111111
 41
0.0111111
  0
VERTEX
  8
0
 10
0.785265
 20
15.9601
 30
0.0
 40
0.0111111
 41
0.0111111
  0
VERTEX
  8
0
 10
0.539063
 20
15.4393
 30
0.0
 40
0.0111111
 41
0.0111111
  0
VERTEX
  8
0
 10
0.344835
 20
14.8968
 30
0.0
 40
0.0111111
 41
0.0111111
  0
VERTEX
  8
0
 10
0.204047
 20
14.3368
 30
0.0
 40
0.0111111
 41
0.0111111
  0
VERTEX
  8
0
 10
0.118435
 20
13.763
 30
0.0
 40
0.0111111
 41
0.0111111
  0
VERTEX
  8
0
 10
0.0895725
 20
13.1793
 30
0.0
 40
0.0111111
 41
0.0111111
  0
VERTEX
  8
0
 10
0.118435
 20
12.5957
 30
0.0
 40
0.0111111
 41
0.0111111
  0
VERTEX
  8
0
 10
0.204047
 20
12.0219
 30
0.0
 40
0.0111111
 41
0.0111111
  0
VERTEX
  8
0
 10
0.344835
 20
11.4618
 30
0.0
 40
0.0111111
 41
0.0111111
  0
VERTEX
  8
0
 10
0.539063
 20
10.9194
 30
0.0
 40
0.0111111
 41
0.0111111
  0
VERTEX
  8
0
 10
0.785265
 20
10.3985
 30
0.0
 40
0.0111111
 41
0.0111111
  0
VERTEX
  8
0
 10
1.08176
 20
9.90294
 30
0.0
 40
0.0111111
 41
0.0111111
  0
VERTEX
  8
0
 10
1.42697
 20
9.43664
 30
0.0
 40
0.0111111
 41
0.0111111
  0
VERTEX
  8
0
 10
1.81928
 20
9.00347
 30
0.0
 40
0.0111111
 41
0.0111111
  0
VERTEX
  8
0
 10
2.25239
 20
8.61122
 30
0.0
 40
0.0111111
 41
0.0111111
  0
VERTEX
  8
0
 10
2.71869
 20
8.266
 30
0.0
 40
0.0111111
 41
0.0111111
  0
VERTEX
  8
0
 10
3.21425
 20
7.96951
 30
0.0
 40
0.0111111
 41
0.0111111
  0
VERTEX
  8
0
 10
3.73514
 20
7.72331
 30
0.0
 40
0.0111111
 41
0.0111111
  0
VERTEX
  8
0
 10
4.27756
 20
7.52908
 30
0.0
 40
0.0111111
 41
0.0111111
  0
VERTEX
  8
0
 10
4.83762
 20
7.38829
 30
0.0
 40
0.0111111
 41
0.0111111
  0
VERTEX
  8
0
 10
5.4114
 20
7.30268
 30
0.0
 40
0.0111111
 41
0.0111111
  0
VERTEX
  8
0
 10
5.99511
 20
7.27376
 30
0.0
 40
0.0111111
 41
0.0111111
  0
VERTEX
  8
0
 10
6.57878
 20
7.30268
 30
0.0
 40
0.0111111
 41
0.0111111
  0
VERTEX
  8
0
 10
7.15256
 20
7.38829
 30
0.0
 40
0.0111111
 41
0.0111111
  0
VERTEX
  8
0
 10
7.71263
 20
7.52908
 30
0.0
 40
0.0111111
 41
0.0111111
  0
VERTEX
  8
0
 10
8.25504
 20
7.72331
 30
0.0
 40
0.0111111
 41
0.0111111
  0
VERTEX
  8
0
 10
8.77593
 20
7.96951
 30
0.0
 40
0.0111111
 41
0.0111111
  0
VERTEX
  8
0
 10
9.27143
 20
8.266
 30
0.0
 40
0.0111111
 41
0.0111111
  0
VERTEX
  8
0
 10
9.73774
 20
8.61122
 30
0.0
 40
0.0111111
 41
0.0111111
  0
VERTEX
  8
0
 10
10.1709
 20
9.00347
 30
0.0
 40
0.0111111
 41
0.0111111
  0
VERTEX
  8
0
 10
10.5632
 20
9.43664
 30
0.0
 40
0.0111111
 41
0.0111111
  0
VERTEX
  8
0
 10
10.9084
 20
9.90294
 30
0.0
 40
0.0111111
 41
0.0111111
  0
VERTEX
  8
0
 10
11.2049
 20
10.3985
 30
0.0
 40
0.0111111
 41
0.0111111
  0
VERTEX
  8
0
 10
11.4511
 20
10.9194
 30
0.0
 40
0.0111111
 41
0.0111111
  0
VERTEX
  8
0
 10
11.6453
 20
11.4618
 30
0.0
 40
0.0111111
 41
0.0111111
  0
VERTEX
  8
0
 10
11.7861
 20
12.0219
 30
0.0
 40
0.0111111
 41
0.0111111
  0
VERTEX
  8
0
 10
11.8717
 20
12.5957
 30
0.0
 40
0.0111111
 41
0.0111111
  0
VERTEX
  8
0
 10
11.9006
 20
13.1793
 30
0.0
 40
0.0111111
 41
0.0111111
  0
SEQEND
 8
0
  0
POLYLINE
  8
0
 62
     0
 66
     1
 10
0
 20
0
 30
0.0
 40
0.8
 41
0.8
  0
VERTEX
  8
0
 10
1.26411
 20
12.8009
 30
0.0
 40
0.0111111
 41
0.0111111
  0
VERTEX
  8
0
 10
1.28098
 20
12.6995
 30
0.0
 40
0.0111111
 41
0.0111111
  0
VERTEX
  8
0
 10
1.33393
 20
12.6156
 30
0.0
 40
0.0111111
 41
0.0111111
  0
VERTEX
  8
0
 10
1.41476
 20
12.5581
 30
0.0
 40
0.0111111
 41
0.0111111
  0
VERTEX
  8
0
 10
1.51514
 20
12.5356
 30
0.0
 40
0.0111111
 41
0.0111111
  0
VERTEX
  8
0
 10
1.61621
 20
12.5544
 30
0.0
 40
0.0111111
 41
0.0111111
  0
VERTEX
  8
0
 10
1.69911
 20
12.6089
 30
0.0
 40
0.0111111
 41
0.0111111
  0
VERTEX
  8
0
 10
1.75515
 20
12.6908
 30
0.0
 40
0.0111111
 41
0.0111111
  0
VERTEX
  8
0
 10
1.77576
 20
12.7914
 30
0.0
 40
0.0111111
 41
0.0111111
  0
SEQEND
 8
0
  0
POLYLINE
  8
0
 62
     0
 66
     1
 10
0
 20
0
 30
0.0
 40
0.8
 41
0.8
  0
VERTEX
  8
0
 10
1.26411
 20
12.8009
 30
0.0
 40
0.0111111
 41
0.0111111
  0
VERTEX
  8
0
 10
1.2628
 20
12.8009
 30
0.0
 40
0.0111111
 41
0.0111111
  0
SEQEND
 8
0
  0
POLYLINE
  8
0
 62
     0
 66
     1
 10
0
 20
0
 30
0.0
 40
0.8
 41
0.8
  0
VERTEX
  8
0
 10
1.2628
 20
12.8009
 30
0.0
 40
0.0111111
 41
0.0111111
  0
VERTEX
  8
0
 10
1.2628
 20
13.5587
 30
0.0
 40
0.0111111
 41
0.0111111
  0
SEQEND
 8
0
  0
POLYLINE
  8
0
 62
     0
 66
     1
 10
0
 20
0
 30
0.0
 40
0.8
 41
0.8
  0
VERTEX
  8
0
 10
1.2628
 20
13.5587
 30
0.0
 40
0.0111111
 41
0.0111111
  0
VERTEX
  8
0
 10
1.26503
 20
13.5587
 30
0.0
 40
0.0111111
 41
0.0111111
  0
SEQEND
 8
0
  0
POLYLINE
  8
0
 62
     0
 66
     1
 10
0
 20
0
 30
0.0
 40
0.8
 41
0.8
  0
VERTEX
  8
0
 10
1.77468
 20
13.5587
 30
0.0
 40
0.0111111
 41
0.0111111
  0
VERTEX
  8
0
 10
1.74826
 20
13.6506
 30
0.0
 40
0.0111111
 41
0.0111111
  0
VERTEX
  8
0
 10
1.69222
 20
13.7243
 30
0.0
 40
0.0111111
 41
0.0111111
  0
VERTEX
  8
0
 10
1.61367
 20
13.7733
 30
0.0
 40
0.0111111
 41
0.0111111
  0
VERTEX
  8
0
 10
1.51986
 20
13.791
 30
0.0
 40
0.0111111
 41
0.0111111
  0
VERTEX
  8
0
 10
1.426
 20
13.7733
 30
0.0
 40
0.0111111
 41
0.0111111
  0
VERTEX
  8
0
 10
1.34744
 20
13.7243
 30
0.0
 40
0.0111111
 41
0.0111111
  0
VERTEX
  8
0
 10
1.2914
 20
13.6506
 30
0.0
 40
0.0111111
 41
0.0111111
  0
VERTEX
  8
0
 10
1.26503
 20
13.5587
 30
0.0
 40
0.0111111
 41
0.0111111
  0
SEQEND
 8
0
  0
POLYLINE
  8
0
 62
     0
 66
     1
 10
0
 20
0
 30
0.0
 40
0.8
 41
0.8
  0
VERTEX
  8
0
 10
1.77468
 20
13.5587
 30
0.0
 40
0.0111111
 41
0.0111111
  0
VERTEX
  8
0
 10
5.53347
 20
13.5587
 30
0.0
 40
0.0111111
 41
0.0111111
  0
SEQEND
 8
0
  0
POLYLINE
  8
0
 62
     0
 66
     1
 10
0
 20
0
 30
0.0
 40
0.8
 41
0.8
  0
VERTEX
  8
0
 10
5.53347
 20
13.5587
 30
0.0
 40
0.0111111
 41
0.0111111
  0
VERTEX
  8
0
 10
5.56413
 20
13.565
 30
0.0
 40
0.0111111
 41
0.0111111
  0
VERTEX
  8
0
 10
5.58914
 20
13.5819
 30
0.0
 40
0.0111111
 41
0.0111111
  0
VERTEX
  8
0
 10
5.60601
 20
13.6069
 30
0.0
 40
0.0111111
 41
0.0111111
  0
VERTEX
  8
0
 10
5.61219
 20
13.6375
 30
0.0
 40
0.0111111
 41
0.0111111
  0
SEQEND
 8
0
  0
POLYLINE
  8
0
 62
     0
 66
     1
 10
0
 20
0
 30
0.0
 40
0.8
 41
0.8
  0
VERTEX
  8
0
 10
5.61219
 20
13.6375
 30
0.0
 40
0.0111111
 41
0.0111111
  0
VERTEX
  8
0
 10
5.61219
 20
17.3979
 30
0.0
 40
0.0111111
 41
0.0111111
  0
SEQEND
 8
0
  0
POLYLINE
  8
0
 62
     0
 66
     1
 10
0
 20
0
 30
0.0
 40
0.8
 41
0.8
  0
VERTEX
  8
0
 10
5.61219
 20
17.9081
 30
0.0
 40
0.0111111
 41
0.0111111
  0
VERTEX
  8
0
 10
5.51964
 20
17.8822
 30
0.0
 40
0.0111111
 41
0.0111111
  0
VERTEX
  8
0
 10
5.44521
 20
17.8262
 30
0.0
 40
0.0111111
 41
0.0111111
  0
VERTEX
  8
0
 10
5.39567
 20
17.7474
 30
0.0
 40
0.0111111
 41
0.0111111
  0
VERTEX
  8
0
 10
5.37771
 20
17.6531
 30
0.0
 40
0.0111111
 41
0.0111111
  0
VERTEX
  8
0
 10
5.39567
 20
17.5586
 30
0.0
 40
0.0111111
 41
0.0111111
  0
VERTEX
  8
0
 10
5.44521
 20
17.4797
 30
0.0
 40
0.0111111
 41
0.0111111
  0
VERTEX
  8
0
 10
5.51964
 20
17.4239
 30
0.0
 40
0.0111111
 41
0.0111111
  0
VERTEX
  8
0
 10
5.61219
 20
17.3979
 30
0.0
 40
0.0111111
 41
0.0111111
  0
SEQEND
 8
0
  0
POLYLINE
  8
0
 62
     0
 66
     1
 10
0
 20
0
 30
0.0
 40
0.8
 41
0.8
  0
VERTEX
  8
0
 10
5.61219
 20
17.9081
 30
0.0
 40
0.0111111
 41
0.0111111
  0
VERTEX
  8
0
 10
5.61219
 20
17.9082
 30
0.0
 40
0.0111111
 41
0.0111111
  0
SEQEND
 8
0
  0
POLYLINE
  8
0
 62
     0
 66
     1
 10
0
 20
0
 30
0.0
 40
0.8
 41
0.8
  0
VERTEX
  8
0
 10
5.61219
 20
17.9082
 30
0.0
 40
0.0111111
 41
0.0111111
  0
VERTEX
  8
0
 10
5.61458
 20
17.9082
 30
0.0
 40
0.0111111
 41
0.0111111
  0
SEQEND
 8
0
  0
POLYLINE
  8
0
 62
     0
 66
     1
 10
0
 20
0
 30
0.0
 40
0.8
 41
0.8
  0
VERTEX
  8
0
 10
5.65267
 20
17.9082
 30
0.0
 40
0.0111111
 41
0.0111111
  0
VERTEX
  8
0
 10
5.61458
 20
17.9082
 30
0.0
 40
0.0111111
 41
0.0111111
  0
SEQEND
 8
0
  0
POLYLINE
  8
0
 62
     0
 66
     1
 10
0
 20
0
 30
0.0
 40
0.8
 41
0.8
  0
VERTEX
  8
0
 10
5.65267
 20
17.9082
 30
0.0
 40
0.0111111
 41
0.0111111
  0
VERTEX
  8
0
 10
6.33931
 20
17.9082
 30
0.0
 40
0.0111111
 41
0.0111111
  0
SEQEND
 8
0
  0
POLYLINE
  8
0
 62
     0
 66
     1
 10
0
 20
0
 30
0.0
 40
0.8
 41
0.8
  0
VERTEX
  8
0
 10
6.61426
 20
17.6531
 30
0.0
 40
0.0111111
 41
0.0111111
  0
VERTEX
  8
0
 10
6.59212
 20
17.7572
 30
0.0
 40
0.0111111
 41
0.0111111
  0
VERTEX
  8
0
 10
6.53244
 20
17.8406
 30
0.0
 40
0.0111111
 41
0.0111111
  0
VERTEX
  8
0
 10
6.44488
 20
17.8939
 30
0.0
 40
0.0111111
 41
0.0111111
  0
VERTEX
  8
0
 10
6.33931
 20
17.9082
 30
0.0
 40
0.0111111
 41
0.0111111
  0
SEQEND
 8
0
  0
POLYLINE
  8
0
 62
     0
 66
     1
 10
0
 20
0
 30
0.0
 40
0.8
 41
0.8
  0
VERTEX
  8
0
 10
6.37011
 20
17.3974
 30
0.0
 40
0.0111111
 41
0.0111111
  0
VERTEX
  8
0
 10
6.46588
 20
17.4207
 30
0.0
 40
0.0111111
 41
0.0111111
  0
VERTEX
  8
0
 10
6.5434
 20
17.4763
 30
0.0
 40
0.0111111
 41
0.0111111
  0
VERTEX
  8
0
 10
6.59526
 20
17.5563
 30
0.0
 40
0.0111111
 41
0.0111111
  0
VERTEX
  8
0
 10
6.61426
 20
17.6531
 30
0.0
 40
0.0111111
 41
0.0111111
  0
SEQEND
 8
0
  0
POLYLINE
  8
0
 62
     0
 66
     1
 10
0
 20
0
 30
0.0
 40
0.8
 41
0.8
  0
VERTEX
  8
0
 10
6.37011
 20
17.3974
 30
0.0
 40
0.0111111
 41
0.0111111
  0
VERTEX
  8
0
 10
6.37011
 20
13.6375
 30
0.0
 40
0.0111111
 41
0.0111111
  0
SEQEND
 8
0
  0
POLYLINE
  8
0
 62
     0
 66
     1
 10
0
 20
0
 30
0.0
 40
0.8
 41
0.8
  0
VERTEX
  8
0
 10
6.37011
 20
13.6375
 30
0.0
 40
0.0111111
 41
0.0111111
  0
VERTEX
  8
0
 10
6.37625
 20
13.6069
 30
0.0
 40
0.0111111
 41
0.0111111
  0
VERTEX
  8
0
 10
6.39312
 20
13.5819
 30
0.0
 40
0.0111111
 41
0.0111111
  0
VERTEX
  8
0
 10
6.41813
 20
13.565
 30
0.0
 40
0.0111111
 41
0.0111111
  0
VERTEX
  8
0
 10
6.44883
 20
13.5587
 30
0.0
 40
0.0111111
 41
0.0111111
  0
SEQEND
 8
0
  0
POLYLINE
  8
0
 62
     0
 66
     1
 10
0
 20
0
 30
0.0
 40
0.8
 41
0.8
  0
VERTEX
  8
0
 10
6.44883
 20
13.5587
 30
0.0
 40
0.0111111
 41
0.0111111
  0
VERTEX
  8
0
 10
10.2112
 20
13.5587
 30
0.0
 40
0.0111111
 41
0.0111111
  0
SEQEND
 8
0
  0
POLYLINE
  8
0
 62
     0
 66
     1
 10
0
 20
0
 30
0.0
 40
0.8
 41
0.8
  0
VERTEX
  8
0
 10
10.7226
 20
13.545
 30
0.0
 40
0.0111111
 41
0.0111111
  0
VERTEX
  8
0
 10
10.7032
 20
13.643
 30
0.0
 40
0.0111111
 41
0.0111111
  0
VERTEX
  8
0
 10
10.6501
 20
13.7235
 30
0.0
 40
0.0111111
 41
0.0111111
  0
VERTEX
  8
0
 10
10.571
 20
13.7788
 30
0.0
 40
0.0111111
 41
0.0111111
  0
VERTEX
  8
0
 10
10.4736
 20
13.8008
 30
0.0
 40
0.0111111
 41
0.0111111
  0
VERTEX
  8
0
 10
10.3752
 20
13.784
 30
0.0
 40
0.0111111
 41
0.0111111
  0
VERTEX
  8
0
 10
10.2932
 20
13.7331
 30
0.0
 40
0.0111111
 41
0.0111111
  0
VERTEX
  8
0
 10
10.2358
 20
13.6555
 30
0.0
 40
0.0111111
 41
0.0111111
  0
VERTEX
  8
0
 10
10.2112
 20
13.5587
 30
0.0
 40
0.0111111
 41
0.0111111
  0
SEQEND
 8
0
  0
POLYLINE
  8
0
 62
     0
 66
     1
 10
0
 20
0
 30
0.0
 40
0.8
 41
0.8
  0
VERTEX
  8
0
 10
10.7195
 20
13.5052
 30
0.0
 40
0.0111111
 41
0.0111111
  0
VERTEX
  8
0
 10
10.7226
 20
13.545
 30
0.0
 40
0.0111111
 41
0.0111111
  0
SEQEND
 8
0
  0
POLYLINE
  8
0
 62
     0
 66
     1
 10
0
 20
0
 30
0.0
 40
0.8
 41
0.8
  0
VERTEX
  8
0
 10
10.7195
 20
13.5052
 30
0.0
 40
0.0111111
 41
0.0111111
  0
VERTEX
  8
0
 10
10.7195
 20
12.8573
 30
0.0
 40
0.0111111
 41
0.0111111
  0
SEQEND
 8
0
  0
POLYLINE
  8
0
 62
     0
 66
     1
 10
0
 20
0
 30
0.0
 40
0.8
 41
0.8
  0
VERTEX
  8
0
 10
10.7226
 20
12.8174
 30
0.0
 40
0.0111111
 41
0.0111111
  0
VERTEX
  8
0
 10
10.7195
 20
12.8573
 30
0.0
 40
0.0111111
 41
0.0111111
  0
SEQEND
 8
0
  0
POLYLINE
  8
0
 62
     0
 66
     1
 10
0
 20
0
 30
0.0
 40
0.8
 41
0.8
  0
VERTEX
  8
0
 10
10.2113
 20
12.8009
 30
0.0
 40
0.0111111
 41
0.0111111
  0
VERTEX
  8
0
 10
10.2369
 20
12.7048
 30
0.0
 40
0.0111111
 41
0.0111111
  0
VERTEX
  8
0
 10
10.2947
 20
12.6279
 30
0.0
 40
0.0111111
 41
0.0111111
  0
VERTEX
  8
0
 10
10.3768
 20
12.5778
 30
0.0
 40
0.0111111
 41
0.0111111
  0
VERTEX
  8
0
 10
10.475
 20
12.5617
 30
0.0
 40
0.0111111
 41
0.0111111
  0
VERTEX
  8
0
 10
10.5719
 20
12.5842
 30
0.0
 40
0.0111111
 41
0.0111111
  0
VERTEX
  8
0
 10
10.6506
 20
12.6395
 30
0.0
 40
0.0111111
 41
0.0111111
  0
VERTEX
  8
0
 10
10.7033
 20
12.7199
 30
0.0
 40
0.0111111
 41
0.0111111
  0
VERTEX
  8
0
 10
10.7226
 20
12.8174
 30
0.0
 40
0.0111111
 41
0.0111111
  0
SEQEND
 8
0
  0
POLYLINE
  8
0
 62
     0
 66
     1
 10
0
 20
0
 30
0.0
 40
0.8
 41
0.8
  0
VERTEX
  8
0
 10
10.2113
 20
12.8009
 30
0.0
 40
0.0111111
 41
0.0111111
  0
VERTEX
  8
0
 10
6.44883
 20
12.8009
 30
0.0
 40
0.0111111
 41
0.0111111
  0
SEQEND
 8
0
  0
POLYLINE
  8
0
 62
     0
 66
     1
 10
0
 20
0
 30
0.0
 40
0.8
 41
0.8
  0
VERTEX
  8
0
 10
6.44883
 20
12.8009
 30
0.0
 40
0.0111111
 41
0.0111111
  0
VERTEX
  8
0
 10
6.41813
 20
12.7947
 30
0.0
 40
0.0111111
 41
0.0111111
  0
VERTEX
  8
0
 10
6.39312
 20
12.7778
 30
0.0
 40
0.0111111
 41
0.0111111
  0
VERTEX
  8
0
 10
6.37625
 20
12.7528
 30
0.0
 40
0.0111111
 41
0.0111111
  0
VERTEX
  8
0
 10
6.37011
 20
12.7222
 30
0.0
 40
0.0111111
 41
0.0111111
  0
SEQEND
 8
0
  0
POLYLINE
  8
0
 62
     0
 66
     1
 10
0
 20
0
 30
0.0
 40
0.8
 41
0.8
  0
VERTEX
  8
0
 10
6.37011
 20
12.7222
 30
0.0
 40
0.0111111
 41
0.0111111
  0
VERTEX
  8
0
 10
6.37011
 20
8.96013
 30
0.0
 40
0.0111111
 41
0.0111111
  0
SEQEND
 8
0
  0
POLYLINE
  8
0
 62
     0
 66
     1
 10
0
 20
0
 30
0.0
 40
0.8
 41
0.8
  0
VERTEX
  8
0
 10
6.65429
 20
8.70583
 30
0.0
 40
0.0111111
 41
0.0111111
  0
VERTEX
  8
0
 10
6.63118
 20
8.81228
 30
0.0
 40
0.0111111
 41
0.0111111
  0
VERTEX
  8
0
 10
6.56901
 20
8.89654
 30
0.0
 40
0.0111111
 41
0.0111111
  0
VERTEX
  8
0
 10
6.47846
 20
8.949
 30
0.0
 40
0.0111111
 41
0.0111111
  0
VERTEX
  8
0
 10
6.37011
 20
8.96013
 30
0.0
 40
0.0111111
 41
0.0111111
  0
SEQEND
 8
0
  0
POLYLINE
  8
0
 62
     0
 66
     1
 10
0
 20
0
 30
0.0
 40
0.8
 41
0.8
  0
VERTEX
  8
0
 10
6.37007
 20
8.4515
 30
0.0
 40
0.0111111
 41
0.0111111
  0
VERTEX
  8
0
 10
6.4784
 20
8.46268
 30
0.0
 40
0.0111111
 41
0.0111111
  0
VERTEX
  8
0
 10
6.56901
 20
8.51514
 30
0.0
 40
0.0111111
 41
0.0111111
  0
VERTEX
  8
0
 10
6.63118
 20
8.59939
 30
0.0
 40
0.0111111
 41
0.0111111
  0
VERTEX
  8
0
 10
6.65429
 20
8.70583
 30
0.0
 40
0.0111111
 41
0.0111111
  0
SEQEND
 8
0
  0
POLYLINE
  8
0
 62
     0
 66
     1
 10
0
 20
0
 30
0.0
 40
0.8
 41
0.8
  0
VERTEX
  8
0
 10
6.37007
 20
8.4515
 30
0.0
 40
0.0111111
 41
0.0111111
  0
VERTEX
  8
0
 10
5.72401
 20
8.4515
 30
0.0
 40
0.0111111
 41
0.0111111
  0
SEQEND
 8
0
  0
POLYLINE
  8
0
 62
     0
 66
     1
 10
0
 20
0
 30
0.0
 40
0.8
 41
0.8
  0
VERTEX
  8
0
 10
5.61219
 20
8.95074
 30
0.0
 40
0.0111111
 41
0.0111111
  0
VERTEX
  8
0
 10
5.51665
 20
8.91097
 30
0.0
 40
0.0111111
 41
0.0111111
  0
VERTEX
  8
0
 10
5.44689
 20
8.83963
 30
0.0
 40
0.0111111
 41
0.0111111
  0
VERTEX
  8
0
 10
5.4095
 20
8.74707
 30
0.0
 40
0.0111111
 41
0.0111111
  0
VERTEX
  8
0
 10
5.41129
 20
8.64356
 30
0.0
 40
0.0111111
 41
0.0111111
  0
VERTEX
  8
0
 10
5.45378
 20
8.54921
 30
0.0
 40
0.0111111
 41
0.0111111
  0
VERTEX
  8
0
 10
5.52707
 20
8.48144
 30
0.0
 40
0.0111111
 41
0.0111111
  0
VERTEX
  8
0
 10
5.62061
 20
8.44678
 30
0.0
 40
0.0111111
 41
0.0111111
  0
VERTEX
  8
0
 10
5.72401
 20
8.4515
 30
0.0
 40
0.0111111
 41
0.0111111
  0
SEQEND
 8
0
  0
POLYLINE
  8
0
 62
     0
 66
     1
 10
0
 20
0
 30
0.0
 40
0.8
 41
0.8
  0
VERTEX
  8
0
 10
5.61219
 20
8.95074
 30
0.0
 40
0.0111111
 41
0.0111111
  0
VERTEX
  8
0
 10
5.61219
 20
12.7222
 30
0.0
 40
0.0111111
 41
0.0111111
  0
SEQEND
 8
0
  0
POLYLINE
  8
0
 62
     0
 66
     1
 10
0
 20
0
 30
0.0
 40
0.8
 41
0.8
  0
VERTEX
  8
0
 10
5.61219
 20
12.7222
 30
0.0
 40
0.0111111
 41
0.0111111
  0
VERTEX
  8
0
 10
5.60601
 20
12.7528
 30
0.0
 40
0.0111111
 41
0.0111111
  0
VERTEX
  8
0
 10
5.58914
 20
12.7778
 30
0.0
 40
0.0111111
 41
0.0111111
  0
VERTEX
  8
0
 10
5.56413
 20
12.7947
 30
0.0
 40
0.0111111
 41
0.0111111
  0
VERTEX
  8
0
 10
5.53347
 20
12.8009
 30
0.0
 40
0.0111111
 41
0.0111111
  0
SEQEND
 8
0
  0
ENDSEC
  0
EOF
