  0
SECTION
  2
BLOCKS
  0
ENDSEC
  0
SECTION
  2
ENTITIES
  0
LINE
  8
0
 10
31.5
 20
15.225
 11
26.25
 21
15.225
  0
LINE
  8
0
 10
26.25
 20
15.225
 11
26.25
 21
16.275
  0
LINE
  8
0
 10
26.25
 20
16.275
 11
31.5
 21
16.275
  0
LINE
  8
0
 10
31.5
 20
16.275
 11
31.5
 21
31.5
  0
LINE
  8
0
 10
31.5
 20
31.5
 11
16.275
 21
31.5
  0
LINE
  8
0
 10
16.275
 20
31.5
 11
16.275
 21
26.25
  0
LINE
  8
0
 10
16.275
 20
26.25
 11
15.225
 21
26.25
  0
LINE
  8
0
 10
15.225
 20
26.25
 11
15.225
 21
31.5
  0
LINE
  8
0
 10
15.225
 20
31.5
 11
0
 21
31.5
  0
LINE
  8
0
 10
0
 20
31.5
 11
0
 21
16.275
  0
LINE
  8
0
 10
0
 20
16.275
 11
5.25
 21
16.275
  0
LINE
  8
0
 10
5.25
 20
16.275
 11
5.25
 21
15.225
  0
LINE
  8
0
 10
5.25
 20
15.225
 11
0
 21
15.225
  0
LINE
  8
0
 10
0
 20
15.225
 11
0
 21
0
  0
LINE
  8
0
 10
0
 20
0
 11
15.225
 21
0
  0
LINE
  8
0
 10
15.225
 20
0
 11
15.225
 21
5.25
  0
LINE
  8
0
 10
15.225
 20
5.25
 11
16.275
 21
5.25
  0
LINE
  8
0
 10
16.275
 20
5.25
 11
16.275
 21
0
  0
LINE
  8
0
 10
16.275
 20
0
 11
31.5
 21
0
  0
LINE
  8
0
 10
31.5
 20
0
 11
31.5
 21
15.225
  0
ENDSEC
  0
SECTION
  2
OBJECTS
  0
DICTIONARY
  0
ENDSEC
  0
EOF
