  0
SECTION
  2
BLOCKS
  0
ENDSEC
  0
SECTION
  2
ENTITIES
  0
LINE
  8
0
 10
52.7
 20
425
 11
65
 21
425
  0
LINE
  8
0
 10
65
 20
425
 11
65
 21
422.3
  0
LINE
  8
0
 10
65
 20
422.3
 11
67.7
 21
422.3
  0
LINE
  8
0
 10
67.7
 20
422.3
 11
67.7
 21
450.4
  0
LINE
  8
0
 10
67.7
 20
450.4
 11
65
 21
450.4
  0
LINE
  8
0
 10
65
 20
450.4
 11
65
 21
447.7
  0
LINE
  8
0
 10
65
 20
447.7
 11
52.7
 21
447.7
  0
LINE
  8
0
 10
52.7
 20
447.7
 11
52.7
 21
450.4
  0
LINE
  8
0
 10
52.7
 20
450.4
 11
50
 21
450.4
  0
LINE
  8
0
 10
50
 20
450.4
 11
50
 21
422.3
  0
LINE
  8
0
 10
50
 20
422.3
 11
52.7
 21
422.3
  0
LINE
  8
0
 10
52.7
 20
422.3
 11
52.7
 21
425
  0
LINE
  8
0
 10
102.7
 20
425
 11
115
 21
425
  0
LINE
  8
0
 10
115
 20
425
 11
115
 21
422.3
  0
LINE
  8
0
 10
115
 20
422.3
 11
117.7
 21
422.3
  0
LINE
  8
0
 10
117.7
 20
422.3
 11
117.7
 21
450.4
  0
LINE
  8
0
 10
117.7
 20
450.4
 11
115
 21
450.4
  0
LINE
  8
0
 10
115
 20
450.4
 11
115
 21
447.7
  0
LINE
  8
0
 10
115
 20
447.7
 11
102.7
 21
447.7
  0
LINE
  8
0
 10
102.7
 20
447.7
 11
102.7
 21
450.4
  0
LINE
  8
0
 10
102.7
 20
450.4
 11
100
 21
450.4
  0
LINE
  8
0
 10
100
 20
450.4
 11
100
 21
422.3
  0
LINE
  8
0
 10
100
 20
422.3
 11
102.7
 21
422.3
  0
LINE
  8
0
 10
102.7
 20
422.3
 11
102.7
 21
425
  0
LINE
  8
0
 10
152.7
 20
425
 11
165
 21
425
  0
LINE
  8
0
 10
165
 20
425
 11
165
 21
422.3
  0
LINE
  8
0
 10
165
 20
422.3
 11
167.7
 21
422.3
  0
LINE
  8
0
 10
167.7
 20
422.3
 11
167.7
 21
450.4
  0
LINE
  8
0
 10
167.7
 20
450.4
 11
165
 21
450.4
  0
LINE
  8
0
 10
165
 20
450.4
 11
165
 21
447.7
  0
LINE
  8
0
 10
165
 20
447.7
 11
152.7
 21
447.7
  0
LINE
  8
0
 10
152.7
 20
447.7
 11
152.7
 21
450.4
  0
LINE
  8
0
 10
152.7
 20
450.4
 11
150
 21
450.4
  0
LINE
  8
0
 10
150
 20
450.4
 11
150
 21
422.3
  0
LINE
  8
0
 10
150
 20
422.3
 11
152.7
 21
422.3
  0
LINE
  8
0
 10
152.7
 20
422.3
 11
152.7
 21
425
  0
LINE
  8
0
 10
2.7
 20
425
 11
15
 21
425
  0
LINE
  8
0
 10
15
 20
425
 11
15
 21
422.3
  0
LINE
  8
0
 10
15
 20
422.3
 11
17.7
 21
422.3
  0
LINE
  8
0
 10
17.7
 20
422.3
 11
17.7
 21
450.4
  0
LINE
  8
0
 10
17.7
 20
450.4
 11
15
 21
450.4
  0
LINE
  8
0
 10
15
 20
450.4
 11
15
 21
447.7
  0
LINE
  8
0
 10
15
 20
447.7
 11
2.7
 21
447.7
  0
LINE
  8
0
 10
2.7
 20
447.7
 11
2.7
 21
450.4
  0
LINE
  8
0
 10
2.7
 20
450.4
 11
0
 21
450.4
  0
LINE
  8
0
 10
0
 20
450.4
 11
0
 21
422.3
  0
LINE
  8
0
 10
0
 20
422.3
 11
2.7
 21
422.3
  0
LINE
  8
0
 10
2.7
 20
422.3
 11
2.7
 21
425
  0
LINE
  8
0
 10
202.7
 20
425
 11
215
 21
425
  0
LINE
  8
0
 10
215
 20
425
 11
215
 21
422.3
  0
LINE
  8
0
 10
215
 20
422.3
 11
217.7
 21
422.3
  0
LINE
  8
0
 10
217.7
 20
422.3
 11
217.7
 21
450.4
  0
LINE
  8
0
 10
217.7
 20
450.4
 11
215
 21
450.4
  0
LINE
  8
0
 10
215
 20
450.4
 11
215
 21
447.7
  0
LINE
  8
0
 10
215
 20
447.7
 11
202.7
 21
447.7
  0
LINE
  8
0
 10
202.7
 20
447.7
 11
202.7
 21
450.4
  0
LINE
  8
0
 10
202.7
 20
450.4
 11
200
 21
450.4
  0
LINE
  8
0
 10
200
 20
450.4
 11
200
 21
422.3
  0
LINE
  8
0
 10
200
 20
422.3
 11
202.7
 21
422.3
  0
LINE
  8
0
 10
202.7
 20
422.3
 11
202.7
 21
425
  0
LINE
  8
0
 10
502.7
 20
425
 11
515
 21
425
  0
LINE
  8
0
 10
515
 20
425
 11
515
 21
422.3
  0
LINE
  8
0
 10
515
 20
422.3
 11
517.7
 21
422.3
  0
LINE
  8
0
 10
517.7
 20
422.3
 11
517.7
 21
450.4
  0
LINE
  8
0
 10
517.7
 20
450.4
 11
515
 21
450.4
  0
LINE
  8
0
 10
515
 20
450.4
 11
515
 21
447.7
  0
LINE
  8
0
 10
515
 20
447.7
 11
502.7
 21
447.7
  0
LINE
  8
0
 10
502.7
 20
447.7
 11
502.7
 21
450.4
  0
LINE
  8
0
 10
502.7
 20
450.4
 11
500
 21
450.4
  0
LINE
  8
0
 10
500
 20
450.4
 11
500
 21
422.3
  0
LINE
  8
0
 10
500
 20
422.3
 11
502.7
 21
422.3
  0
LINE
  8
0
 10
502.7
 20
422.3
 11
502.7
 21
425
  0
LINE
  8
0
 10
452.7
 20
425
 11
465
 21
425
  0
LINE
  8
0
 10
465
 20
425
 11
465
 21
422.3
  0
LINE
  8
0
 10
465
 20
422.3
 11
467.7
 21
422.3
  0
LINE
  8
0
 10
467.7
 20
422.3
 11
467.7
 21
450.4
  0
LINE
  8
0
 10
467.7
 20
450.4
 11
465
 21
450.4
  0
LINE
  8
0
 10
465
 20
450.4
 11
465
 21
447.7
  0
LINE
  8
0
 10
465
 20
447.7
 11
452.7
 21
447.7
  0
LINE
  8
0
 10
452.7
 20
447.7
 11
452.7
 21
450.4
  0
LINE
  8
0
 10
452.7
 20
450.4
 11
450
 21
450.4
  0
LINE
  8
0
 10
450
 20
450.4
 11
450
 21
422.3
  0
LINE
  8
0
 10
450
 20
422.3
 11
452.7
 21
422.3
  0
LINE
  8
0
 10
452.7
 20
422.3
 11
452.7
 21
425
  0
LINE
  8
0
 10
402.7
 20
425
 11
415
 21
425
  0
LINE
  8
0
 10
415
 20
425
 11
415
 21
422.3
  0
LINE
  8
0
 10
415
 20
422.3
 11
417.7
 21
422.3
  0
LINE
  8
0
 10
417.7
 20
422.3
 11
417.7
 21
450.4
  0
LINE
  8
0
 10
417.7
 20
450.4
 11
415
 21
450.4
  0
LINE
  8
0
 10
415
 20
450.4
 11
415
 21
447.7
  0
LINE
  8
0
 10
415
 20
447.7
 11
402.7
 21
447.7
  0
LINE
  8
0
 10
402.7
 20
447.7
 11
402.7
 21
450.4
  0
LINE
  8
0
 10
402.7
 20
450.4
 11
400
 21
450.4
  0
LINE
  8
0
 10
400
 20
450.4
 11
400
 21
422.3
  0
LINE
  8
0
 10
400
 20
422.3
 11
402.7
 21
422.3
  0
LINE
  8
0
 10
402.7
 20
422.3
 11
402.7
 21
425
  0
LINE
  8
0
 10
352.7
 20
425
 11
365
 21
425
  0
LINE
  8
0
 10
365
 20
425
 11
365
 21
422.3
  0
LINE
  8
0
 10
365
 20
422.3
 11
367.7
 21
422.3
  0
LINE
  8
0
 10
367.7
 20
422.3
 11
367.7
 21
450.4
  0
LINE
  8
0
 10
367.7
 20
450.4
 11
365
 21
450.4
  0
LINE
  8
0
 10
365
 20
450.4
 11
365
 21
447.7
  0
LINE
  8
0
 10
365
 20
447.7
 11
352.7
 21
447.7
  0
LINE
  8
0
 10
352.7
 20
447.7
 11
352.7
 21
450.4
  0
LINE
  8
0
 10
352.7
 20
450.4
 11
350
 21
450.4
  0
LINE
  8
0
 10
350
 20
450.4
 11
350
 21
422.3
  0
LINE
  8
0
 10
350
 20
422.3
 11
352.7
 21
422.3
  0
LINE
  8
0
 10
352.7
 20
422.3
 11
352.7
 21
425
  0
LINE
  8
0
 10
302.7
 20
425
 11
315
 21
425
  0
LINE
  8
0
 10
315
 20
425
 11
315
 21
422.3
  0
LINE
  8
0
 10
315
 20
422.3
 11
317.7
 21
422.3
  0
LINE
  8
0
 10
317.7
 20
422.3
 11
317.7
 21
450.4
  0
LINE
  8
0
 10
317.7
 20
450.4
 11
315
 21
450.4
  0
LINE
  8
0
 10
315
 20
450.4
 11
315
 21
447.7
  0
LINE
  8
0
 10
315
 20
447.7
 11
302.7
 21
447.7
  0
LINE
  8
0
 10
302.7
 20
447.7
 11
302.7
 21
450.4
  0
LINE
  8
0
 10
302.7
 20
450.4
 11
300
 21
450.4
  0
LINE
  8
0
 10
300
 20
450.4
 11
300
 21
422.3
  0
LINE
  8
0
 10
300
 20
422.3
 11
302.7
 21
422.3
  0
LINE
  8
0
 10
302.7
 20
422.3
 11
302.7
 21
425
  0
LINE
  8
0
 10
252.7
 20
425
 11
265
 21
425
  0
LINE
  8
0
 10
265
 20
425
 11
265
 21
422.3
  0
LINE
  8
0
 10
265
 20
422.3
 11
267.7
 21
422.3
  0
LINE
  8
0
 10
267.7
 20
422.3
 11
267.7
 21
450.4
  0
LINE
  8
0
 10
267.7
 20
450.4
 11
265
 21
450.4
  0
LINE
  8
0
 10
265
 20
450.4
 11
265
 21
447.7
  0
LINE
  8
0
 10
265
 20
447.7
 11
252.7
 21
447.7
  0
LINE
  8
0
 10
252.7
 20
447.7
 11
252.7
 21
450.4
  0
LINE
  8
0
 10
252.7
 20
450.4
 11
250
 21
450.4
  0
LINE
  8
0
 10
250
 20
450.4
 11
250
 21
422.3
  0
LINE
  8
0
 10
250
 20
422.3
 11
252.7
 21
422.3
  0
LINE
  8
0
 10
252.7
 20
422.3
 11
252.7
 21
425
  0
LINE
  8
0
 10
105
 20
385
 11
107.7
 21
385
  0
LINE
  8
0
 10
107.7
 20
385
 11
107.7
 21
365
  0
LINE
  8
0
 10
107.7
 20
365
 11
132.3
 21
365
  0
LINE
  8
0
 10
132.3
 20
365
 11
132.3
 21
385
  0
LINE
  8
0
 10
132.3
 20
385
 11
135
 21
385
  0
LINE
  8
0
 10
135
 20
385
 11
135
 21
365
  0
LINE
  8
0
 10
135
 20
365
 11
140
 21
365
  0
LINE
  8
0
 10
140
 20
365
 11
140
 21
405
  0
LINE
  8
0
 10
140
 20
405
 11
125
 21
405
  0
LINE
  8
0
 10
125
 20
405
 11
125
 21
410
  0
LINE
  8
0
 10
125
 20
410
 11
115
 21
410
  0
LINE
  8
0
 10
115
 20
410
 11
115
 21
405
  0
LINE
  8
0
 10
115
 20
405
 11
100
 21
405
  0
LINE
  8
0
 10
100
 20
405
 11
100
 21
365
  0
LINE
  8
0
 10
100
 20
365
 11
105
 21
365
  0
LINE
  8
0
 10
105
 20
365
 11
105
 21
385
  0
LINE
  8
0
 10
505
 20
385
 11
507.7
 21
385
  0
LINE
  8
0
 10
507.7
 20
385
 11
507.7
 21
365
  0
LINE
  8
0
 10
507.7
 20
365
 11
532.3
 21
365
  0
LINE
  8
0
 10
532.3
 20
365
 11
532.3
 21
385
  0
LINE
  8
0
 10
532.3
 20
385
 11
535
 21
385
  0
LINE
  8
0
 10
535
 20
385
 11
535
 21
365
  0
LINE
  8
0
 10
535
 20
365
 11
540
 21
365
  0
LINE
  8
0
 10
540
 20
365
 11
540
 21
405
  0
LINE
  8
0
 10
540
 20
405
 11
525
 21
405
  0
LINE
  8
0
 10
525
 20
405
 11
525
 21
410
  0
LINE
  8
0
 10
525
 20
410
 11
515
 21
410
  0
LINE
  8
0
 10
515
 20
410
 11
515
 21
405
  0
LINE
  8
0
 10
515
 20
405
 11
500
 21
405
  0
LINE
  8
0
 10
500
 20
405
 11
500
 21
365
  0
LINE
  8
0
 10
500
 20
365
 11
505
 21
365
  0
LINE
  8
0
 10
505
 20
365
 11
505
 21
385
  0
LINE
  8
0
 10
205
 20
385
 11
207.7
 21
385
  0
LINE
  8
0
 10
207.7
 20
385
 11
207.7
 21
365
  0
LINE
  8
0
 10
207.7
 20
365
 11
232.3
 21
365
  0
LINE
  8
0
 10
232.3
 20
365
 11
232.3
 21
385
  0
LINE
  8
0
 10
232.3
 20
385
 11
235
 21
385
  0
LINE
  8
0
 10
235
 20
385
 11
235
 21
365
  0
LINE
  8
0
 10
235
 20
365
 11
240
 21
365
  0
LINE
  8
0
 10
240
 20
365
 11
240
 21
405
  0
LINE
  8
0
 10
240
 20
405
 11
225
 21
405
  0
LINE
  8
0
 10
225
 20
405
 11
225
 21
410
  0
LINE
  8
0
 10
225
 20
410
 11
215
 21
410
  0
LINE
  8
0
 10
215
 20
410
 11
215
 21
405
  0
LINE
  8
0
 10
215
 20
405
 11
200
 21
405
  0
LINE
  8
0
 10
200
 20
405
 11
200
 21
365
  0
LINE
  8
0
 10
200
 20
365
 11
205
 21
365
  0
LINE
  8
0
 10
205
 20
365
 11
205
 21
385
  0
LINE
  8
0
 10
255
 20
385
 11
257.7
 21
385
  0
LINE
  8
0
 10
257.7
 20
385
 11
257.7
 21
365
  0
LINE
  8
0
 10
257.7
 20
365
 11
282.3
 21
365
  0
LINE
  8
0
 10
282.3
 20
365
 11
282.3
 21
385
  0
LINE
  8
0
 10
282.3
 20
385
 11
285
 21
385
  0
LINE
  8
0
 10
285
 20
385
 11
285
 21
365
  0
LINE
  8
0
 10
285
 20
365
 11
290
 21
365
  0
LINE
  8
0
 10
290
 20
365
 11
290
 21
405
  0
LINE
  8
0
 10
290
 20
405
 11
275
 21
405
  0
LINE
  8
0
 10
275
 20
405
 11
275
 21
410
  0
LINE
  8
0
 10
275
 20
410
 11
265
 21
410
  0
LINE
  8
0
 10
265
 20
410
 11
265
 21
405
  0
LINE
  8
0
 10
265
 20
405
 11
250
 21
405
  0
LINE
  8
0
 10
250
 20
405
 11
250
 21
365
  0
LINE
  8
0
 10
250
 20
365
 11
255
 21
365
  0
LINE
  8
0
 10
255
 20
365
 11
255
 21
385
  0
LINE
  8
0
 10
405
 20
385
 11
407.7
 21
385
  0
LINE
  8
0
 10
407.7
 20
385
 11
407.7
 21
365
  0
LINE
  8
0
 10
407.7
 20
365
 11
432.3
 21
365
  0
LINE
  8
0
 10
432.3
 20
365
 11
432.3
 21
385
  0
LINE
  8
0
 10
432.3
 20
385
 11
435
 21
385
  0
LINE
  8
0
 10
435
 20
385
 11
435
 21
365
  0
LINE
  8
0
 10
435
 20
365
 11
440
 21
365
  0
LINE
  8
0
 10
440
 20
365
 11
440
 21
405
  0
LINE
  8
0
 10
440
 20
405
 11
425
 21
405
  0
LINE
  8
0
 10
425
 20
405
 11
425
 21
410
  0
LINE
  8
0
 10
425
 20
410
 11
415
 21
410
  0
LINE
  8
0
 10
415
 20
410
 11
415
 21
405
  0
LINE
  8
0
 10
415
 20
405
 11
400
 21
405
  0
LINE
  8
0
 10
400
 20
405
 11
400
 21
365
  0
LINE
  8
0
 10
400
 20
365
 11
405
 21
365
  0
LINE
  8
0
 10
405
 20
365
 11
405
 21
385
  0
LINE
  8
0
 10
55
 20
385
 11
57.7
 21
385
  0
LINE
  8
0
 10
57.7
 20
385
 11
57.7
 21
365
  0
LINE
  8
0
 10
57.7
 20
365
 11
82.3
 21
365
  0
LINE
  8
0
 10
82.3
 20
365
 11
82.3
 21
385
  0
LINE
  8
0
 10
82.3
 20
385
 11
85
 21
385
  0
LINE
  8
0
 10
85
 20
385
 11
85
 21
365
  0
LINE
  8
0
 10
85
 20
365
 11
90
 21
365
  0
LINE
  8
0
 10
90
 20
365
 11
90
 21
405
  0
LINE
  8
0
 10
90
 20
405
 11
75
 21
405
  0
LINE
  8
0
 10
75
 20
405
 11
75
 21
410
  0
LINE
  8
0
 10
75
 20
410
 11
65
 21
410
  0
LINE
  8
0
 10
65
 20
410
 11
65
 21
405
  0
LINE
  8
0
 10
65
 20
405
 11
50
 21
405
  0
LINE
  8
0
 10
50
 20
405
 11
50
 21
365
  0
LINE
  8
0
 10
50
 20
365
 11
55
 21
365
  0
LINE
  8
0
 10
55
 20
365
 11
55
 21
385
  0
LINE
  8
0
 10
355
 20
385
 11
357.7
 21
385
  0
LINE
  8
0
 10
357.7
 20
385
 11
357.7
 21
365
  0
LINE
  8
0
 10
357.7
 20
365
 11
382.3
 21
365
  0
LINE
  8
0
 10
382.3
 20
365
 11
382.3
 21
385
  0
LINE
  8
0
 10
382.3
 20
385
 11
385
 21
385
  0
LINE
  8
0
 10
385
 20
385
 11
385
 21
365
  0
LINE
  8
0
 10
385
 20
365
 11
390
 21
365
  0
LINE
  8
0
 10
390
 20
365
 11
390
 21
405
  0
LINE
  8
0
 10
390
 20
405
 11
375
 21
405
  0
LINE
  8
0
 10
375
 20
405
 11
375
 21
410
  0
LINE
  8
0
 10
375
 20
410
 11
365
 21
410
  0
LINE
  8
0
 10
365
 20
410
 11
365
 21
405
  0
LINE
  8
0
 10
365
 20
405
 11
350
 21
405
  0
LINE
  8
0
 10
350
 20
405
 11
350
 21
365
  0
LINE
  8
0
 10
350
 20
365
 11
355
 21
365
  0
LINE
  8
0
 10
355
 20
365
 11
355
 21
385
  0
LINE
  8
0
 10
555
 20
385
 11
557.7
 21
385
  0
LINE
  8
0
 10
557.7
 20
385
 11
557.7
 21
365
  0
LINE
  8
0
 10
557.7
 20
365
 11
582.3
 21
365
  0
LINE
  8
0
 10
582.3
 20
365
 11
582.3
 21
385
  0
LINE
  8
0
 10
582.3
 20
385
 11
585
 21
385
  0
LINE
  8
0
 10
585
 20
385
 11
585
 21
365
  0
LINE
  8
0
 10
585
 20
365
 11
590
 21
365
  0
LINE
  8
0
 10
590
 20
365
 11
590
 21
405
  0
LINE
  8
0
 10
590
 20
405
 11
575
 21
405
  0
LINE
  8
0
 10
575
 20
405
 11
575
 21
410
  0
LINE
  8
0
 10
575
 20
410
 11
565
 21
410
  0
LINE
  8
0
 10
565
 20
410
 11
565
 21
405
  0
LINE
  8
0
 10
565
 20
405
 11
550
 21
405
  0
LINE
  8
0
 10
550
 20
405
 11
550
 21
365
  0
LINE
  8
0
 10
550
 20
365
 11
555
 21
365
  0
LINE
  8
0
 10
555
 20
365
 11
555
 21
385
  0
LINE
  8
0
 10
90
 20
355
 11
85
 21
355
  0
LINE
  8
0
 10
85
 20
355
 11
85
 21
335
  0
LINE
  8
0
 10
85
 20
335
 11
82.3
 21
335
  0
LINE
  8
0
 10
82.3
 20
335
 11
82.3
 21
355
  0
LINE
  8
0
 10
82.3
 20
355
 11
75
 21
355
  0
LINE
  8
0
 10
75
 20
355
 11
75
 21
360
  0
LINE
  8
0
 10
75
 20
360
 11
65
 21
360
  0
LINE
  8
0
 10
65
 20
360
 11
65
 21
355
  0
LINE
  8
0
 10
65
 20
355
 11
57.7
 21
355
  0
LINE
  8
0
 10
57.7
 20
355
 11
57.7
 21
335
  0
LINE
  8
0
 10
57.7
 20
335
 11
55
 21
335
  0
LINE
  8
0
 10
55
 20
335
 11
55
 21
355
  0
LINE
  8
0
 10
55
 20
355
 11
50
 21
355
  0
LINE
  8
0
 10
50
 20
355
 11
50
 21
315
  0
LINE
  8
0
 10
50
 20
315
 11
90
 21
315
  0
LINE
  8
0
 10
90
 20
315
 11
90
 21
355
  0
LINE
  8
0
 10
82.3
 20
322.3
 11
82.3
 21
325
  0
LINE
  8
0
 10
82.3
 20
325
 11
85
 21
325
  0
LINE
  8
0
 10
85
 20
325
 11
85
 21
322.3
  0
LINE
  8
0
 10
85
 20
322.3
 11
82.3
 21
322.3
  0
LINE
  8
0
 10
55
 20
322.3
 11
55
 21
325
  0
LINE
  8
0
 10
55
 20
325
 11
57.7
 21
325
  0
LINE
  8
0
 10
57.7
 20
325
 11
57.7
 21
322.3
  0
LINE
  8
0
 10
57.7
 20
322.3
 11
55
 21
322.3
  0
LINE
  8
0
 10
240
 20
355
 11
235
 21
355
  0
LINE
  8
0
 10
235
 20
355
 11
235
 21
335
  0
LINE
  8
0
 10
235
 20
335
 11
232.3
 21
335
  0
LINE
  8
0
 10
232.3
 20
335
 11
232.3
 21
355
  0
LINE
  8
0
 10
232.3
 20
355
 11
225
 21
355
  0
LINE
  8
0
 10
225
 20
355
 11
225
 21
360
  0
LINE
  8
0
 10
225
 20
360
 11
215
 21
360
  0
LINE
  8
0
 10
215
 20
360
 11
215
 21
355
  0
LINE
  8
0
 10
215
 20
355
 11
207.7
 21
355
  0
LINE
  8
0
 10
207.7
 20
355
 11
207.7
 21
335
  0
LINE
  8
0
 10
207.7
 20
335
 11
205
 21
335
  0
LINE
  8
0
 10
205
 20
335
 11
205
 21
355
  0
LINE
  8
0
 10
205
 20
355
 11
200
 21
355
  0
LINE
  8
0
 10
200
 20
355
 11
200
 21
315
  0
LINE
  8
0
 10
200
 20
315
 11
240
 21
315
  0
LINE
  8
0
 10
240
 20
315
 11
240
 21
355
  0
LINE
  8
0
 10
232.3
 20
322.3
 11
232.3
 21
325
  0
LINE
  8
0
 10
232.3
 20
325
 11
235
 21
325
  0
LINE
  8
0
 10
235
 20
325
 11
235
 21
322.3
  0
LINE
  8
0
 10
235
 20
322.3
 11
232.3
 21
322.3
  0
LINE
  8
0
 10
205
 20
322.3
 11
205
 21
325
  0
LINE
  8
0
 10
205
 20
325
 11
207.7
 21
325
  0
LINE
  8
0
 10
207.7
 20
325
 11
207.7
 21
322.3
  0
LINE
  8
0
 10
207.7
 20
322.3
 11
205
 21
322.3
  0
LINE
  8
0
 10
590
 20
355
 11
585
 21
355
  0
LINE
  8
0
 10
585
 20
355
 11
585
 21
335
  0
LINE
  8
0
 10
585
 20
335
 11
582.3
 21
335
  0
LINE
  8
0
 10
582.3
 20
335
 11
582.3
 21
355
  0
LINE
  8
0
 10
582.3
 20
355
 11
575
 21
355
  0
LINE
  8
0
 10
575
 20
355
 11
575
 21
360
  0
LINE
  8
0
 10
575
 20
360
 11
565
 21
360
  0
LINE
  8
0
 10
565
 20
360
 11
565
 21
355
  0
LINE
  8
0
 10
565
 20
355
 11
557.7
 21
355
  0
LINE
  8
0
 10
557.7
 20
355
 11
557.7
 21
335
  0
LINE
  8
0
 10
557.7
 20
335
 11
555
 21
335
  0
LINE
  8
0
 10
555
 20
335
 11
555
 21
355
  0
LINE
  8
0
 10
555
 20
355
 11
550
 21
355
  0
LINE
  8
0
 10
550
 20
355
 11
550
 21
315
  0
LINE
  8
0
 10
550
 20
315
 11
590
 21
315
  0
LINE
  8
0
 10
590
 20
315
 11
590
 21
355
  0
LINE
  8
0
 10
555
 20
322.3
 11
555
 21
325
  0
LINE
  8
0
 10
555
 20
325
 11
557.7
 21
325
  0
LINE
  8
0
 10
557.7
 20
325
 11
557.7
 21
322.3
  0
LINE
  8
0
 10
557.7
 20
322.3
 11
555
 21
322.3
  0
LINE
  8
0
 10
582.3
 20
322.3
 11
582.3
 21
325
  0
LINE
  8
0
 10
582.3
 20
325
 11
585
 21
325
  0
LINE
  8
0
 10
585
 20
325
 11
585
 21
322.3
  0
LINE
  8
0
 10
585
 20
322.3
 11
582.3
 21
322.3
  0
LINE
  8
0
 10
440
 20
355
 11
435
 21
355
  0
LINE
  8
0
 10
435
 20
355
 11
435
 21
335
  0
LINE
  8
0
 10
435
 20
335
 11
432.3
 21
335
  0
LINE
  8
0
 10
432.3
 20
335
 11
432.3
 21
355
  0
LINE
  8
0
 10
432.3
 20
355
 11
425
 21
355
  0
LINE
  8
0
 10
425
 20
355
 11
425
 21
360
  0
LINE
  8
0
 10
425
 20
360
 11
415
 21
360
  0
LINE
  8
0
 10
415
 20
360
 11
415
 21
355
  0
LINE
  8
0
 10
415
 20
355
 11
407.7
 21
355
  0
LINE
  8
0
 10
407.7
 20
355
 11
407.7
 21
335
  0
LINE
  8
0
 10
407.7
 20
335
 11
405
 21
335
  0
LINE
  8
0
 10
405
 20
335
 11
405
 21
355
  0
LINE
  8
0
 10
405
 20
355
 11
400
 21
355
  0
LINE
  8
0
 10
400
 20
355
 11
400
 21
315
  0
LINE
  8
0
 10
400
 20
315
 11
440
 21
315
  0
LINE
  8
0
 10
440
 20
315
 11
440
 21
355
  0
LINE
  8
0
 10
405
 20
322.3
 11
405
 21
325
  0
LINE
  8
0
 10
405
 20
325
 11
407.7
 21
325
  0
LINE
  8
0
 10
407.7
 20
325
 11
407.7
 21
322.3
  0
LINE
  8
0
 10
407.7
 20
322.3
 11
405
 21
322.3
  0
LINE
  8
0
 10
432.3
 20
322.3
 11
432.3
 21
325
  0
LINE
  8
0
 10
432.3
 20
325
 11
435
 21
325
  0
LINE
  8
0
 10
435
 20
325
 11
435
 21
322.3
  0
LINE
  8
0
 10
435
 20
322.3
 11
432.3
 21
322.3
  0
LINE
  8
0
 10
390
 20
355
 11
385
 21
355
  0
LINE
  8
0
 10
385
 20
355
 11
385
 21
335
  0
LINE
  8
0
 10
385
 20
335
 11
382.3
 21
335
  0
LINE
  8
0
 10
382.3
 20
335
 11
382.3
 21
355
  0
LINE
  8
0
 10
382.3
 20
355
 11
375
 21
355
  0
LINE
  8
0
 10
375
 20
355
 11
375
 21
360
  0
LINE
  8
0
 10
375
 20
360
 11
365
 21
360
  0
LINE
  8
0
 10
365
 20
360
 11
365
 21
355
  0
LINE
  8
0
 10
365
 20
355
 11
357.7
 21
355
  0
LINE
  8
0
 10
357.7
 20
355
 11
357.7
 21
335
  0
LINE
  8
0
 10
357.7
 20
335
 11
355
 21
335
  0
LINE
  8
0
 10
355
 20
335
 11
355
 21
355
  0
LINE
  8
0
 10
355
 20
355
 11
350
 21
355
  0
LINE
  8
0
 10
350
 20
355
 11
350
 21
315
  0
LINE
  8
0
 10
350
 20
315
 11
390
 21
315
  0
LINE
  8
0
 10
390
 20
315
 11
390
 21
355
  0
LINE
  8
0
 10
355
 20
322.3
 11
355
 21
325
  0
LINE
  8
0
 10
355
 20
325
 11
357.7
 21
325
  0
LINE
  8
0
 10
357.7
 20
325
 11
357.7
 21
322.3
  0
LINE
  8
0
 10
357.7
 20
322.3
 11
355
 21
322.3
  0
LINE
  8
0
 10
382.3
 20
322.3
 11
382.3
 21
325
  0
LINE
  8
0
 10
382.3
 20
325
 11
385
 21
325
  0
LINE
  8
0
 10
385
 20
325
 11
385
 21
322.3
  0
LINE
  8
0
 10
385
 20
322.3
 11
382.3
 21
322.3
  0
LINE
  8
0
 10
540
 20
355
 11
535
 21
355
  0
LINE
  8
0
 10
535
 20
355
 11
535
 21
335
  0
LINE
  8
0
 10
535
 20
335
 11
532.3
 21
335
  0
LINE
  8
0
 10
532.3
 20
335
 11
532.3
 21
355
  0
LINE
  8
0
 10
532.3
 20
355
 11
525
 21
355
  0
LINE
  8
0
 10
525
 20
355
 11
525
 21
360
  0
LINE
  8
0
 10
525
 20
360
 11
515
 21
360
  0
LINE
  8
0
 10
515
 20
360
 11
515
 21
355
  0
LINE
  8
0
 10
515
 20
355
 11
507.7
 21
355
  0
LINE
  8
0
 10
507.7
 20
355
 11
507.7
 21
335
  0
LINE
  8
0
 10
507.7
 20
335
 11
505
 21
335
  0
LINE
  8
0
 10
505
 20
335
 11
505
 21
355
  0
LINE
  8
0
 10
505
 20
355
 11
500
 21
355
  0
LINE
  8
0
 10
500
 20
355
 11
500
 21
315
  0
LINE
  8
0
 10
500
 20
315
 11
540
 21
315
  0
LINE
  8
0
 10
540
 20
315
 11
540
 21
355
  0
LINE
  8
0
 10
505
 20
322.3
 11
505
 21
325
  0
LINE
  8
0
 10
505
 20
325
 11
507.7
 21
325
  0
LINE
  8
0
 10
507.7
 20
325
 11
507.7
 21
322.3
  0
LINE
  8
0
 10
507.7
 20
322.3
 11
505
 21
322.3
  0
LINE
  8
0
 10
532.3
 20
322.3
 11
532.3
 21
325
  0
LINE
  8
0
 10
532.3
 20
325
 11
535
 21
325
  0
LINE
  8
0
 10
535
 20
325
 11
535
 21
322.3
  0
LINE
  8
0
 10
535
 20
322.3
 11
532.3
 21
322.3
  0
LINE
  8
0
 10
290
 20
355
 11
285
 21
355
  0
LINE
  8
0
 10
285
 20
355
 11
285
 21
335
  0
LINE
  8
0
 10
285
 20
335
 11
282.3
 21
335
  0
LINE
  8
0
 10
282.3
 20
335
 11
282.3
 21
355
  0
LINE
  8
0
 10
282.3
 20
355
 11
275
 21
355
  0
LINE
  8
0
 10
275
 20
355
 11
275
 21
360
  0
LINE
  8
0
 10
275
 20
360
 11
265
 21
360
  0
LINE
  8
0
 10
265
 20
360
 11
265
 21
355
  0
LINE
  8
0
 10
265
 20
355
 11
257.7
 21
355
  0
LINE
  8
0
 10
257.7
 20
355
 11
257.7
 21
335
  0
LINE
  8
0
 10
257.7
 20
335
 11
255
 21
335
  0
LINE
  8
0
 10
255
 20
335
 11
255
 21
355
  0
LINE
  8
0
 10
255
 20
355
 11
250
 21
355
  0
LINE
  8
0
 10
250
 20
355
 11
250
 21
315
  0
LINE
  8
0
 10
250
 20
315
 11
290
 21
315
  0
LINE
  8
0
 10
290
 20
315
 11
290
 21
355
  0
LINE
  8
0
 10
255
 20
322.3
 11
255
 21
325
  0
LINE
  8
0
 10
255
 20
325
 11
257.7
 21
325
  0
LINE
  8
0
 10
257.7
 20
325
 11
257.7
 21
322.3
  0
LINE
  8
0
 10
257.7
 20
322.3
 11
255
 21
322.3
  0
LINE
  8
0
 10
282.3
 20
322.3
 11
282.3
 21
325
  0
LINE
  8
0
 10
282.3
 20
325
 11
285
 21
325
  0
LINE
  8
0
 10
285
 20
325
 11
285
 21
322.3
  0
LINE
  8
0
 10
285
 20
322.3
 11
282.3
 21
322.3
  0
LINE
  8
0
 10
140
 20
355
 11
135
 21
355
  0
LINE
  8
0
 10
135
 20
355
 11
135
 21
335
  0
LINE
  8
0
 10
135
 20
335
 11
132.3
 21
335
  0
LINE
  8
0
 10
132.3
 20
335
 11
132.3
 21
355
  0
LINE
  8
0
 10
132.3
 20
355
 11
125
 21
355
  0
LINE
  8
0
 10
125
 20
355
 11
125
 21
360
  0
LINE
  8
0
 10
125
 20
360
 11
115
 21
360
  0
LINE
  8
0
 10
115
 20
360
 11
115
 21
355
  0
LINE
  8
0
 10
115
 20
355
 11
107.7
 21
355
  0
LINE
  8
0
 10
107.7
 20
355
 11
107.7
 21
335
  0
LINE
  8
0
 10
107.7
 20
335
 11
105
 21
335
  0
LINE
  8
0
 10
105
 20
335
 11
105
 21
355
  0
LINE
  8
0
 10
105
 20
355
 11
100
 21
355
  0
LINE
  8
0
 10
100
 20
355
 11
100
 21
315
  0
LINE
  8
0
 10
100
 20
315
 11
140
 21
315
  0
LINE
  8
0
 10
140
 20
315
 11
140
 21
355
  0
LINE
  8
0
 10
132.3
 20
322.3
 11
132.3
 21
325
  0
LINE
  8
0
 10
132.3
 20
325
 11
135
 21
325
  0
LINE
  8
0
 10
135
 20
325
 11
135
 21
322.3
  0
LINE
  8
0
 10
135
 20
322.3
 11
132.3
 21
322.3
  0
LINE
  8
0
 10
105
 20
322.3
 11
105
 21
325
  0
LINE
  8
0
 10
105
 20
325
 11
107.7
 21
325
  0
LINE
  8
0
 10
107.7
 20
325
 11
107.7
 21
322.3
  0
LINE
  8
0
 10
107.7
 20
322.3
 11
105
 21
322.3
  0
LINE
  8
0
 10
40
 20
355
 11
0
 21
355
  0
LINE
  8
0
 10
0
 20
355
 11
0
 21
315
  0
LINE
  8
0
 10
0
 20
315
 11
40
 21
315
  0
LINE
  8
0
 10
40
 20
315
 11
40
 21
355
  0
LINE
  8
0
 10
15
 20
347.3
 11
15
 21
350
  0
LINE
  8
0
 10
15
 20
350
 11
25
 21
350
  0
LINE
  8
0
 10
25
 20
350
 11
25
 21
347.3
  0
LINE
  8
0
 10
25
 20
347.3
 11
15
 21
347.3
  0
LINE
  8
0
 10
5
 20
330
 11
5
 21
340
  0
LINE
  8
0
 10
5
 20
340
 11
7.7
 21
340
  0
LINE
  8
0
 10
7.7
 20
340
 11
7.7
 21
330
  0
LINE
  8
0
 10
7.7
 20
330
 11
5
 21
330
  0
LINE
  8
0
 10
32.3
 20
330
 11
32.3
 21
340
  0
LINE
  8
0
 10
32.3
 20
340
 11
35
 21
340
  0
LINE
  8
0
 10
35
 20
340
 11
35
 21
330
  0
LINE
  8
0
 10
35
 20
330
 11
32.3
 21
330
  0
LINE
  8
0
 10
15
 20
320
 11
15
 21
322.7
  0
LINE
  8
0
 10
15
 20
322.7
 11
25
 21
322.7
  0
LINE
  8
0
 10
25
 20
322.7
 11
25
 21
320
  0
LINE
  8
0
 10
25
 20
320
 11
15
 21
320
  0
LINE
  8
0
 10
490
 20
355
 11
450
 21
355
  0
LINE
  8
0
 10
450
 20
355
 11
450
 21
315
  0
LINE
  8
0
 10
450
 20
315
 11
490
 21
315
  0
LINE
  8
0
 10
490
 20
315
 11
490
 21
355
  0
LINE
  8
0
 10
465
 20
347.3
 11
465
 21
350
  0
LINE
  8
0
 10
465
 20
350
 11
475
 21
350
  0
LINE
  8
0
 10
475
 20
350
 11
475
 21
347.3
  0
LINE
  8
0
 10
475
 20
347.3
 11
465
 21
347.3
  0
LINE
  8
0
 10
482.3
 20
330
 11
482.3
 21
340
  0
LINE
  8
0
 10
482.3
 20
340
 11
485
 21
340
  0
LINE
  8
0
 10
485
 20
340
 11
485
 21
330
  0
LINE
  8
0
 10
485
 20
330
 11
482.3
 21
330
  0
LINE
  8
0
 10
455
 20
330
 11
455
 21
340
  0
LINE
  8
0
 10
455
 20
340
 11
457.7
 21
340
  0
LINE
  8
0
 10
457.7
 20
340
 11
457.7
 21
330
  0
LINE
  8
0
 10
457.7
 20
330
 11
455
 21
330
  0
LINE
  8
0
 10
465
 20
320
 11
465
 21
322.7
  0
LINE
  8
0
 10
465
 20
322.7
 11
475
 21
322.7
  0
LINE
  8
0
 10
475
 20
322.7
 11
475
 21
320
  0
LINE
  8
0
 10
475
 20
320
 11
465
 21
320
  0
LINE
  8
0
 10
340
 20
355
 11
300
 21
355
  0
LINE
  8
0
 10
300
 20
355
 11
300
 21
315
  0
LINE
  8
0
 10
300
 20
315
 11
340
 21
315
  0
LINE
  8
0
 10
340
 20
315
 11
340
 21
355
  0
LINE
  8
0
 10
315
 20
347.3
 11
315
 21
350
  0
LINE
  8
0
 10
315
 20
350
 11
325
 21
350
  0
LINE
  8
0
 10
325
 20
350
 11
325
 21
347.3
  0
LINE
  8
0
 10
325
 20
347.3
 11
315
 21
347.3
  0
LINE
  8
0
 10
305
 20
330
 11
305
 21
340
  0
LINE
  8
0
 10
305
 20
340
 11
307.7
 21
340
  0
LINE
  8
0
 10
307.7
 20
340
 11
307.7
 21
330
  0
LINE
  8
0
 10
307.7
 20
330
 11
305
 21
330
  0
LINE
  8
0
 10
332.3
 20
330
 11
332.3
 21
340
  0
LINE
  8
0
 10
332.3
 20
340
 11
335
 21
340
  0
LINE
  8
0
 10
335
 20
340
 11
335
 21
330
  0
LINE
  8
0
 10
335
 20
330
 11
332.3
 21
330
  0
LINE
  8
0
 10
315
 20
320
 11
315
 21
322.7
  0
LINE
  8
0
 10
315
 20
322.7
 11
325
 21
322.7
  0
LINE
  8
0
 10
325
 20
322.7
 11
325
 21
320
  0
LINE
  8
0
 10
325
 20
320
 11
315
 21
320
  0
LINE
  8
0
 10
190
 20
355
 11
150
 21
355
  0
LINE
  8
0
 10
150
 20
355
 11
150
 21
315
  0
LINE
  8
0
 10
150
 20
315
 11
190
 21
315
  0
LINE
  8
0
 10
190
 20
315
 11
190
 21
355
  0
LINE
  8
0
 10
165
 20
347.3
 11
165
 21
350
  0
LINE
  8
0
 10
165
 20
350
 11
175
 21
350
  0
LINE
  8
0
 10
175
 20
350
 11
175
 21
347.3
  0
LINE
  8
0
 10
175
 20
347.3
 11
165
 21
347.3
  0
LINE
  8
0
 10
155
 20
330
 11
155
 21
340
  0
LINE
  8
0
 10
155
 20
340
 11
157.7
 21
340
  0
LINE
  8
0
 10
157.7
 20
340
 11
157.7
 21
330
  0
LINE
  8
0
 10
157.7
 20
330
 11
155
 21
330
  0
LINE
  8
0
 10
182.3
 20
330
 11
182.3
 21
340
  0
LINE
  8
0
 10
182.3
 20
340
 11
185
 21
340
  0
LINE
  8
0
 10
185
 20
340
 11
185
 21
330
  0
LINE
  8
0
 10
185
 20
330
 11
182.3
 21
330
  0
LINE
  8
0
 10
165
 20
320
 11
165
 21
322.7
  0
LINE
  8
0
 10
165
 20
322.7
 11
175
 21
322.7
  0
LINE
  8
0
 10
175
 20
322.7
 11
175
 21
320
  0
LINE
  8
0
 10
175
 20
320
 11
165
 21
320
  0
LINE
  8
0
 10
25
 20
300
 11
0
 21
300
  0
LINE
  8
0
 10
0
 20
300
 11
0
 21
292.7
  0
LINE
  8
0
 10
0
 20
292.7
 11
8
 21
292.7
  0
LINE
  8
0
 10
8
 20
292.7
 11
8
 21
290
  0
LINE
  8
0
 10
8
 20
290
 11
0
 21
290
  0
LINE
  8
0
 10
0
 20
290
 11
0
 21
270
  0
LINE
  8
0
 10
0
 20
270
 11
8
 21
270
  0
LINE
  8
0
 10
8
 20
270
 11
8
 21
267.3
  0
LINE
  8
0
 10
8
 20
267.3
 11
0
 21
267.3
  0
LINE
  8
0
 10
0
 20
267.3
 11
0
 21
260
  0
LINE
  8
0
 10
0
 20
260
 11
25
 21
260
  0
LINE
  8
0
 10
25
 20
260
 11
25
 21
300
  0
LINE
  8
0
 10
65
 20
300
 11
40
 21
300
  0
LINE
  8
0
 10
40
 20
300
 11
40
 21
292.7
  0
LINE
  8
0
 10
40
 20
292.7
 11
48
 21
292.7
  0
LINE
  8
0
 10
48
 20
292.7
 11
48
 21
290
  0
LINE
  8
0
 10
48
 20
290
 11
40
 21
290
  0
LINE
  8
0
 10
40
 20
290
 11
40
 21
270
  0
LINE
  8
0
 10
40
 20
270
 11
48
 21
270
  0
LINE
  8
0
 10
48
 20
270
 11
48
 21
267.3
  0
LINE
  8
0
 10
48
 20
267.3
 11
40
 21
267.3
  0
LINE
  8
0
 10
40
 20
267.3
 11
40
 21
260
  0
LINE
  8
0
 10
40
 20
260
 11
65
 21
260
  0
LINE
  8
0
 10
65
 20
260
 11
65
 21
300
  0
LINE
  8
0
 10
665
 20
300
 11
640
 21
300
  0
LINE
  8
0
 10
640
 20
300
 11
640
 21
292.7
  0
LINE
  8
0
 10
640
 20
292.7
 11
648
 21
292.7
  0
LINE
  8
0
 10
648
 20
292.7
 11
648
 21
290
  0
LINE
  8
0
 10
648
 20
290
 11
640
 21
290
  0
LINE
  8
0
 10
640
 20
290
 11
640
 21
270
  0
LINE
  8
0
 10
640
 20
270
 11
648
 21
270
  0
LINE
  8
0
 10
648
 20
270
 11
648
 21
267.3
  0
LINE
  8
0
 10
648
 20
267.3
 11
640
 21
267.3
  0
LINE
  8
0
 10
640
 20
267.3
 11
640
 21
260
  0
LINE
  8
0
 10
640
 20
260
 11
665
 21
260
  0
LINE
  8
0
 10
665
 20
260
 11
665
 21
300
  0
LINE
  8
0
 10
105
 20
300
 11
80
 21
300
  0
LINE
  8
0
 10
80
 20
300
 11
80
 21
292.7
  0
LINE
  8
0
 10
80
 20
292.7
 11
88
 21
292.7
  0
LINE
  8
0
 10
88
 20
292.7
 11
88
 21
290
  0
LINE
  8
0
 10
88
 20
290
 11
80
 21
290
  0
LINE
  8
0
 10
80
 20
290
 11
80
 21
270
  0
LINE
  8
0
 10
80
 20
270
 11
88
 21
270
  0
LINE
  8
0
 10
88
 20
270
 11
88
 21
267.3
  0
LINE
  8
0
 10
88
 20
267.3
 11
80
 21
267.3
  0
LINE
  8
0
 10
80
 20
267.3
 11
80
 21
260
  0
LINE
  8
0
 10
80
 20
260
 11
105
 21
260
  0
LINE
  8
0
 10
105
 20
260
 11
105
 21
300
  0
LINE
  8
0
 10
145
 20
300
 11
120
 21
300
  0
LINE
  8
0
 10
120
 20
300
 11
120
 21
292.7
  0
LINE
  8
0
 10
120
 20
292.7
 11
128
 21
292.7
  0
LINE
  8
0
 10
128
 20
292.7
 11
128
 21
290
  0
LINE
  8
0
 10
128
 20
290
 11
120
 21
290
  0
LINE
  8
0
 10
120
 20
290
 11
120
 21
270
  0
LINE
  8
0
 10
120
 20
270
 11
128
 21
270
  0
LINE
  8
0
 10
128
 20
270
 11
128
 21
267.3
  0
LINE
  8
0
 10
128
 20
267.3
 11
120
 21
267.3
  0
LINE
  8
0
 10
120
 20
267.3
 11
120
 21
260
  0
LINE
  8
0
 10
120
 20
260
 11
145
 21
260
  0
LINE
  8
0
 10
145
 20
260
 11
145
 21
300
  0
LINE
  8
0
 10
625
 20
300
 11
600
 21
300
  0
LINE
  8
0
 10
600
 20
300
 11
600
 21
292.7
  0
LINE
  8
0
 10
600
 20
292.7
 11
608
 21
292.7
  0
LINE
  8
0
 10
608
 20
292.7
 11
608
 21
290
  0
LINE
  8
0
 10
608
 20
290
 11
600
 21
290
  0
LINE
  8
0
 10
600
 20
290
 11
600
 21
270
  0
LINE
  8
0
 10
600
 20
270
 11
608
 21
270
  0
LINE
  8
0
 10
608
 20
270
 11
608
 21
267.3
  0
LINE
  8
0
 10
608
 20
267.3
 11
600
 21
267.3
  0
LINE
  8
0
 10
600
 20
267.3
 11
600
 21
260
  0
LINE
  8
0
 10
600
 20
260
 11
625
 21
260
  0
LINE
  8
0
 10
625
 20
260
 11
625
 21
300
  0
LINE
  8
0
 10
185
 20
300
 11
160
 21
300
  0
LINE
  8
0
 10
160
 20
300
 11
160
 21
292.7
  0
LINE
  8
0
 10
160
 20
292.7
 11
168
 21
292.7
  0
LINE
  8
0
 10
168
 20
292.7
 11
168
 21
290
  0
LINE
  8
0
 10
168
 20
290
 11
160
 21
290
  0
LINE
  8
0
 10
160
 20
290
 11
160
 21
270
  0
LINE
  8
0
 10
160
 20
270
 11
168
 21
270
  0
LINE
  8
0
 10
168
 20
270
 11
168
 21
267.3
  0
LINE
  8
0
 10
168
 20
267.3
 11
160
 21
267.3
  0
LINE
  8
0
 10
160
 20
267.3
 11
160
 21
260
  0
LINE
  8
0
 10
160
 20
260
 11
185
 21
260
  0
LINE
  8
0
 10
185
 20
260
 11
185
 21
300
  0
LINE
  8
0
 10
225
 20
300
 11
200
 21
300
  0
LINE
  8
0
 10
200
 20
300
 11
200
 21
292.7
  0
LINE
  8
0
 10
200
 20
292.7
 11
208
 21
292.7
  0
LINE
  8
0
 10
208
 20
292.7
 11
208
 21
290
  0
LINE
  8
0
 10
208
 20
290
 11
200
 21
290
  0
LINE
  8
0
 10
200
 20
290
 11
200
 21
270
  0
LINE
  8
0
 10
200
 20
270
 11
208
 21
270
  0
LINE
  8
0
 10
208
 20
270
 11
208
 21
267.3
  0
LINE
  8
0
 10
208
 20
267.3
 11
200
 21
267.3
  0
LINE
  8
0
 10
200
 20
267.3
 11
200
 21
260
  0
LINE
  8
0
 10
200
 20
260
 11
225
 21
260
  0
LINE
  8
0
 10
225
 20
260
 11
225
 21
300
  0
LINE
  8
0
 10
585
 20
300
 11
560
 21
300
  0
LINE
  8
0
 10
560
 20
300
 11
560
 21
292.7
  0
LINE
  8
0
 10
560
 20
292.7
 11
568
 21
292.7
  0
LINE
  8
0
 10
568
 20
292.7
 11
568
 21
290
  0
LINE
  8
0
 10
568
 20
290
 11
560
 21
290
  0
LINE
  8
0
 10
560
 20
290
 11
560
 21
270
  0
LINE
  8
0
 10
560
 20
270
 11
568
 21
270
  0
LINE
  8
0
 10
568
 20
270
 11
568
 21
267.3
  0
LINE
  8
0
 10
568
 20
267.3
 11
560
 21
267.3
  0
LINE
  8
0
 10
560
 20
267.3
 11
560
 21
260
  0
LINE
  8
0
 10
560
 20
260
 11
585
 21
260
  0
LINE
  8
0
 10
585
 20
260
 11
585
 21
300
  0
LINE
  8
0
 10
265
 20
300
 11
240
 21
300
  0
LINE
  8
0
 10
240
 20
300
 11
240
 21
292.7
  0
LINE
  8
0
 10
240
 20
292.7
 11
248
 21
292.7
  0
LINE
  8
0
 10
248
 20
292.7
 11
248
 21
290
  0
LINE
  8
0
 10
248
 20
290
 11
240
 21
290
  0
LINE
  8
0
 10
240
 20
290
 11
240
 21
270
  0
LINE
  8
0
 10
240
 20
270
 11
248
 21
270
  0
LINE
  8
0
 10
248
 20
270
 11
248
 21
267.3
  0
LINE
  8
0
 10
248
 20
267.3
 11
240
 21
267.3
  0
LINE
  8
0
 10
240
 20
267.3
 11
240
 21
260
  0
LINE
  8
0
 10
240
 20
260
 11
265
 21
260
  0
LINE
  8
0
 10
265
 20
260
 11
265
 21
300
  0
LINE
  8
0
 10
305
 20
300
 11
280
 21
300
  0
LINE
  8
0
 10
280
 20
300
 11
280
 21
292.7
  0
LINE
  8
0
 10
280
 20
292.7
 11
288
 21
292.7
  0
LINE
  8
0
 10
288
 20
292.7
 11
288
 21
290
  0
LINE
  8
0
 10
288
 20
290
 11
280
 21
290
  0
LINE
  8
0
 10
280
 20
290
 11
280
 21
270
  0
LINE
  8
0
 10
280
 20
270
 11
288
 21
270
  0
LINE
  8
0
 10
288
 20
270
 11
288
 21
267.3
  0
LINE
  8
0
 10
288
 20
267.3
 11
280
 21
267.3
  0
LINE
  8
0
 10
280
 20
267.3
 11
280
 21
260
  0
LINE
  8
0
 10
280
 20
260
 11
305
 21
260
  0
LINE
  8
0
 10
305
 20
260
 11
305
 21
300
  0
LINE
  8
0
 10
545
 20
300
 11
520
 21
300
  0
LINE
  8
0
 10
520
 20
300
 11
520
 21
292.7
  0
LINE
  8
0
 10
520
 20
292.7
 11
528
 21
292.7
  0
LINE
  8
0
 10
528
 20
292.7
 11
528
 21
290
  0
LINE
  8
0
 10
528
 20
290
 11
520
 21
290
  0
LINE
  8
0
 10
520
 20
290
 11
520
 21
270
  0
LINE
  8
0
 10
520
 20
270
 11
528
 21
270
  0
LINE
  8
0
 10
528
 20
270
 11
528
 21
267.3
  0
LINE
  8
0
 10
528
 20
267.3
 11
520
 21
267.3
  0
LINE
  8
0
 10
520
 20
267.3
 11
520
 21
260
  0
LINE
  8
0
 10
520
 20
260
 11
545
 21
260
  0
LINE
  8
0
 10
545
 20
260
 11
545
 21
300
  0
LINE
  8
0
 10
345
 20
300
 11
320
 21
300
  0
LINE
  8
0
 10
320
 20
300
 11
320
 21
292.7
  0
LINE
  8
0
 10
320
 20
292.7
 11
328
 21
292.7
  0
LINE
  8
0
 10
328
 20
292.7
 11
328
 21
290
  0
LINE
  8
0
 10
328
 20
290
 11
320
 21
290
  0
LINE
  8
0
 10
320
 20
290
 11
320
 21
270
  0
LINE
  8
0
 10
320
 20
270
 11
328
 21
270
  0
LINE
  8
0
 10
328
 20
270
 11
328
 21
267.3
  0
LINE
  8
0
 10
328
 20
267.3
 11
320
 21
267.3
  0
LINE
  8
0
 10
320
 20
267.3
 11
320
 21
260
  0
LINE
  8
0
 10
320
 20
260
 11
345
 21
260
  0
LINE
  8
0
 10
345
 20
260
 11
345
 21
300
  0
LINE
  8
0
 10
385
 20
300
 11
360
 21
300
  0
LINE
  8
0
 10
360
 20
300
 11
360
 21
292.7
  0
LINE
  8
0
 10
360
 20
292.7
 11
368
 21
292.7
  0
LINE
  8
0
 10
368
 20
292.7
 11
368
 21
290
  0
LINE
  8
0
 10
368
 20
290
 11
360
 21
290
  0
LINE
  8
0
 10
360
 20
290
 11
360
 21
270
  0
LINE
  8
0
 10
360
 20
270
 11
368
 21
270
  0
LINE
  8
0
 10
368
 20
270
 11
368
 21
267.3
  0
LINE
  8
0
 10
368
 20
267.3
 11
360
 21
267.3
  0
LINE
  8
0
 10
360
 20
267.3
 11
360
 21
260
  0
LINE
  8
0
 10
360
 20
260
 11
385
 21
260
  0
LINE
  8
0
 10
385
 20
260
 11
385
 21
300
  0
LINE
  8
0
 10
505
 20
300
 11
480
 21
300
  0
LINE
  8
0
 10
480
 20
300
 11
480
 21
292.7
  0
LINE
  8
0
 10
480
 20
292.7
 11
488
 21
292.7
  0
LINE
  8
0
 10
488
 20
292.7
 11
488
 21
290
  0
LINE
  8
0
 10
488
 20
290
 11
480
 21
290
  0
LINE
  8
0
 10
480
 20
290
 11
480
 21
270
  0
LINE
  8
0
 10
480
 20
270
 11
488
 21
270
  0
LINE
  8
0
 10
488
 20
270
 11
488
 21
267.3
  0
LINE
  8
0
 10
488
 20
267.3
 11
480
 21
267.3
  0
LINE
  8
0
 10
480
 20
267.3
 11
480
 21
260
  0
LINE
  8
0
 10
480
 20
260
 11
505
 21
260
  0
LINE
  8
0
 10
505
 20
260
 11
505
 21
300
  0
LINE
  8
0
 10
425
 20
300
 11
400
 21
300
  0
LINE
  8
0
 10
400
 20
300
 11
400
 21
292.7
  0
LINE
  8
0
 10
400
 20
292.7
 11
408
 21
292.7
  0
LINE
  8
0
 10
408
 20
292.7
 11
408
 21
290
  0
LINE
  8
0
 10
408
 20
290
 11
400
 21
290
  0
LINE
  8
0
 10
400
 20
290
 11
400
 21
270
  0
LINE
  8
0
 10
400
 20
270
 11
408
 21
270
  0
LINE
  8
0
 10
408
 20
270
 11
408
 21
267.3
  0
LINE
  8
0
 10
408
 20
267.3
 11
400
 21
267.3
  0
LINE
  8
0
 10
400
 20
267.3
 11
400
 21
260
  0
LINE
  8
0
 10
400
 20
260
 11
425
 21
260
  0
LINE
  8
0
 10
425
 20
260
 11
425
 21
300
  0
LINE
  8
0
 10
465
 20
300
 11
440
 21
300
  0
LINE
  8
0
 10
440
 20
300
 11
440
 21
292.7
  0
LINE
  8
0
 10
440
 20
292.7
 11
448
 21
292.7
  0
LINE
  8
0
 10
448
 20
292.7
 11
448
 21
290
  0
LINE
  8
0
 10
448
 20
290
 11
440
 21
290
  0
LINE
  8
0
 10
440
 20
290
 11
440
 21
270
  0
LINE
  8
0
 10
440
 20
270
 11
448
 21
270
  0
LINE
  8
0
 10
448
 20
270
 11
448
 21
267.3
  0
LINE
  8
0
 10
448
 20
267.3
 11
440
 21
267.3
  0
LINE
  8
0
 10
440
 20
267.3
 11
440
 21
260
  0
LINE
  8
0
 10
440
 20
260
 11
465
 21
260
  0
LINE
  8
0
 10
465
 20
260
 11
465
 21
300
  0
LINE
  8
0
 10
25
 20
240
 11
0
 21
240
  0
LINE
  8
0
 10
0
 20
240
 11
0
 21
232.7
  0
LINE
  8
0
 10
0
 20
232.7
 11
8
 21
232.7
  0
LINE
  8
0
 10
8
 20
232.7
 11
8
 21
230
  0
LINE
  8
0
 10
8
 20
230
 11
0
 21
230
  0
LINE
  8
0
 10
0
 20
230
 11
0
 21
210
  0
LINE
  8
0
 10
0
 20
210
 11
8
 21
210
  0
LINE
  8
0
 10
8
 20
210
 11
8
 21
207.3
  0
LINE
  8
0
 10
8
 20
207.3
 11
0
 21
207.3
  0
LINE
  8
0
 10
0
 20
207.3
 11
0
 21
200
  0
LINE
  8
0
 10
0
 20
200
 11
25
 21
200
  0
LINE
  8
0
 10
25
 20
200
 11
25
 21
240
  0
LINE
  8
0
 10
65
 20
240
 11
40
 21
240
  0
LINE
  8
0
 10
40
 20
240
 11
40
 21
232.7
  0
LINE
  8
0
 10
40
 20
232.7
 11
48
 21
232.7
  0
LINE
  8
0
 10
48
 20
232.7
 11
48
 21
230
  0
LINE
  8
0
 10
48
 20
230
 11
40
 21
230
  0
LINE
  8
0
 10
40
 20
230
 11
40
 21
210
  0
LINE
  8
0
 10
40
 20
210
 11
48
 21
210
  0
LINE
  8
0
 10
48
 20
210
 11
48
 21
207.3
  0
LINE
  8
0
 10
48
 20
207.3
 11
40
 21
207.3
  0
LINE
  8
0
 10
40
 20
207.3
 11
40
 21
200
  0
LINE
  8
0
 10
40
 20
200
 11
65
 21
200
  0
LINE
  8
0
 10
65
 20
200
 11
65
 21
240
  0
LINE
  8
0
 10
105
 20
240
 11
80
 21
240
  0
LINE
  8
0
 10
80
 20
240
 11
80
 21
232.7
  0
LINE
  8
0
 10
80
 20
232.7
 11
88
 21
232.7
  0
LINE
  8
0
 10
88
 20
232.7
 11
88
 21
230
  0
LINE
  8
0
 10
88
 20
230
 11
80
 21
230
  0
LINE
  8
0
 10
80
 20
230
 11
80
 21
210
  0
LINE
  8
0
 10
80
 20
210
 11
88
 21
210
  0
LINE
  8
0
 10
88
 20
210
 11
88
 21
207.3
  0
LINE
  8
0
 10
88
 20
207.3
 11
80
 21
207.3
  0
LINE
  8
0
 10
80
 20
207.3
 11
80
 21
200
  0
LINE
  8
0
 10
80
 20
200
 11
105
 21
200
  0
LINE
  8
0
 10
105
 20
200
 11
105
 21
240
  0
LINE
  8
0
 10
145
 20
240
 11
120
 21
240
  0
LINE
  8
0
 10
120
 20
240
 11
120
 21
232.7
  0
LINE
  8
0
 10
120
 20
232.7
 11
128
 21
232.7
  0
LINE
  8
0
 10
128
 20
232.7
 11
128
 21
230
  0
LINE
  8
0
 10
128
 20
230
 11
120
 21
230
  0
LINE
  8
0
 10
120
 20
230
 11
120
 21
210
  0
LINE
  8
0
 10
120
 20
210
 11
128
 21
210
  0
LINE
  8
0
 10
128
 20
210
 11
128
 21
207.3
  0
LINE
  8
0
 10
128
 20
207.3
 11
120
 21
207.3
  0
LINE
  8
0
 10
120
 20
207.3
 11
120
 21
200
  0
LINE
  8
0
 10
120
 20
200
 11
145
 21
200
  0
LINE
  8
0
 10
145
 20
200
 11
145
 21
240
  0
LINE
  8
0
 10
185
 20
240
 11
160
 21
240
  0
LINE
  8
0
 10
160
 20
240
 11
160
 21
232.7
  0
LINE
  8
0
 10
160
 20
232.7
 11
168
 21
232.7
  0
LINE
  8
0
 10
168
 20
232.7
 11
168
 21
230
  0
LINE
  8
0
 10
168
 20
230
 11
160
 21
230
  0
LINE
  8
0
 10
160
 20
230
 11
160
 21
210
  0
LINE
  8
0
 10
160
 20
210
 11
168
 21
210
  0
LINE
  8
0
 10
168
 20
210
 11
168
 21
207.3
  0
LINE
  8
0
 10
168
 20
207.3
 11
160
 21
207.3
  0
LINE
  8
0
 10
160
 20
207.3
 11
160
 21
200
  0
LINE
  8
0
 10
160
 20
200
 11
185
 21
200
  0
LINE
  8
0
 10
185
 20
200
 11
185
 21
240
  0
LINE
  8
0
 10
225
 20
240
 11
200
 21
240
  0
LINE
  8
0
 10
200
 20
240
 11
200
 21
232.7
  0
LINE
  8
0
 10
200
 20
232.7
 11
208
 21
232.7
  0
LINE
  8
0
 10
208
 20
232.7
 11
208
 21
230
  0
LINE
  8
0
 10
208
 20
230
 11
200
 21
230
  0
LINE
  8
0
 10
200
 20
230
 11
200
 21
210
  0
LINE
  8
0
 10
200
 20
210
 11
208
 21
210
  0
LINE
  8
0
 10
208
 20
210
 11
208
 21
207.3
  0
LINE
  8
0
 10
208
 20
207.3
 11
200
 21
207.3
  0
LINE
  8
0
 10
200
 20
207.3
 11
200
 21
200
  0
LINE
  8
0
 10
200
 20
200
 11
225
 21
200
  0
LINE
  8
0
 10
225
 20
200
 11
225
 21
240
  0
LINE
  8
0
 10
265
 20
240
 11
240
 21
240
  0
LINE
  8
0
 10
240
 20
240
 11
240
 21
232.7
  0
LINE
  8
0
 10
240
 20
232.7
 11
248
 21
232.7
  0
LINE
  8
0
 10
248
 20
232.7
 11
248
 21
230
  0
LINE
  8
0
 10
248
 20
230
 11
240
 21
230
  0
LINE
  8
0
 10
240
 20
230
 11
240
 21
210
  0
LINE
  8
0
 10
240
 20
210
 11
248
 21
210
  0
LINE
  8
0
 10
248
 20
210
 11
248
 21
207.3
  0
LINE
  8
0
 10
248
 20
207.3
 11
240
 21
207.3
  0
LINE
  8
0
 10
240
 20
207.3
 11
240
 21
200
  0
LINE
  8
0
 10
240
 20
200
 11
265
 21
200
  0
LINE
  8
0
 10
265
 20
200
 11
265
 21
240
  0
LINE
  8
0
 10
305
 20
240
 11
280
 21
240
  0
LINE
  8
0
 10
280
 20
240
 11
280
 21
232.7
  0
LINE
  8
0
 10
280
 20
232.7
 11
288
 21
232.7
  0
LINE
  8
0
 10
288
 20
232.7
 11
288
 21
230
  0
LINE
  8
0
 10
288
 20
230
 11
280
 21
230
  0
LINE
  8
0
 10
280
 20
230
 11
280
 21
210
  0
LINE
  8
0
 10
280
 20
210
 11
288
 21
210
  0
LINE
  8
0
 10
288
 20
210
 11
288
 21
207.3
  0
LINE
  8
0
 10
288
 20
207.3
 11
280
 21
207.3
  0
LINE
  8
0
 10
280
 20
207.3
 11
280
 21
200
  0
LINE
  8
0
 10
280
 20
200
 11
305
 21
200
  0
LINE
  8
0
 10
305
 20
200
 11
305
 21
240
  0
LINE
  8
0
 10
345
 20
240
 11
320
 21
240
  0
LINE
  8
0
 10
320
 20
240
 11
320
 21
232.7
  0
LINE
  8
0
 10
320
 20
232.7
 11
328
 21
232.7
  0
LINE
  8
0
 10
328
 20
232.7
 11
328
 21
230
  0
LINE
  8
0
 10
328
 20
230
 11
320
 21
230
  0
LINE
  8
0
 10
320
 20
230
 11
320
 21
210
  0
LINE
  8
0
 10
320
 20
210
 11
328
 21
210
  0
LINE
  8
0
 10
328
 20
210
 11
328
 21
207.3
  0
LINE
  8
0
 10
328
 20
207.3
 11
320
 21
207.3
  0
LINE
  8
0
 10
320
 20
207.3
 11
320
 21
200
  0
LINE
  8
0
 10
320
 20
200
 11
345
 21
200
  0
LINE
  8
0
 10
345
 20
200
 11
345
 21
240
  0
LINE
  8
0
 10
385
 20
240
 11
360
 21
240
  0
LINE
  8
0
 10
360
 20
240
 11
360
 21
232.7
  0
LINE
  8
0
 10
360
 20
232.7
 11
368
 21
232.7
  0
LINE
  8
0
 10
368
 20
232.7
 11
368
 21
230
  0
LINE
  8
0
 10
368
 20
230
 11
360
 21
230
  0
LINE
  8
0
 10
360
 20
230
 11
360
 21
210
  0
LINE
  8
0
 10
360
 20
210
 11
368
 21
210
  0
LINE
  8
0
 10
368
 20
210
 11
368
 21
207.3
  0
LINE
  8
0
 10
368
 20
207.3
 11
360
 21
207.3
  0
LINE
  8
0
 10
360
 20
207.3
 11
360
 21
200
  0
LINE
  8
0
 10
360
 20
200
 11
385
 21
200
  0
LINE
  8
0
 10
385
 20
200
 11
385
 21
240
  0
LINE
  8
0
 10
425
 20
240
 11
400
 21
240
  0
LINE
  8
0
 10
400
 20
240
 11
400
 21
232.7
  0
LINE
  8
0
 10
400
 20
232.7
 11
408
 21
232.7
  0
LINE
  8
0
 10
408
 20
232.7
 11
408
 21
230
  0
LINE
  8
0
 10
408
 20
230
 11
400
 21
230
  0
LINE
  8
0
 10
400
 20
230
 11
400
 21
210
  0
LINE
  8
0
 10
400
 20
210
 11
408
 21
210
  0
LINE
  8
0
 10
408
 20
210
 11
408
 21
207.3
  0
LINE
  8
0
 10
408
 20
207.3
 11
400
 21
207.3
  0
LINE
  8
0
 10
400
 20
207.3
 11
400
 21
200
  0
LINE
  8
0
 10
400
 20
200
 11
425
 21
200
  0
LINE
  8
0
 10
425
 20
200
 11
425
 21
240
  0
LINE
  8
0
 10
465
 20
240
 11
440
 21
240
  0
LINE
  8
0
 10
440
 20
240
 11
440
 21
232.7
  0
LINE
  8
0
 10
440
 20
232.7
 11
448
 21
232.7
  0
LINE
  8
0
 10
448
 20
232.7
 11
448
 21
230
  0
LINE
  8
0
 10
448
 20
230
 11
440
 21
230
  0
LINE
  8
0
 10
440
 20
230
 11
440
 21
210
  0
LINE
  8
0
 10
440
 20
210
 11
448
 21
210
  0
LINE
  8
0
 10
448
 20
210
 11
448
 21
207.3
  0
LINE
  8
0
 10
448
 20
207.3
 11
440
 21
207.3
  0
LINE
  8
0
 10
440
 20
207.3
 11
440
 21
200
  0
LINE
  8
0
 10
440
 20
200
 11
465
 21
200
  0
LINE
  8
0
 10
465
 20
200
 11
465
 21
240
  0
LINE
  8
0
 10
665
 20
240
 11
640
 21
240
  0
LINE
  8
0
 10
640
 20
240
 11
640
 21
232.7
  0
LINE
  8
0
 10
640
 20
232.7
 11
648
 21
232.7
  0
LINE
  8
0
 10
648
 20
232.7
 11
648
 21
230
  0
LINE
  8
0
 10
648
 20
230
 11
640
 21
230
  0
LINE
  8
0
 10
640
 20
230
 11
640
 21
210
  0
LINE
  8
0
 10
640
 20
210
 11
648
 21
210
  0
LINE
  8
0
 10
648
 20
210
 11
648
 21
207.3
  0
LINE
  8
0
 10
648
 20
207.3
 11
640
 21
207.3
  0
LINE
  8
0
 10
640
 20
207.3
 11
640
 21
200
  0
LINE
  8
0
 10
640
 20
200
 11
665
 21
200
  0
LINE
  8
0
 10
665
 20
200
 11
665
 21
240
  0
LINE
  8
0
 10
505
 20
240
 11
480
 21
240
  0
LINE
  8
0
 10
480
 20
240
 11
480
 21
232.7
  0
LINE
  8
0
 10
480
 20
232.7
 11
488
 21
232.7
  0
LINE
  8
0
 10
488
 20
232.7
 11
488
 21
230
  0
LINE
  8
0
 10
488
 20
230
 11
480
 21
230
  0
LINE
  8
0
 10
480
 20
230
 11
480
 21
210
  0
LINE
  8
0
 10
480
 20
210
 11
488
 21
210
  0
LINE
  8
0
 10
488
 20
210
 11
488
 21
207.3
  0
LINE
  8
0
 10
488
 20
207.3
 11
480
 21
207.3
  0
LINE
  8
0
 10
480
 20
207.3
 11
480
 21
200
  0
LINE
  8
0
 10
480
 20
200
 11
505
 21
200
  0
LINE
  8
0
 10
505
 20
200
 11
505
 21
240
  0
LINE
  8
0
 10
625
 20
240
 11
600
 21
240
  0
LINE
  8
0
 10
600
 20
240
 11
600
 21
232.7
  0
LINE
  8
0
 10
600
 20
232.7
 11
608
 21
232.7
  0
LINE
  8
0
 10
608
 20
232.7
 11
608
 21
230
  0
LINE
  8
0
 10
608
 20
230
 11
600
 21
230
  0
LINE
  8
0
 10
600
 20
230
 11
600
 21
210
  0
LINE
  8
0
 10
600
 20
210
 11
608
 21
210
  0
LINE
  8
0
 10
608
 20
210
 11
608
 21
207.3
  0
LINE
  8
0
 10
608
 20
207.3
 11
600
 21
207.3
  0
LINE
  8
0
 10
600
 20
207.3
 11
600
 21
200
  0
LINE
  8
0
 10
600
 20
200
 11
625
 21
200
  0
LINE
  8
0
 10
625
 20
200
 11
625
 21
240
  0
LINE
  8
0
 10
545
 20
240
 11
520
 21
240
  0
LINE
  8
0
 10
520
 20
240
 11
520
 21
232.7
  0
LINE
  8
0
 10
520
 20
232.7
 11
528
 21
232.7
  0
LINE
  8
0
 10
528
 20
232.7
 11
528
 21
230
  0
LINE
  8
0
 10
528
 20
230
 11
520
 21
230
  0
LINE
  8
0
 10
520
 20
230
 11
520
 21
210
  0
LINE
  8
0
 10
520
 20
210
 11
528
 21
210
  0
LINE
  8
0
 10
528
 20
210
 11
528
 21
207.3
  0
LINE
  8
0
 10
528
 20
207.3
 11
520
 21
207.3
  0
LINE
  8
0
 10
520
 20
207.3
 11
520
 21
200
  0
LINE
  8
0
 10
520
 20
200
 11
545
 21
200
  0
LINE
  8
0
 10
545
 20
200
 11
545
 21
240
  0
LINE
  8
0
 10
585
 20
240
 11
560
 21
240
  0
LINE
  8
0
 10
560
 20
240
 11
560
 21
232.7
  0
LINE
  8
0
 10
560
 20
232.7
 11
568
 21
232.7
  0
LINE
  8
0
 10
568
 20
232.7
 11
568
 21
230
  0
LINE
  8
0
 10
568
 20
230
 11
560
 21
230
  0
LINE
  8
0
 10
560
 20
230
 11
560
 21
210
  0
LINE
  8
0
 10
560
 20
210
 11
568
 21
210
  0
LINE
  8
0
 10
568
 20
210
 11
568
 21
207.3
  0
LINE
  8
0
 10
568
 20
207.3
 11
560
 21
207.3
  0
LINE
  8
0
 10
560
 20
207.3
 11
560
 21
200
  0
LINE
  8
0
 10
560
 20
200
 11
585
 21
200
  0
LINE
  8
0
 10
585
 20
200
 11
585
 21
240
  0
LINE
  8
0
 10
20
 20
-20
 11
40
 21
-20
  0
LINE
  8
0
 10
40
 20
-20
 11
200
 21
140
  0
LINE
  8
0
 10
200
 20
140
 11
210
 21
140
  0
LINE
  8
0
 10
210
 20
140
 11
210
 21
180
  0
LINE
  8
0
 10
210
 20
180
 11
180
 21
180
  0
LINE
  8
0
 10
180
 20
180
 11
180
 21
160
  0
LINE
  8
0
 10
180
 20
160
 11
160
 21
160
  0
LINE
  8
0
 10
160
 20
160
 11
160
 21
140
  0
LINE
  8
0
 10
160
 20
140
 11
140
 21
140
  0
LINE
  8
0
 10
140
 20
140
 11
140
 21
120
  0
LINE
  8
0
 10
140
 20
120
 11
120
 21
120
  0
LINE
  8
0
 10
120
 20
120
 11
120
 21
100
  0
LINE
  8
0
 10
120
 20
100
 11
100
 21
100
  0
LINE
  8
0
 10
100
 20
100
 11
100
 21
80
  0
LINE
  8
0
 10
100
 20
80
 11
80
 21
80
  0
LINE
  8
0
 10
80
 20
80
 11
80
 21
60
  0
LINE
  8
0
 10
80
 20
60
 11
60
 21
60
  0
LINE
  8
0
 10
60
 20
60
 11
60
 21
40
  0
LINE
  8
0
 10
60
 20
40
 11
40
 21
40
  0
LINE
  8
0
 10
40
 20
40
 11
40
 21
20
  0
LINE
  8
0
 10
40
 20
20
 11
20
 21
20
  0
LINE
  8
0
 10
20
 20
20
 11
20
 21
0
  0
LINE
  8
0
 10
20
 20
0
 11
0
 21
0
  0
LINE
  8
0
 10
0
 20
0
 11
0
 21
-40
  0
LINE
  8
0
 10
0
 20
-40
 11
20
 21
-40
  0
LINE
  8
0
 10
20
 20
-40
 11
20
 21
-20
  0
LINE
  8
0
 10
200
 20
147.3
 11
200
 21
150
  0
LINE
  8
0
 10
200
 20
150
 11
202.7
 21
150
  0
LINE
  8
0
 10
202.7
 20
150
 11
202.7
 21
147.3
  0
LINE
  8
0
 10
202.7
 20
147.3
 11
200
 21
147.3
  0
LINE
  8
0
 10
5
 20
-32.7
 11
5
 21
-30
  0
LINE
  8
0
 10
5
 20
-30
 11
7.7
 21
-30
  0
LINE
  8
0
 10
7.7
 20
-30
 11
7.7
 21
-32.7
  0
LINE
  8
0
 10
7.7
 20
-32.7
 11
5
 21
-32.7
  0
LINE
  8
0
 10
120
 20
-20
 11
140
 21
-20
  0
LINE
  8
0
 10
140
 20
-20
 11
300
 21
140
  0
LINE
  8
0
 10
300
 20
140
 11
310
 21
140
  0
LINE
  8
0
 10
310
 20
140
 11
310
 21
180
  0
LINE
  8
0
 10
310
 20
180
 11
280
 21
180
  0
LINE
  8
0
 10
280
 20
180
 11
280
 21
160
  0
LINE
  8
0
 10
280
 20
160
 11
260
 21
160
  0
LINE
  8
0
 10
260
 20
160
 11
260
 21
140
  0
LINE
  8
0
 10
260
 20
140
 11
240
 21
140
  0
LINE
  8
0
 10
240
 20
140
 11
240
 21
120
  0
LINE
  8
0
 10
240
 20
120
 11
220
 21
120
  0
LINE
  8
0
 10
220
 20
120
 11
220
 21
100
  0
LINE
  8
0
 10
220
 20
100
 11
200
 21
100
  0
LINE
  8
0
 10
200
 20
100
 11
200
 21
80
  0
LINE
  8
0
 10
200
 20
80
 11
180
 21
80
  0
LINE
  8
0
 10
180
 20
80
 11
180
 21
60
  0
LINE
  8
0
 10
180
 20
60
 11
160
 21
60
  0
LINE
  8
0
 10
160
 20
60
 11
160
 21
40
  0
LINE
  8
0
 10
160
 20
40
 11
140
 21
40
  0
LINE
  8
0
 10
140
 20
40
 11
140
 21
20
  0
LINE
  8
0
 10
140
 20
20
 11
120
 21
20
  0
LINE
  8
0
 10
120
 20
20
 11
120
 21
0
  0
LINE
  8
0
 10
120
 20
0
 11
100
 21
0
  0
LINE
  8
0
 10
100
 20
0
 11
100
 21
-40
  0
LINE
  8
0
 10
100
 20
-40
 11
120
 21
-40
  0
LINE
  8
0
 10
120
 20
-40
 11
120
 21
-20
  0
LINE
  8
0
 10
300
 20
147.3
 11
300
 21
150
  0
LINE
  8
0
 10
300
 20
150
 11
302.7
 21
150
  0
LINE
  8
0
 10
302.7
 20
150
 11
302.7
 21
147.3
  0
LINE
  8
0
 10
302.7
 20
147.3
 11
300
 21
147.3
  0
LINE
  8
0
 10
105
 20
-32.7
 11
105
 21
-30
  0
LINE
  8
0
 10
105
 20
-30
 11
107.7
 21
-30
  0
LINE
  8
0
 10
107.7
 20
-30
 11
107.7
 21
-32.7
  0
LINE
  8
0
 10
107.7
 20
-32.7
 11
105
 21
-32.7
  0
LINE
  8
0
 10
220
 20
-20
 11
240
 21
-20
  0
LINE
  8
0
 10
240
 20
-20
 11
400
 21
140
  0
LINE
  8
0
 10
400
 20
140
 11
410
 21
140
  0
LINE
  8
0
 10
410
 20
140
 11
410
 21
180
  0
LINE
  8
0
 10
410
 20
180
 11
380
 21
180
  0
LINE
  8
0
 10
380
 20
180
 11
380
 21
160
  0
LINE
  8
0
 10
380
 20
160
 11
360
 21
160
  0
LINE
  8
0
 10
360
 20
160
 11
360
 21
140
  0
LINE
  8
0
 10
360
 20
140
 11
340
 21
140
  0
LINE
  8
0
 10
340
 20
140
 11
340
 21
120
  0
LINE
  8
0
 10
340
 20
120
 11
320
 21
120
  0
LINE
  8
0
 10
320
 20
120
 11
320
 21
100
  0
LINE
  8
0
 10
320
 20
100
 11
300
 21
100
  0
LINE
  8
0
 10
300
 20
100
 11
300
 21
80
  0
LINE
  8
0
 10
300
 20
80
 11
280
 21
80
  0
LINE
  8
0
 10
280
 20
80
 11
280
 21
60
  0
LINE
  8
0
 10
280
 20
60
 11
260
 21
60
  0
LINE
  8
0
 10
260
 20
60
 11
260
 21
40
  0
LINE
  8
0
 10
260
 20
40
 11
240
 21
40
  0
LINE
  8
0
 10
240
 20
40
 11
240
 21
20
  0
LINE
  8
0
 10
240
 20
20
 11
220
 21
20
  0
LINE
  8
0
 10
220
 20
20
 11
220
 21
0
  0
LINE
  8
0
 10
220
 20
0
 11
200
 21
0
  0
LINE
  8
0
 10
200
 20
0
 11
200
 21
-40
  0
LINE
  8
0
 10
200
 20
-40
 11
220
 21
-40
  0
LINE
  8
0
 10
220
 20
-40
 11
220
 21
-20
  0
LINE
  8
0
 10
400
 20
147.3
 11
400
 21
150
  0
LINE
  8
0
 10
400
 20
150
 11
402.7
 21
150
  0
LINE
  8
0
 10
402.7
 20
150
 11
402.7
 21
147.3
  0
LINE
  8
0
 10
402.7
 20
147.3
 11
400
 21
147.3
  0
LINE
  8
0
 10
205
 20
-32.7
 11
205
 21
-30
  0
LINE
  8
0
 10
205
 20
-30
 11
207.7
 21
-30
  0
LINE
  8
0
 10
207.7
 20
-30
 11
207.7
 21
-32.7
  0
LINE
  8
0
 10
207.7
 20
-32.7
 11
205
 21
-32.7
  0
LINE
  8
0
 10
320
 20
-20
 11
340
 21
-20
  0
LINE
  8
0
 10
340
 20
-20
 11
500
 21
140
  0
LINE
  8
0
 10
500
 20
140
 11
510
 21
140
  0
LINE
  8
0
 10
510
 20
140
 11
510
 21
180
  0
LINE
  8
0
 10
510
 20
180
 11
480
 21
180
  0
LINE
  8
0
 10
480
 20
180
 11
480
 21
160
  0
LINE
  8
0
 10
480
 20
160
 11
460
 21
160
  0
LINE
  8
0
 10
460
 20
160
 11
460
 21
140
  0
LINE
  8
0
 10
460
 20
140
 11
440
 21
140
  0
LINE
  8
0
 10
440
 20
140
 11
440
 21
120
  0
LINE
  8
0
 10
440
 20
120
 11
420
 21
120
  0
LINE
  8
0
 10
420
 20
120
 11
420
 21
100
  0
LINE
  8
0
 10
420
 20
100
 11
400
 21
100
  0
LINE
  8
0
 10
400
 20
100
 11
400
 21
80
  0
LINE
  8
0
 10
400
 20
80
 11
380
 21
80
  0
LINE
  8
0
 10
380
 20
80
 11
380
 21
60
  0
LINE
  8
0
 10
380
 20
60
 11
360
 21
60
  0
LINE
  8
0
 10
360
 20
60
 11
360
 21
40
  0
LINE
  8
0
 10
360
 20
40
 11
340
 21
40
  0
LINE
  8
0
 10
340
 20
40
 11
340
 21
20
  0
LINE
  8
0
 10
340
 20
20
 11
320
 21
20
  0
LINE
  8
0
 10
320
 20
20
 11
320
 21
0
  0
LINE
  8
0
 10
320
 20
0
 11
300
 21
0
  0
LINE
  8
0
 10
300
 20
0
 11
300
 21
-40
  0
LINE
  8
0
 10
300
 20
-40
 11
320
 21
-40
  0
LINE
  8
0
 10
320
 20
-40
 11
320
 21
-20
  0
LINE
  8
0
 10
500
 20
147.3
 11
500
 21
150
  0
LINE
  8
0
 10
500
 20
150
 11
502.7
 21
150
  0
LINE
  8
0
 10
502.7
 20
150
 11
502.7
 21
147.3
  0
LINE
  8
0
 10
502.7
 20
147.3
 11
500
 21
147.3
  0
LINE
  8
0
 10
305
 20
-32.7
 11
305
 21
-30
  0
LINE
  8
0
 10
305
 20
-30
 11
307.7
 21
-30
  0
LINE
  8
0
 10
307.7
 20
-30
 11
307.7
 21
-32.7
  0
LINE
  8
0
 10
307.7
 20
-32.7
 11
305
 21
-32.7
  0
LINE
  8
0
 10
420
 20
-20
 11
440
 21
-20
  0
LINE
  8
0
 10
440
 20
-20
 11
600
 21
140
  0
LINE
  8
0
 10
600
 20
140
 11
610
 21
140
  0
LINE
  8
0
 10
610
 20
140
 11
610
 21
180
  0
LINE
  8
0
 10
610
 20
180
 11
580
 21
180
  0
LINE
  8
0
 10
580
 20
180
 11
580
 21
160
  0
LINE
  8
0
 10
580
 20
160
 11
560
 21
160
  0
LINE
  8
0
 10
560
 20
160
 11
560
 21
140
  0
LINE
  8
0
 10
560
 20
140
 11
540
 21
140
  0
LINE
  8
0
 10
540
 20
140
 11
540
 21
120
  0
LINE
  8
0
 10
540
 20
120
 11
520
 21
120
  0
LINE
  8
0
 10
520
 20
120
 11
520
 21
100
  0
LINE
  8
0
 10
520
 20
100
 11
500
 21
100
  0
LINE
  8
0
 10
500
 20
100
 11
500
 21
80
  0
LINE
  8
0
 10
500
 20
80
 11
480
 21
80
  0
LINE
  8
0
 10
480
 20
80
 11
480
 21
60
  0
LINE
  8
0
 10
480
 20
60
 11
460
 21
60
  0
LINE
  8
0
 10
460
 20
60
 11
460
 21
40
  0
LINE
  8
0
 10
460
 20
40
 11
440
 21
40
  0
LINE
  8
0
 10
440
 20
40
 11
440
 21
20
  0
LINE
  8
0
 10
440
 20
20
 11
420
 21
20
  0
LINE
  8
0
 10
420
 20
20
 11
420
 21
0
  0
LINE
  8
0
 10
420
 20
0
 11
400
 21
0
  0
LINE
  8
0
 10
400
 20
0
 11
400
 21
-40
  0
LINE
  8
0
 10
400
 20
-40
 11
420
 21
-40
  0
LINE
  8
0
 10
420
 20
-40
 11
420
 21
-20
  0
LINE
  8
0
 10
600
 20
147.3
 11
600
 21
150
  0
LINE
  8
0
 10
600
 20
150
 11
602.7
 21
150
  0
LINE
  8
0
 10
602.7
 20
150
 11
602.7
 21
147.3
  0
LINE
  8
0
 10
602.7
 20
147.3
 11
600
 21
147.3
  0
LINE
  8
0
 10
405
 20
-32.7
 11
405
 21
-30
  0
LINE
  8
0
 10
405
 20
-30
 11
407.7
 21
-30
  0
LINE
  8
0
 10
407.7
 20
-30
 11
407.7
 21
-32.7
  0
LINE
  8
0
 10
407.7
 20
-32.7
 11
405
 21
-32.7
  0
LINE
  8
0
 10
520
 20
-20
 11
540
 21
-20
  0
LINE
  8
0
 10
540
 20
-20
 11
700
 21
140
  0
LINE
  8
0
 10
700
 20
140
 11
710
 21
140
  0
LINE
  8
0
 10
710
 20
140
 11
710
 21
180
  0
LINE
  8
0
 10
710
 20
180
 11
680
 21
180
  0
LINE
  8
0
 10
680
 20
180
 11
680
 21
160
  0
LINE
  8
0
 10
680
 20
160
 11
660
 21
160
  0
LINE
  8
0
 10
660
 20
160
 11
660
 21
140
  0
LINE
  8
0
 10
660
 20
140
 11
640
 21
140
  0
LINE
  8
0
 10
640
 20
140
 11
640
 21
120
  0
LINE
  8
0
 10
640
 20
120
 11
620
 21
120
  0
LINE
  8
0
 10
620
 20
120
 11
620
 21
100
  0
LINE
  8
0
 10
620
 20
100
 11
600
 21
100
  0
LINE
  8
0
 10
600
 20
100
 11
600
 21
80
  0
LINE
  8
0
 10
600
 20
80
 11
580
 21
80
  0
LINE
  8
0
 10
580
 20
80
 11
580
 21
60
  0
LINE
  8
0
 10
580
 20
60
 11
560
 21
60
  0
LINE
  8
0
 10
560
 20
60
 11
560
 21
40
  0
LINE
  8
0
 10
560
 20
40
 11
540
 21
40
  0
LINE
  8
0
 10
540
 20
40
 11
540
 21
20
  0
LINE
  8
0
 10
540
 20
20
 11
520
 21
20
  0
LINE
  8
0
 10
520
 20
20
 11
520
 21
0
  0
LINE
  8
0
 10
520
 20
0
 11
500
 21
0
  0
LINE
  8
0
 10
500
 20
0
 11
500
 21
-40
  0
LINE
  8
0
 10
500
 20
-40
 11
520
 21
-40
  0
LINE
  8
0
 10
520
 20
-40
 11
520
 21
-20
  0
LINE
  8
0
 10
700
 20
147.3
 11
700
 21
150
  0
LINE
  8
0
 10
700
 20
150
 11
702.7
 21
150
  0
LINE
  8
0
 10
702.7
 20
150
 11
702.7
 21
147.3
  0
LINE
  8
0
 10
702.7
 20
147.3
 11
700
 21
147.3
  0
LINE
  8
0
 10
505
 20
-32.7
 11
505
 21
-30
  0
LINE
  8
0
 10
505
 20
-30
 11
507.7
 21
-30
  0
LINE
  8
0
 10
507.7
 20
-30
 11
507.7
 21
-32.7
  0
LINE
  8
0
 10
507.7
 20
-32.7
 11
505
 21
-32.7
  0
ENDSEC
  0
SECTION
  2
OBJECTS
  0
DICTIONARY
  0
ENDSEC
  0
EOF
