0
SECTION
2
HEADER
9
$INSUNITS
70
4
9
$ACADVER
1
AC1014
9
$HANDSEED
5
FFFF
0
ENDSEC
0
SECTION
2
TABLES
0
TABLE
2
VPORT
5
8
100
AcDbSymbolTable
0
ENDTAB
0
TABLE
2
LTYPE
5
5
100
AcDbSymbolTable
0
LTYPE
5
14
100
AcDbSymbolTableRecord
100
AcDbLinetypeTableRecord
2
BYBLOCK
70
0
0
LTYPE
5
15
100
AcDbSymbolTableRecord
100
AcDbLinetypeTableRecord
2
BYLAYER
70
0
0
ENDTAB
0
TABLE
2
LAYER
5
2
100
AcDbSymbolTable
70
2
0
LAYER
5
50
100
AcDbSymbolTableRecord
100
AcDbLayerTableRecord
2
0
70
0
6
CONTINUOUS
0
ENDTAB
0
TABLE
2
STYLE
5
3
100
AcDbSymbolTable
70
1
0
STYLE
5
11
100
AcDbSymbolTableRecord
100
AcDbTextStyleTableRecord
2
STANDARD
70
0
0
ENDTAB
0
TABLE
2
VIEW
5
6
100
AcDbSymbolTable
70
0
0
ENDTAB
0
TABLE
2
UCS
5
7
100
AcDbSymbolTable
70
0
0
ENDTAB
0
TABLE
2
APPID
5
9
100
AcDbSymbolTable
70
2
0
APPID
5
12
100
AcDbSymbolTableRecord
100
AcDbRegAppTableRecord
2
ACAD
70
0
0
ENDTAB
0
TABLE
2
DIMSTYLE
5
A
100
AcDbSymbolTable
70
1
0
ENDTAB
0
TABLE
2
BLOCK_RECORD
5
1
100
AcDbSymbolTable
70
1
0
BLOCK_RECORD
5
1F
100
AcDbSymbolTableRecord
100
AcDbBlockTableRecord
2
*MODEL_SPACE
0
BLOCK_RECORD
5
1B
100
AcDbSymbolTableRecord
100
AcDbBlockTableRecord
2
*PAPER_SPACE
0
ENDTAB
0
ENDSEC
0
SECTION
2
BLOCKS
0
BLOCK
5
20
100
AcDbEntity
100
AcDbBlockBegin
2
*MODEL_SPACE
0
ENDBLK
5
21
100
AcDbEntity
100
AcDbBlockEnd
0
BLOCK
5
1C
100
AcDbEntity
100
AcDbBlockBegin
2
*PAPER_SPACE
0
ENDBLK
5
1D
100
AcDbEntity
100
AcDbBlockEnd
0
ENDSEC
0
SECTION
2
ENTITIES
0
LWPOLYLINE
5
100
100
AcDbEntity
8
0
100
AcDbPolyline
90
4
70
1
43
0.0
10
2440
20
0
10
0
20
0
10
0
20
-1220
10
2440
20
-1220
0
LINE
5
101
100
AcDbEntity
8
0
100
AcDbLine
10
0
20
-1220
30
0
11
50
21
-1220
31
0
0
LINE
5
102
100
AcDbEntity
8
0
100
AcDbLine
10
0
20
-1170
30
0
11
0
21
-1220
31
0
0
LWPOLYLINE
5
103
100
AcDbEntity
8
0
100
AcDbPolyline
90
4
70
1
43
0.0
10
2389.604802011308
20
-1170
10
50
20
-1170
10
50
20
-49.999998632163027
10
2389.604802011308
20
-49.999998632163027
0
LINE
5
104
100
AcDbEntity
8
0
100
AcDbLine
10
50
20
-49.999998632163027
30
0
11
300
21
-49.999998632163035
31
0
0
LINE
5
105
100
AcDbEntity
8
0
100
AcDbLine
10
121.77013896831821
20
-331.06898268109518
30
0
11
147.26212491336312
21
-331.06898268109518
31
0
0
LINE
5
106
100
AcDbEntity
8
0
100
AcDbLine
10
121.77013896831821
20
-331.06898268109518
30
0
11
58.945477583744861
21
-58.94547758374415
31
0
0
LINE
5
107
100
AcDbEntity
8
0
100
AcDbLine
10
209.59196136072904
20
-223.11053912679881
30
0
11
147.26212491336312
21
-331.06898268109518
31
0
0
LINE
5
108
100
AcDbEntity
8
0
100
AcDbLine
10
2066.4879722920291
20
-115.15209557250246
30
0
11
1796.1025954716317
21
-115.15209557250246
31
0
0
LINE
5
109
100
AcDbEntity
8
0
100
AcDbLine
10
2218.12645514512
20
-79.923198500239351
30
0
11
2213.252877164959
21
-58.94547758374415
31
0
0
LINE
5
110
100
AcDbEntity
8
0
100
AcDbLine
10
1695.8515579513078
20
-201.25894553809991
30
0
11
1796.1025954716317
21
-115.15209557250246
31
0
0
ARC
5
111
100
AcDbEntity
8
0
100
AcDbCircle
10
580.00399400891388
20
-320.81865478252382
30
-8.0660282448502585
40
49.999999999999709
100
AcDbArc
50
218.51104137518851
51
321.48895862481157
0
ARC
5
112
100
AcDbEntity
8
0
100
AcDbCircle
10
580.00399400891388
20
-320.81865478252382
30
-8.0660282448502585
40
49.999999999999929
100
AcDbArc
50
98.511041375189052
51
201.48895862481115
0
LINE
5
113
100
AcDbEntity
8
0
100
AcDbLine
10
606.31122696052364
20
-344.55192679277627
30
-8.0660282448502585
11
613.71122696052373
21
-331.73475081676668
31
-8.0660282448502585
0
LINE
5
114
100
AcDbEntity
8
0
100
AcDbLine
10
540.87958508129429
20
-351.95192679277625
30
-8.0660282448502585
11
546.46544893570342
21
-348.72692679277657
31
-8.0660282448502585
0
LINE
5
115
100
AcDbEntity
8
0
100
AcDbLine
10
626.52840293653367
20
-339.13475081676677
30
-8.0660282448502585
11
620.94253908212386
21
-335.90975081676663
31
-8.0660282448502585
0
LINE
5
116
100
AcDbEntity
8
0
100
AcDbLine
10
587.40399400891397
20
-286.16928673802806
30
-8.0660282448502585
11
572.60399400891413
21
-286.16928673802795
31
-8.0660282448502585
0
LINE
5
117
100
AcDbEntity
8
0
100
AcDbLine
10
546.2967610573038
20
-331.73475081676668
30
-8.0660282448502585
11
553.69676105730355
21
-344.55192679277627
31
-8.0660282448502585
0
LINE
5
118
100
AcDbEntity
8
0
100
AcDbLine
10
533.4795850812942
20
-339.13475081676665
30
-8.0660282448502585
11
539.06544893570367
21
-335.90975081676669
31
-8.0660282448502585
0
ARC
5
119
100
AcDbEntity
8
0
100
AcDbCircle
10
580.00399400891388
20
-320.81865478252382
30
-8.0660282448502585
40
49.999999999999936
100
AcDbArc
50
-21.488958624811204
51
81.488958624811474
0
LINE
5
120
100
AcDbEntity
8
0
100
AcDbLine
10
572.60399400891356
20
-271.36928673802805
30
-8.0660282448502585
11
572.60399400891367
21
-277.81928673802821
31
-8.0660282448502585
0
LINE
5
121
100
AcDbEntity
8
0
100
AcDbLine
10
587.40399400891374
20
-271.36928673802805
30
-8.0660282448502585
11
587.40399400891386
21
-277.81928673802804
31
-8.0660282448502585
0
LINE
5
122
100
AcDbEntity
8
0
100
AcDbLine
10
619.12840293653358
20
-351.95192679277625
30
-8.0660282448502585
11
613.54253908212377
21
-348.72692679277623
31
-8.0660282448502585
0
LINE
5
123
100
AcDbEntity
8
0
100
AcDbLine
10
1655.5171674233802
20
-204.00771962656759
30
0
11
1656.9767696576428
21
-210.2903990961677
31
0
0
LINE
5
124
100
AcDbEntity
8
0
100
AcDbLine
10
1669.9332381443232
20
-200.65855480996487
30
0
11
1671.392840378586
21
-206.94123427956509
31
0
0
LINE
5
125
100
AcDbEntity
8
0
100
AcDbLine
10
1632.518052084921
20
-215.9726878376328
30
0
11
1656.9767696576428
21
-210.2903990961677
31
0
0
LINE
5
126
100
AcDbEntity
8
0
100
AcDbLine
10
1671.392840378586
20
-206.94123427956509
30
0
11
1695.8515579513078
21
-201.25894553809991
31
0
0
LINE
5
127
100
AcDbEntity
8
0
100
AcDbLine
10
1653.62760484104
20
-195.87432837522468
30
0
11
1668.043675561983
21
-192.5251635586221
31
0
0
LINE
5
128
100
AcDbEntity
8
0
100
AcDbLine
10
2183.8171897194475
20
-87.893982417122501
30
0
11
2182.3575874851867
21
-81.611302947521835
31
0
0
LINE
5
129
100
AcDbEntity
8
0
100
AcDbLine
10
2176.4013292771733
20
-74.42269298734945
30
0
11
2166.0519541819017
21
-76.827076512782043
31
0
0
LINE
5
130
100
AcDbEntity
8
0
100
AcDbLine
10
2167.9415167642414
20
-84.9604677641249
30
0
11
2169.401118998504
21
-91.243147233725082
31
0
0
LINE
5
131
100
AcDbEntity
8
0
100
AcDbLine
10
2169.401118998504
20
-91.243147233725082
30
0
11
2154.985048277561
21
-94.592312050327649
31
0
0
LINE
5
132
100
AcDbEntity
8
0
100
AcDbLine
10
2154.985048277561
20
-94.592312050327649
30
0
11
2153.5254460432984
21
-88.309632580727538
31
0
0
LINE
5
133
100
AcDbEntity
8
0
100
AcDbLine
10
2151.6358834609587
20
-80.176241329384638
30
0
11
2137.2198127400152
21
-83.525406145987205
31
0
0
LINE
5
134
100
AcDbEntity
8
0
100
AcDbLine
10
2139.1093753223554
20
-91.658797397330119
30
0
11
2140.5689775566179
21
-97.941476866930245
31
0
0
LINE
5
135
100
AcDbEntity
8
0
100
AcDbLine
10
2140.5689775566179
20
-97.941476866930245
30
0
11
2126.1529068356749
21
-101.29064168353284
31
0
0
LINE
5
136
100
AcDbEntity
8
0
100
AcDbLine
10
2126.1529068356749
20
-101.29064168353284
30
0
11
2124.6933046014119
21
-95.007962213932714
31
0
0
LINE
5
137
100
AcDbEntity
8
0
100
AcDbLine
10
2122.8037420190722
20
-86.8745709625898
30
0
11
2108.3876712981291
21
-90.223735779192381
31
0
0
LINE
5
138
100
AcDbEntity
8
0
100
AcDbLine
10
2110.2772338804689
20
-98.357127030535281
30
0
11
2111.7368361147314
21
-104.63980650013551
31
0
0
LINE
5
139
100
AcDbEntity
8
0
100
AcDbLine
10
2066.4879722920291
20
-115.15209557250246
30
0
11
2111.7368361147314
21
-104.63980650013551
31
0
0
LINE
5
140
100
AcDbEntity
8
0
100
AcDbLine
10
2183.8171897194475
20
-87.893982417122501
30
0
11
2218.12645514512
21
-79.923198500239351
31
0
0
LINE
5
141
100
AcDbEntity
8
0
100
AcDbLine
10
237.19763580252646
20
-222.97206025555795
30
0
11
235.74670150200853
21
-216.68737333769317
31
0
0
LINE
5
142
100
AcDbEntity
8
0
100
AcDbLine
10
233.86836019823727
20
-208.55138329673647
30
0
11
248.28903715705874
21
-205.22210769244725
31
0
0
LINE
5
143
100
AcDbEntity
8
0
100
AcDbLine
10
250.16737846083001
20
-213.35809773340398
30
0
11
251.61831276134794
21
-219.64278465126876
31
0
0
LINE
5
144
100
AcDbEntity
8
0
100
AcDbLine
10
251.61831276134794
20
-219.64278465126876
30
0
11
252.3693660879043
21
-222.89595401554848
31
0
0
LINE
5
145
100
AcDbEntity
8
0
100
AcDbLine
10
237.19763580252646
20
-222.97206025555795
30
0
11
209.59196136072904
21
-223.11053912679881
31
0
0
LINE
5
146
100
AcDbEntity
8
0
100
AcDbLine
10
302.36936608790427
20
-222.64513806187045
30
0
11
302.25316068316147
21
-199.47966492533797
31
0
0
LINE
5
147
100
AcDbEntity
8
0
100
AcDbLine
10
728.1463354947648
20
-220.50930492915225
30
0
11
726.69540119424687
21
-214.22461801128748
31
0
0
LINE
5
148
100
AcDbEntity
8
0
100
AcDbLine
10
724.81705989047555
20
-206.08862797033078
30
0
11
739.23773684929699
21
-202.75935236604147
31
0
0
LINE
5
149
100
AcDbEntity
8
0
100
AcDbLine
10
741.1160781530682
20
-210.8953424069982
30
0
11
742.56701245358613
21
-217.18002932486297
31
0
0
LINE
5
150
100
AcDbEntity
8
0
100
AcDbLine
10
742.56701245358613
20
-217.18002932486297
30
0
11
743.31806578014243
21
-220.43319868914281
31
0
0
LINE
5
151
100
AcDbEntity
8
0
100
AcDbLine
10
399.96556807202967
20
-222.15556437235048
30
0
11
398.51463377151168
21
-215.87087745448571
31
0
0
LINE
5
152
100
AcDbEntity
8
0
100
AcDbLine
10
396.63629246774042
20
-207.73488741352901
30
0
11
411.05696942656198
21
-204.40561180923979
31
0
0
LINE
5
153
100
AcDbEntity
8
0
100
AcDbLine
10
412.93531073033319
20
-212.54160185019651
30
0
11
415.13729835740753
21
-222.07945813234105
31
0
0
LINE
5
154
100
AcDbEntity
8
0
100
AcDbLine
10
399.96556807202967
20
-222.15556437235048
30
0
11
252.3693660879043
21
-222.89595401554848
31
0
0
LINE
5
155
100
AcDbEntity
8
0
100
AcDbLine
10
728.1463354947648
20
-220.50930492915225
30
0
11
415.13729835740753
21
-222.07945813234105
31
0
0
LINE
5
156
100
AcDbEntity
8
0
100
AcDbLine
10
1050.0439676537776
20
-218.89456369721921
30
0
11
1048.5930333532597
21
-212.60987677935444
31
0
0
LINE
5
157
100
AcDbEntity
8
0
100
AcDbLine
10
1046.7146920494883
20
-204.47388673839771
30
0
11
1061.1353690083097
21
-201.14461113410863
31
0
0
LINE
5
158
100
AcDbEntity
8
0
100
AcDbLine
10
1063.013710312081
20
-209.28060117506533
30
0
11
1065.2156979391552
21
-218.81845745720972
31
0
0
LINE
5
159
100
AcDbEntity
8
0
100
AcDbLine
10
1632.518052084921
20
-215.9726878376328
30
0
11
1065.2156979391552
21
-218.81845745720972
31
0
0
LINE
5
160
100
AcDbEntity
8
0
100
AcDbLine
10
1050.0439676537776
20
-218.89456369721921
30
0
11
743.31806578014243
21
-220.43319868914281
31
0
0
LINE
5
161
100
AcDbEntity
8
0
100
AcDbLine
10
214.5184161599193
20
-58.94547758374415
30
0
11
215.96935046043725
21
-65.230164501608925
31
0
0
LINE
5
162
100
AcDbEntity
8
0
100
AcDbLine
10
217.84769176420852
20
-73.366154542565624
30
0
11
203.42701480538705
21
-76.695430146854846
31
0
0
LINE
5
163
100
AcDbEntity
8
0
100
AcDbLine
10
201.54867350161572
20
-68.559440105898119
30
0
11
199.32911536457709
21
-58.94547758374415
31
0
0
LINE
5
164
100
AcDbEntity
8
0
100
AcDbLine
10
377.47485135704005
20
-58.94547758374415
30
0
11
378.92578565755798
21
-65.230164501608911
31
0
0
LINE
5
165
100
AcDbEntity
8
0
100
AcDbLine
10
380.80412696132925
20
-73.366154542565624
30
0
11
366.3834500025078
21
-76.695430146854846
31
0
0
LINE
5
166
100
AcDbEntity
8
0
100
AcDbLine
10
364.50510869873654
20
-68.559440105898105
30
0
11
362.28555056169796
21
-58.94547758374415
31
0
0
LINE
5
167
100
AcDbEntity
8
0
100
AcDbLine
10
706.03568771955042
20
-58.94547758374415
30
0
11
707.48662202006824
21
-65.230164501608925
31
0
0
LINE
5
168
100
AcDbEntity
8
0
100
AcDbLine
10
709.36496332383945
20
-73.366154542565667
30
0
11
694.94428636501777
21
-76.695430146854662
31
0
0
LINE
5
169
100
AcDbEntity
8
0
100
AcDbLine
10
693.065945061246
20
-68.559440105898105
30
0
11
690.84638692420663
21
-58.94547758374415
31
0
0
LINE
5
170
100
AcDbEntity
8
0
100
AcDbLine
10
1028.3061122659158
20
-58.94547758374415
30
0
11
1029.7570465664337
21
-65.230164501608897
31
0
0
LINE
5
171
100
AcDbEntity
8
0
100
AcDbLine
10
1031.635387870205
20
-73.366154542565624
30
0
11
1017.2147109113836
21
-76.695430146854761
31
0
0
LINE
5
172
100
AcDbEntity
8
0
100
AcDbLine
10
1015.3363696076123
20
-68.559440105898076
30
0
11
1013.1168114705736
21
-58.94547758374415
31
0
0
LINE
5
173
100
AcDbEntity
8
0
100
AcDbLine
10
1637.0102273263319
20
-58.94547758374415
30
0
11
1638.4698295605947
21
-65.228157053344376
31
0
0
LINE
5
174
100
AcDbEntity
8
0
100
AcDbLine
10
1640.3593921429344
20
-73.361548304687204
30
0
11
1625.9433214219914
21
-76.710713121289771
31
0
0
LINE
5
175
100
AcDbEntity
8
0
100
AcDbLine
10
1624.0537588396514
20
-68.577321869946942
30
0
11
1621.8160732298352
21
-58.94547758374415
31
0
0
LINE
5
176
100
AcDbEntity
8
0
100
AcDbLine
10
2213.252877164959
20
-58.94547758374415
30
0
11
1637.0102273263319
21
-58.94547758374415
31
0
0
LINE
5
177
100
AcDbEntity
8
0
100
AcDbLine
10
1621.8160732298352
20
-58.94547758374415
30
0
11
1028.3061122659158
21
-58.94547758374415
31
0
0
LINE
5
178
100
AcDbEntity
8
0
100
AcDbLine
10
1013.1168114705736
20
-58.94547758374415
30
0
11
706.03568771955042
21
-58.94547758374415
31
0
0
LINE
5
179
100
AcDbEntity
8
0
100
AcDbLine
10
690.84638692420663
20
-58.94547758374415
30
0
11
377.47485135704005
21
-58.94547758374415
31
0
0
LINE
5
180
100
AcDbEntity
8
0
100
AcDbLine
10
362.28555056169796
20
-58.94547758374415
30
0
11
214.5184161599193
21
-58.94547758374415
31
0
0
LINE
5
181
100
AcDbEntity
8
0
100
AcDbLine
10
199.32911536457709
20
-58.94547758374415
30
0
11
58.945477583744861
21
-58.94547758374415
31
0
0
LINE
5
182
100
AcDbEntity
8
0
100
AcDbLine
10
168.79715678351403
20
-583.84245437788672
30
0
11
165.57215678351389
21
-578.25659052347703
31
0
0
LINE
5
183
100
AcDbEntity
8
0
100
AcDbLine
10
155.9799808075044
20
-591.24245437788682
30
0
11
152.75498080750438
21
-585.65659052347723
31
0
0
LINE
5
184
100
AcDbEntity
8
0
100
AcDbLine
10
148.5799808075044
20
-578.42527840187711
30
0
11
161.39715678351382
21
-571.02527840187702
31
0
0
LINE
5
185
100
AcDbEntity
8
0
100
AcDbLine
10
424.85055779343844
20
-731.67495437788614
30
0
11
431.30055779343832
21
-731.67495437788614
31
0
0
LINE
5
186
100
AcDbEntity
8
0
100
AcDbLine
10
424.85055779343827
20
-746.47495437788621
30
0
11
431.30055779343843
21
-746.47495437788621
31
0
0
LINE
5
187
100
AcDbEntity
8
0
100
AcDbLine
10
439.65055779343834
20
-746.47495437788621
30
0
11
439.65055779343828
21
-731.67495437788625
31
0
0
LINE
5
188
100
AcDbEntity
8
0
100
AcDbLine
10
168.79715678351332
20
-894.30745437788573
30
0
11
165.57215678351341
21
-899.89331823229531
31
0
0
LINE
5
189
100
AcDbEntity
8
0
100
AcDbLine
10
155.97998080750358
20
-886.90745437788564
30
0
11
152.75498080750373
21
-892.49331823229511
31
0
0
LINE
5
190
100
AcDbEntity
8
0
100
AcDbLine
10
161.39715678351337
20
-907.12463035389544
30
0
11
148.57998080750377
21
-899.72463035389535
31
0
0
LINE
5
191
100
AcDbEntity
8
0
100
AcDbLine
10
155.97998080750358
20
-886.90745437788564
30
0
11
155.9799808075044
21
-591.24245437788682
31
0
0
LINE
5
192
100
AcDbEntity
8
0
100
AcDbLine
10
168.79715678351403
20
-583.84245437788672
30
0
11
424.85055779343844
21
-731.67495437788614
31
0
0
LINE
5
193
100
AcDbEntity
8
0
100
AcDbLine
10
424.85055779343827
20
-746.47495437788621
30
0
11
168.79715678351332
21
-894.30745437788573
31
0
0
LWPOLYLINE
5
194
100
AcDbEntity
8
0
100
AcDbPolyline
90
12
70
1
43
0.0
10
151.39715678351334
20
-553.70477032618851
10
178.71766485920227
20
-561.0252784018769
10
439.65055779343868
20
-711.67495437788625
10
459.65055779343845
20
-731.67495437788625
10
459.65055779343828
20
-746.47495437788643
10
439.65055779343794
20
-766.47495437788632
10
178.71766485920193
20
-917.12463035389555
10
151.39715678351359
20
-924.44513842958429
10
138.5799808075038
20
-917.0451384295842
10
131.25947273181498
20
-889.72463035389535
10
131.25947273181589
20
-588.42527840187722
10
138.57998080750437
20
-561.10477032618837
0
LWPOLYLINE
5
195
100
AcDbEntity
8
0
100
AcDbPolyline
90
18
70
1
43
0.0
10
143.79715678351351
20
-540.54118418866506
10
140.57215678351349
20
-534.95532033425536
42
0.99999999999999989
10
136.39715678351342
20
-527.72400821265535
10
123.57998080750455
20
-535.1240082126551
42
0.99999999999999989
10
127.14234025867034
20
-541.29419577689748
10
130.97998080750449
20
-547.94118418866492
10
130.97998080750355
20
-930.20872456710754
10
127.7549808075035
20
-935.79458842151689
42
0.99999999999999989
10
123.57998080750335
20
-943.02590054311713
10
136.39715678351359
20
-950.42590054311756
42
0.99999999999999989
10
140.57215678351372
20
-943.19458842151744
10
143.79715678351374
20
-937.60872456710797
10
474.85055779343838
20
-746.47495437788621
10
481.30055779343843
20
-746.47495437788621
42
0.99999999999999989
10
489.65055779343834
20
-746.47495437788621
10
489.65055779343828
20
-731.67495437788693
42
0.99999999999999989
10
481.30055779343832
20
-731.67495437788671
10
474.85055779343833
20
-731.67495437788659
0
LWPOLYLINE
5
196
100
AcDbEntity
8
0
100
AcDbPolyline
90
12
70
1
43
0.0
10
113.57998080750306
20
-960.34640861880564
10
106.2594727318147
20
-933.02590054311679
10
106.25947273181595
20
-545.12400821265544
10
113.57998080750463
20
-517.80350013696636
10
126.3971567835133
20
-510.40350013696667
10
153.71766485920205
20
-517.72400821265501
10
489.65055779343822
20
-711.67495437788693
10
509.65055779343828
20
-731.67495437788727
10
509.65055779343834
20
-746.47495437788621
10
489.65055779343845
20
-766.47495437788621
10
153.71766485920227
20
-960.42590054311768
10
126.3971567835134
20
-967.7464086188063
0
ARC
5
197
100
AcDbEntity
8
0
100
AcDbCircle
10
2166.9967354730711
20
-80.893772138453542
30
0
40
4.174999999999998
100
AcDbArc
50
103.07903580218117
51
283.0790358021938
0
LINE
5
198
100
AcDbEntity
8
0
100
AcDbLine
10
2180.4680249028447
20
-73.477911696179504
30
0
11
2176.4013292771733
21
-74.42269298734945
31
0
0
ARC
5
199
100
AcDbEntity
8
0
100
AcDbCircle
10
2181.4128061940146
20
-77.544607321850961
30
0
40
4.1749999999999545
100
AcDbArc
50
-76.920964197780421
51
103.07903580218739
0
ARC
5
200
100
AcDbEntity
8
0
100
AcDbCircle
10
2152.5806647521285
20
-84.242936955056095
30
0
40
4.1749999999999936
100
AcDbArc
50
-76.92096419781258
51
103.07903580218739
0
ARC
5
201
100
AcDbEntity
8
0
100
AcDbCircle
10
2138.1645940311855
20
-87.592101771658676
30
0
40
4.1750000000000274
100
AcDbArc
50
103.07903580219343
51
283.07903580218743
0
ARC
5
202
100
AcDbEntity
8
0
100
AcDbCircle
10
2123.7485233102425
20
-90.9412665882612
30
0
40
4.174999999999998
100
AcDbArc
50
-76.92096419781889
51
103.07903580219364
0
ARC
5
203
100
AcDbEntity
8
0
100
AcDbCircle
10
2109.332452589299
20
-94.290431404863824
30
0
40
4.1749999999999936
100
AcDbArc
50
103.07903580218742
51
283.07903580218738
0
ARC
5
204
100
AcDbEntity
8
0
100
AcDbCircle
10
617.32688302132385
20
-333.82225081676665
30
-8.0660282448502585
40
4.1750000000000025
100
AcDbArc
50
-29.999999999999915
51
150.00000000000091
0
ARC
5
205
100
AcDbEntity
8
0
100
AcDbCircle
10
609.92688302132376
20
-346.63942679277631
30
-8.0660282448502585
40
4.175000000000038
100
AcDbArc
50
150.00000000000023
51
330.00000000000074
0
ARC
5
206
100
AcDbEntity
8
0
100
AcDbCircle
10
542.68110499650368
20
-333.82225081676665
30
-8.0660282448502585
40
4.1750000000000025
100
AcDbArc
50
29.999999999999115
51
210.00000000000054
0
ARC
5
207
100
AcDbEntity
8
0
100
AcDbCircle
10
550.08110499650354
20
-346.63942679277625
30
-8.0660282448502585
40
4.1750000000001801
100
AcDbArc
50
-149.99999999999685
51
29.999999999993513
0
ARC
5
208
100
AcDbEntity
8
0
100
AcDbCircle
10
572.60399400891379
20
-281.99428673802805
30
-8.0660282448502585
40
4.1749999999998622
100
AcDbArc
50
90.000000000001563
51
270.00000000000472
0
ARC
5
209
100
AcDbEntity
8
0
100
AcDbCircle
10
587.40399400891397
20
-281.99428673802805
30
-8.0660282448502585
40
4.1750000000000043
100
AcDbArc
50
-90
51
90.000000000001563
0
LINE
5
210
100
AcDbEntity
8
0
100
AcDbLine
10
489.65055779343828
20
-731.67495437788693
30
0
11
487.48031165777178
21
-735.24155734298188
31
0
0
ARC
5
211
100
AcDbEntity
8
0
100
AcDbCircle
10
163.48465678351388
20
-574.64093446267702
30
0
40
4.1749999999999758
100
AcDbArc
50
-59.999999999999723
51
120.00000000000094
0
ARC
5
212
100
AcDbEntity
8
0
100
AcDbCircle
10
150.66748080750446
20
-582.04093446267711
30
0
40
4.1749999999999936
100
AcDbArc
50
120.00000000000094
51
299.99999999999847
0
ARC
5
213
100
AcDbEntity
8
0
100
AcDbCircle
10
435.47555779343838
20
-746.47495437788621
30
0
40
4.1749999999999687
100
AcDbArc
50
-180
51
0
0
ARC
5
214
100
AcDbEntity
8
0
100
AcDbCircle
10
435.47555779343833
20
-731.67495437788625
30
0
40
4.1749999999999687
100
AcDbArc
50
0
51
180
0
ARC
5
215
100
AcDbEntity
8
0
100
AcDbCircle
10
150.66748080750384
20
-896.10897429309534
30
0
40
4.1750000000001073
100
AcDbArc
50
60.000000000002665
51
239.99999999999909
0
ARC
5
216
100
AcDbEntity
8
0
100
AcDbCircle
10
163.48465678351343
20
-903.50897429309543
30
0
40
4.1750000000000558
100
AcDbArc
50
-120.00000000000094
51
60.000000000000874
0
ARC
5
217
100
AcDbEntity
8
0
100
AcDbCircle
10
1668.9884568531531
20
-196.59185918429353
30
0
40
4.1749999999999705
100
AcDbArc
50
-76.920964197809226
51
103.07903580219052
0
ARC
5
218
100
AcDbEntity
8
0
100
AcDbCircle
10
1654.5723861322103
20
-199.94102400089611
30
0
40
4.1750000000000398
100
AcDbArc
50
103.07903580219356
51
283.07903580218726
0
ARC
5
219
100
AcDbEntity
8
0
100
AcDbCircle
10
1624.9985401308213
20
-72.644017495618343
30
0
40
4.1749999999999501
100
AcDbArc
50
103.07903580218755
51
283.07903580219056
0
ARC
5
220
100
AcDbEntity
8
0
100
AcDbCircle
10
1639.4146108517646
20
-69.294852679015776
30
0
40
4.1749999999999758
100
AcDbArc
50
-76.920964197812523
51
103.07903580218755
0
ARC
5
221
100
AcDbEntity
8
0
100
AcDbCircle
10
1062.0745396601953
20
-205.21260615458698
30
0
40
4.1749999999999989
100
AcDbArc
50
-76.999999999999645
51
103.00000000000036
0
ARC
5
222
100
AcDbEntity
8
0
100
AcDbCircle
10
1047.6538627013738
20
-208.54188175887612
30
0
40
4.1750000000000016
100
AcDbArc
50
102.99999999999713
51
283.00000000000347
0
ARC
5
223
100
AcDbEntity
8
0
100
AcDbCircle
10
740.17690750118265
20
-206.82734738651985
30
0
40
4.1749999999999989
100
AcDbArc
50
-77.000000000001165
51
103.00000000000027
0
ARC
5
224
100
AcDbEntity
8
0
100
AcDbCircle
10
725.75623054236132
20
-210.15662299080907
30
0
40
4.1749999999999963
100
AcDbArc
50
103.00000000000203
51
282.99999999999869
0
ARC
5
225
100
AcDbEntity
8
0
100
AcDbCircle
10
411.99614007844758
20
-208.47360682971814
30
0
40
4.1749999999999989
100
AcDbArc
50
-77.000000000000497
51
102.9999999999996
0
ARC
5
226
100
AcDbEntity
8
0
100
AcDbCircle
10
397.57546311962608
20
-211.80288243400736
30
0
40
4.1749999999999989
100
AcDbArc
50
103.00000000000036
51
282.9999999999996
0
ARC
5
227
100
AcDbEntity
8
0
100
AcDbCircle
10
249.22820780894438
20
-209.2901027129256
30
0
40
4.1749999999999989
100
AcDbArc
50
-77.000000000000099
51
102.99999999999997
0
ARC
5
228
100
AcDbEntity
8
0
100
AcDbCircle
10
234.80753085012287
20
-212.61937831721482
30
0
40
4.1749999999999989
100
AcDbArc
50
102.9999999999996
51
283.0000000000004
0
ARC
5
229
100
AcDbEntity
8
0
100
AcDbCircle
10
202.48784415350133
20
-72.627435126376497
30
0
40
4.1750000000000078
100
AcDbArc
50
102.9999999999995
51
283.00000000000114
0
ARC
5
230
100
AcDbEntity
8
0
100
AcDbCircle
10
216.90852111232289
20
-69.298159522087275
30
0
40
4.1749999999999989
100
AcDbArc
50
-77.000000000000043
51
102.99999999999997
0
ARC
5
231
100
AcDbEntity
8
0
100
AcDbCircle
10
365.44427935062208
20
-72.627435126376497
30
0
40
4.1750000000000087
100
AcDbArc
50
102.99999999999869
51
283.00000000000114
0
ARC
5
232
100
AcDbEntity
8
0
100
AcDbCircle
10
379.86495630944364
20
-69.298159522087261
30
0
40
4.1749999999999989
100
AcDbArc
50
-77.000000000000455
51
103.00000000000036
0
ARC
5
233
100
AcDbEntity
8
0
100
AcDbCircle
10
694.00511571313234
20
-72.627435126376284
30
0
40
4.1749999999999856
100
AcDbArc
50
103.00000000001
51
282.99999999999721
0
ARC
5
234
100
AcDbEntity
8
0
100
AcDbCircle
10
708.4257926719539
20
-69.298159522087275
30
0
40
4.1750000000000016
100
AcDbArc
50
-77.000000000001307
51
103.00000000000036
0
ARC
5
235
100
AcDbEntity
8
0
100
AcDbCircle
10
1030.6962172183194
20
-69.298159522087261
30
0
40
4.1750000000000158
100
AcDbArc
50
-76.999999999999687
51
103.0000000000003
0
ARC
5
236
100
AcDbEntity
8
0
100
AcDbCircle
10
1016.275540259498
20
-72.627435126376383
30
0
40
4.1749999999999785
100
AcDbArc
50
103.000000000002
51
282.99999999999875
0
ENDSEC
0
SECTION
2
OBJECTS
0
DICTIONARY
5
C
100
AcDbDictionary
3
ACAD_GROUP
350
D
3
ACAD_MLINESTYLE
350
17
0
DICTIONARY
5
D
100
AcDbDictionary
0
DICTIONARY
5
1A
330
C
100
AcDbDictionary
0
DICTIONARY
5
17
100
AcDbDictionary
0
ENDSEC
0
EOF
