0
SECTION
2
HEADER
9
$INSUNITS
70
4
9
$ACADVER
1
AC1014
9
$HANDSEED
5
FFFF
0
ENDSEC
0
SECTION
2
TABLES
0
TABLE
2
VPORT
5
8
100
AcDbSymbolTable
0
ENDTAB
0
TABLE
2
LTYPE
5
5
100
AcDbSymbolTable
0
LTYPE
5
14
100
AcDbSymbolTableRecord
100
AcDbLinetypeTableRecord
2
BYBLOCK
70
0
0
LTYPE
5
15
100
AcDbSymbolTableRecord
100
AcDbLinetypeTableRecord
2
BYLAYER
70
0
0
ENDTAB
0
TABLE
2
LAYER
5
2
100
AcDbSymbolTable
70
2
0
LAYER
5
50
100
AcDbSymbolTableRecord
100
AcDbLayerTableRecord
2
0
70
0
6
CONTINUOUS
0
ENDTAB
0
TABLE
2
STYLE
5
3
100
AcDbSymbolTable
70
1
0
STYLE
5
11
100
AcDbSymbolTableRecord
100
AcDbTextStyleTableRecord
2
STANDARD
70
0
0
ENDTAB
0
TABLE
2
VIEW
5
6
100
AcDbSymbolTable
70
0
0
ENDTAB
0
TABLE
2
UCS
5
7
100
AcDbSymbolTable
70
0
0
ENDTAB
0
TABLE
2
APPID
5
9
100
AcDbSymbolTable
70
2
0
APPID
5
12
100
AcDbSymbolTableRecord
100
AcDbRegAppTableRecord
2
ACAD
70
0
0
ENDTAB
0
TABLE
2
DIMSTYLE
5
A
100
AcDbSymbolTable
70
1
0
ENDTAB
0
TABLE
2
BLOCK_RECORD
5
1
100
AcDbSymbolTable
70
1
0
BLOCK_RECORD
5
1F
100
AcDbSymbolTableRecord
100
AcDbBlockTableRecord
2
*MODEL_SPACE
0
BLOCK_RECORD
5
1B
100
AcDbSymbolTableRecord
100
AcDbBlockTableRecord
2
*PAPER_SPACE
0
ENDTAB
0
ENDSEC
0
SECTION
2
BLOCKS
0
BLOCK
5
20
100
AcDbEntity
100
AcDbBlockBegin
2
*MODEL_SPACE
0
ENDBLK
5
21
100
AcDbEntity
100
AcDbBlockEnd
0
BLOCK
5
1C
100
AcDbEntity
100
AcDbBlockBegin
2
*PAPER_SPACE
0
ENDBLK
5
1D
100
AcDbEntity
100
AcDbBlockEnd
0
ENDSEC
0
SECTION
2
ENTITIES
0
LINE
5
100
100
AcDbEntity
8
0
100
AcDbLine
10
0
20
0
30
0
11
300
21
0
31
0
0
LINE
5
101
100
AcDbEntity
8
0
100
AcDbLine
10
0
20
0
30
0
11
150.00000000000003
21
259.80762113533154
31
0
0
LINE
5
102
100
AcDbEntity
8
0
100
AcDbLine
10
0
20
0
30
0
11
300
21
0
31
0
0
LINE
5
103
100
AcDbEntity
8
0
100
AcDbLine
10
300
20
0
30
0
11
150.00000000000003
21
259.80762113533154
31
0
0
LINE
5
104
100
AcDbEntity
8
0
100
AcDbLine
10
150.00000000000003
20
259.80762113533154
30
0
11
150.00000000000003
21
250
31
0
0
LINE
5
105
100
AcDbEntity
8
0
100
AcDbLine
10
150.00000000000003
20
259.80762113533154
30
0
11
150
21
0
31
0
0
LINE
5
106
100
AcDbEntity
8
0
100
AcDbLine
10
150
20
0
30
0
11
150.00000000000003
21
200
31
0
0
LINE
5
107
100
AcDbEntity
8
0
100
AcDbLine
10
150
20
0
30
0
11
150.00000000000003
21
150
31
0
0
LINE
5
108
100
AcDbEntity
8
0
100
AcDbLine
10
150
20
0
30
0
11
150.00000000000003
21
100
31
0
0
LINE
5
109
100
AcDbEntity
8
0
100
AcDbLine
10
150
20
0
30
0
11
150.00000000000003
21
100
31
0
0
LINE
5
110
100
AcDbEntity
8
0
100
AcDbLine
10
150
20
0
30
0
11
150.00000000000003
21
225
31
0
0
LINE
5
111
100
AcDbEntity
8
0
100
AcDbLine
10
150
20
0
30
0
11
150
21
175
31
0
0
LINE
5
112
100
AcDbEntity
8
0
100
AcDbLine
10
150
20
0
30
0
11
150.00000000000003
21
125
31
0
0
LINE
5
113
100
AcDbEntity
8
0
100
AcDbLine
10
150
20
0
30
0
11
150
21
75
31
0
0
LINE
5
114
100
AcDbEntity
8
0
100
AcDbLine
10
150
20
0
30
0
11
150
21
50
31
0
0
LINE
5
115
100
AcDbEntity
8
0
100
AcDbLine
10
150
20
50
30
0
11
300
21
0
31
0
0
LINE
5
116
100
AcDbEntity
8
0
100
AcDbLine
10
150
20
50
30
0
11
0
21
0
31
0
0
LINE
5
117
100
AcDbEntity
8
0
100
AcDbLine
10
150
20
75
30
0
11
0
21
0
31
0
0
LINE
5
118
100
AcDbEntity
8
0
100
AcDbLine
10
150
20
75
30
0
11
300
21
0
31
0
0
LINE
5
119
100
AcDbEntity
8
0
100
AcDbLine
10
150.00000000000003
20
125
30
0
11
0
21
0
31
0
0
LINE
5
120
100
AcDbEntity
8
0
100
AcDbLine
10
150.00000000000003
20
125
30
0
11
300
21
0
31
0
0
LINE
5
121
100
AcDbEntity
8
0
100
AcDbLine
10
150.00000000000003
20
150
30
0
11
0
21
0
31
0
0
LINE
5
122
100
AcDbEntity
8
0
100
AcDbLine
10
150.00000000000003
20
150
30
0
11
300
21
0
31
0
0
LINE
5
123
100
AcDbEntity
8
0
100
AcDbLine
10
150
20
175
30
0
11
0
21
0
31
0
0
LINE
5
124
100
AcDbEntity
8
0
100
AcDbLine
10
150
20
175
30
0
11
300
21
0
31
0
0
LINE
5
125
100
AcDbEntity
8
0
100
AcDbLine
10
150.00000000000003
20
200
30
0
11
0
21
0
31
0
0
LINE
5
126
100
AcDbEntity
8
0
100
AcDbLine
10
150.00000000000003
20
200
30
0
11
300
21
0
31
0
0
LINE
5
127
100
AcDbEntity
8
0
100
AcDbLine
10
150.00000000000003
20
225
30
0
11
0
21
0
31
0
0
LINE
5
128
100
AcDbEntity
8
0
100
AcDbLine
10
150.00000000000003
20
225
30
0
11
300
21
0
31
0
0
LINE
5
129
100
AcDbEntity
8
0
100
AcDbLine
10
150
20
240
30
0
11
0
21
0
31
0
0
LINE
5
130
100
AcDbEntity
8
0
100
AcDbLine
10
150
20
240
30
0
11
300
21
0
31
0
0
LINE
5
131
100
AcDbEntity
8
0
100
AcDbLine
10
0
20
500
30
0
11
300
21
500
31
0
0
LWPOLYLINE
5
132
100
AcDbEntity
8
0
100
AcDbPolyline
90
3
70
1
43
0.0
10
150.00000000000003
20
759.8076211353316
10
0
20
500
10
300.00000000000006
20
500
0
LWPOLYLINE
5
133
100
AcDbEntity
8
0
100
AcDbPolyline
90
3
70
1
43
0.0
10
700
20
500
10
400
20
500
10
550
20
750
0
LINE
5
134
100
AcDbEntity
8
0
100
AcDbLine
10
150.00000000000003
20
759.8076211353316
30
0
11
150.00000000000003
21
500
31
0
0
LINE
5
135
100
AcDbEntity
8
0
100
AcDbLine
10
550
20
500
30
0
11
550
21
750
31
0
0
LWPOLYLINE
5
136
100
AcDbEntity
8
0
100
AcDbPolyline
90
3
70
1
43
0.0
10
1100
20
500
10
800
20
500
10
950
20
725
0
LINE
5
137
100
AcDbEntity
8
0
100
AcDbLine
10
950
20
500
30
0
11
950
21
725
31
0
0
LWPOLYLINE
5
138
100
AcDbEntity
8
0
100
AcDbPolyline
90
3
70
1
43
0.0
10
1500
20
500
10
1200
20
500
10
1350
20
700
0
LINE
5
139
100
AcDbEntity
8
0
100
AcDbLine
10
1350
20
500
30
0
11
1350
21
700
31
0
0
LWPOLYLINE
5
140
100
AcDbEntity
8
0
100
AcDbPolyline
90
3
70
1
43
0.0
10
1900
20
500
10
1600
20
500
10
1750
20
675
0
LINE
5
141
100
AcDbEntity
8
0
100
AcDbLine
10
1750
20
500
30
0
11
1750
21
675
31
0
0
LWPOLYLINE
5
142
100
AcDbEntity
8
0
100
AcDbPolyline
90
3
70
1
43
0.0
10
2300
20
500
10
2000
20
500
10
2150
20
650
0
LINE
5
143
100
AcDbEntity
8
0
100
AcDbLine
10
2150
20
500
30
0
11
2150
21
650
31
0
0
LWPOLYLINE
5
144
100
AcDbEntity
8
0
100
AcDbPolyline
90
3
70
1
43
0.0
10
2700
20
500
10
2400
20
500
10
2550
20
625
0
LINE
5
145
100
AcDbEntity
8
0
100
AcDbLine
10
2550
20
500
30
0
11
2550
21
625
31
0
0
LWPOLYLINE
5
146
100
AcDbEntity
8
0
100
AcDbPolyline
90
3
70
1
43
0.0
10
3100
20
500
10
2800
20
500
10
2950
20
600
0
LINE
5
147
100
AcDbEntity
8
0
100
AcDbLine
10
2950
20
500
30
0
11
2950
21
600
31
0
0
LWPOLYLINE
5
148
100
AcDbEntity
8
0
100
AcDbPolyline
90
3
70
1
43
0.0
10
3500
20
500
10
3200
20
500
10
3350
20
575
0
LINE
5
149
100
AcDbEntity
8
0
100
AcDbLine
10
3350
20
500
30
0
11
3350
21
575
31
0
0
LWPOLYLINE
5
150
100
AcDbEntity
8
0
100
AcDbPolyline
90
3
70
1
43
0.0
10
3900
20
500
10
3600
20
500
10
3750
20
550
0
LINE
5
151
100
AcDbEntity
8
0
100
AcDbLine
10
3750
20
500
30
0
11
3750
21
550
31
0
0
LWPOLYLINE
5
152
100
AcDbEntity
8
0
100
AcDbPolyline
90
3
70
1
43
0.0
10
4300
20
500
10
4000
20
500
10
4150
20
525
0
LINE
5
153
100
AcDbEntity
8
0
100
AcDbLine
10
4150
20
500
30
0
11
4150
21
525
31
0
0
ENDSEC
0
SECTION
2
OBJECTS
0
DICTIONARY
5
C
100
AcDbDictionary
3
ACAD_GROUP
350
D
3
ACAD_MLINESTYLE
350
17
0
DICTIONARY
5
D
100
AcDbDictionary
0
DICTIONARY
5
1A
330
C
100
AcDbDictionary
0
DICTIONARY
5
17
100
AcDbDictionary
0
ENDSEC
0
EOF
