0
SECTION
2
HEADER
9
$INSUNITS
70
4
9
$ACADVER
1
AC1014
9
$HANDSEED
5
FFFF
0
ENDSEC
0
SECTION
2
TABLES
0
TABLE
2
VPORT
5
8
100
AcDbSymbolTable
0
ENDTAB
0
TABLE
2
LTYPE
5
5
100
AcDbSymbolTable
0
LTYPE
5
14
100
AcDbSymbolTableRecord
100
AcDbLinetypeTableRecord
2
BYBLOCK
70
0
0
LTYPE
5
15
100
AcDbSymbolTableRecord
100
AcDbLinetypeTableRecord
2
BYLAYER
70
0
0
ENDTAB
0
TABLE
2
LAYER
5
2
100
AcDbSymbolTable
70
2
0
LAYER
5
50
100
AcDbSymbolTableRecord
100
AcDbLayerTableRecord
2
0
70
0
6
CONTINUOUS
0
ENDTAB
0
TABLE
2
STYLE
5
3
100
AcDbSymbolTable
70
1
0
STYLE
5
11
100
AcDbSymbolTableRecord
100
AcDbTextStyleTableRecord
2
STANDARD
70
0
0
ENDTAB
0
TABLE
2
VIEW
5
6
100
AcDbSymbolTable
70
0
0
ENDTAB
0
TABLE
2
UCS
5
7
100
AcDbSymbolTable
70
0
0
ENDTAB
0
TABLE
2
APPID
5
9
100
AcDbSymbolTable
70
2
0
APPID
5
12
100
AcDbSymbolTableRecord
100
AcDbRegAppTableRecord
2
ACAD
70
0
0
ENDTAB
0
TABLE
2
DIMSTYLE
5
A
100
AcDbSymbolTable
70
1
0
ENDTAB
0
TABLE
2
BLOCK_RECORD
5
1
100
AcDbSymbolTable
70
1
0
BLOCK_RECORD
5
1F
100
AcDbSymbolTableRecord
100
AcDbBlockTableRecord
2
*MODEL_SPACE
0
BLOCK_RECORD
5
1B
100
AcDbSymbolTableRecord
100
AcDbBlockTableRecord
2
*PAPER_SPACE
0
ENDTAB
0
ENDSEC
0
SECTION
2
BLOCKS
0
BLOCK
5
20
100
AcDbEntity
100
AcDbBlockBegin
2
*MODEL_SPACE
0
ENDBLK
5
21
100
AcDbEntity
100
AcDbBlockEnd
0
BLOCK
5
1C
100
AcDbEntity
100
AcDbBlockBegin
2
*PAPER_SPACE
0
ENDBLK
5
1D
100
AcDbEntity
100
AcDbBlockEnd
0
ENDSEC
0
SECTION
2
ENTITIES
0
LINE
5
100
100
AcDbEntity
8
0
100
AcDbLine
10
90.00000074505806
20
5.000000074505806
30
0
11
105.00000089406967
21
5.000000074505806
31
0
0
LINE
5
101
100
AcDbEntity
8
0
100
AcDbLine
10
105.00000089406967
20
5.000000074505806
30
0
11
105.00000089406967
21
1.8369702169696894e-15
31
0
0
LINE
5
102
100
AcDbEntity
8
0
100
AcDbLine
10
105.00000089406967
20
1.8369702169696894e-15
30
0
11
90.00000074505806
21
0
31
0
0
LINE
5
103
100
AcDbEntity
8
0
100
AcDbLine
10
90.00000074505806
20
0
30
0
11
90.00000074505806
21
-25.00000037252903
31
0
0
LINE
5
104
100
AcDbEntity
8
0
100
AcDbLine
10
90.00000074505806
20
-25.00000037252903
30
0
11
105.00000089406967
21
-25.00000037252903
31
0
0
LINE
5
105
100
AcDbEntity
8
0
100
AcDbLine
10
105.00000089406967
20
-25.00000037252903
30
0
11
105.00000089406967
21
-30.000000447034832
31
0
0
LINE
5
106
100
AcDbEntity
8
0
100
AcDbLine
10
105.00000089406967
20
-30.000000447034832
30
0
11
90.00000074505806
21
-30.000000447034836
31
0
0
LINE
5
107
100
AcDbEntity
8
0
100
AcDbLine
10
90.00000074505806
20
-30.000000447034836
30
0
11
90.00000074505806
21
-65.000000968575478
31
0
0
LINE
5
108
100
AcDbEntity
8
0
100
AcDbLine
10
90.00000074505806
20
-65.000000968575478
30
0
11
105.00000089406967
21
-65.000000968575478
31
0
0
LINE
5
109
100
AcDbEntity
8
0
100
AcDbLine
10
105.00000089406967
20
-65.000000968575478
30
0
11
105.00000089406967
21
-70.000001043081284
31
0
0
LINE
5
110
100
AcDbEntity
8
0
100
AcDbLine
10
105.00000089406967
20
-70.000001043081284
30
0
11
90.00000074505806
21
-70.000001043081284
31
0
0
LINE
5
111
100
AcDbEntity
8
0
100
AcDbLine
10
90.00000074505806
20
-70.000001043081284
30
0
11
75.000000521540642
21
-120.00000178813934
31
0
0
LINE
5
112
100
AcDbEntity
8
0
100
AcDbLine
10
75.000000521540642
20
-120.00000178813934
30
0
11
90.000000670552254
21
-120.00000178813934
31
0
0
LINE
5
113
100
AcDbEntity
8
0
100
AcDbLine
10
90.000000670552254
20
-120.00000178813934
30
0
11
90.000000670552254
21
-125.00000186264515
31
0
0
LINE
5
114
100
AcDbEntity
8
0
100
AcDbLine
10
90.000000670552254
20
-125.00000186264515
30
0
11
75.000000521540642
21
-125.00000186264515
31
0
0
LINE
5
115
100
AcDbEntity
8
0
100
AcDbLine
10
75.000000521540642
20
-125.00000186264515
30
0
11
75.000000521540642
21
-150.00000223517418
31
0
0
LINE
5
116
100
AcDbEntity
8
0
100
AcDbLine
10
75.000000521540642
20
-150.00000223517418
30
0
11
90.000000670552268
21
-150.00000223517418
31
0
0
LINE
5
117
100
AcDbEntity
8
0
100
AcDbLine
10
90.000000670552268
20
-150.00000223517418
30
0
11
90.000000670552268
21
-155.00000230967999
31
0
0
LINE
5
118
100
AcDbEntity
8
0
100
AcDbLine
10
90.000000670552268
20
-155.00000230967999
30
0
11
75.000000521540642
21
-155.00000230967999
31
0
0
LINE
5
119
100
AcDbEntity
8
0
100
AcDbLine
10
75.000000521540642
20
-155.00000230967999
30
0
11
75.000000521540642
21
-180.00000268220901
31
0
0
LINE
5
120
100
AcDbEntity
8
0
100
AcDbLine
10
75.000000521540642
20
-180.00000268220901
30
0
11
90.000000670552268
21
-180.00000268220901
31
0
0
LINE
5
121
100
AcDbEntity
8
0
100
AcDbLine
10
90.000000670552268
20
-180.00000268220901
30
0
11
90.000000670552268
21
-185.00000275671482
31
0
0
LINE
5
122
100
AcDbEntity
8
0
100
AcDbLine
10
90.000000670552268
20
-185.00000275671482
30
0
11
75.000000521540642
21
-185.00000275671482
31
0
0
LINE
5
123
100
AcDbEntity
8
0
100
AcDbLine
10
75.000000521540642
20
-185.00000275671482
30
0
11
60.000000091699292
21
-215.00000361639752
31
0
0
LINE
5
124
100
AcDbEntity
8
0
100
AcDbLine
10
60.000000091699292
20
-215.00000361639752
30
0
11
75.000000447034822
21
-215.00000361639749
31
0
0
LINE
5
125
100
AcDbEntity
8
0
100
AcDbLine
10
75.000000447034822
20
-215.00000361639749
30
0
11
75.000000447034807
21
-220
31
0
0
LINE
5
126
100
AcDbEntity
8
0
100
AcDbLine
10
60.000000298023224
20
-220.00000016829426
30
0
11
60.000000298023224
21
-245
31
0
0
LINE
5
127
100
AcDbEntity
8
0
100
AcDbLine
10
75.000000447034836
20
-245
30
0
11
75.000000447034836
21
-250
31
0
0
LINE
5
128
100
AcDbEntity
8
0
100
AcDbLine
10
59.961700431294737
20
-250
30
0
11
60.000000298023224
21
-275.00000409781933
31
0
0
LINE
5
129
100
AcDbEntity
8
0
100
AcDbLine
10
60.000000298023224
20
-275.00000409781933
30
0
11
75.000000447034836
21
-274.97702418132059
31
0
0
LINE
5
130
100
AcDbEntity
8
0
100
AcDbLine
10
75.000000447034836
20
-274.97702418132059
30
0
11
75.000000447034836
21
-280.00000417232513
31
0
0
LINE
5
131
100
AcDbEntity
8
0
100
AcDbLine
10
75.000000447034836
20
-280.00000417232513
30
0
11
59.980850364658984
21
-280.00000417232513
31
0
0
LINE
5
132
100
AcDbEntity
8
0
100
AcDbLine
10
59.980850364658984
20
-280.00000417232513
30
0
11
45.000000074505806
21
-300.00000447034836
31
0
0
LINE
5
133
100
AcDbEntity
8
0
100
AcDbLine
10
45.000000074505806
20
-300.00000447034836
30
0
11
60.000000223517418
21
-300.00000447034836
31
0
0
LINE
5
134
100
AcDbEntity
8
0
100
AcDbLine
10
60.000000223517418
20
-305.00000454485416
30
0
11
45.000000074505806
21
-305.00000454485416
31
0
0
LINE
5
135
100
AcDbEntity
8
0
100
AcDbLine
10
45.000000074505806
20
-305.00000454485416
30
0
11
45.000000074505806
21
-320.00000476837158
31
0
0
LINE
5
136
100
AcDbEntity
8
0
100
AcDbLine
10
45.000000074505806
20
-320.00000476837158
30
0
11
60.000000223517418
21
-320.00000476837158
31
0
0
LINE
5
137
100
AcDbEntity
8
0
100
AcDbLine
10
60.000000223517418
20
-320.00000476837158
30
0
11
60.000000223517418
21
-325.00000484287739
31
0
0
LINE
5
138
100
AcDbEntity
8
0
100
AcDbLine
10
60.000000223517418
20
-325.00000484287739
30
0
11
45.000000074505806
21
-325.00000484287739
31
0
0
LINE
5
139
100
AcDbEntity
8
0
100
AcDbLine
10
45.000000074505806
20
-325.00000484287739
30
0
11
45.000000074505806
21
-340.00000506639481
31
0
0
LINE
5
140
100
AcDbEntity
8
0
100
AcDbLine
10
45.000000074505806
20
-340.00000506639481
30
0
11
60.000000223517418
21
-340.00000506639481
31
0
0
LINE
5
141
100
AcDbEntity
8
0
100
AcDbLine
10
60.000000223517418
20
-340.00000506639481
30
0
11
60.000000223517418
21
-345.00000514090061
31
0
0
LINE
5
142
100
AcDbEntity
8
0
100
AcDbLine
10
60.000000223517418
20
-345.00000514090061
30
0
11
45.000000074505806
21
-345.00000514090061
31
0
0
LINE
5
143
100
AcDbEntity
8
0
100
AcDbLine
10
45.000000074505806
20
-345.00000514090061
30
0
11
45.000000074505806
21
-365.00000543892384
31
0
0
LINE
5
144
100
AcDbEntity
8
0
100
AcDbLine
10
45.000000074505806
20
-365.00000543892384
30
0
11
65.00000037252903
21
-350.00000521540642
31
0
0
LINE
5
145
100
AcDbEntity
8
0
100
AcDbLine
10
90
20
50
30
0
11
90.00000074505806
21
5.000000074505806
31
0
0
LINE
5
146
100
AcDbEntity
8
0
100
AcDbLine
10
74.999999999999986
20
-220.0000002173789
30
0
11
60.000000298023224
21
-220.00000016829426
31
0
0
LINE
5
147
100
AcDbEntity
8
0
100
AcDbLine
10
75.000000447034807
20
-220
30
0
11
75.000000447034822
21
-215.00000361639749
31
0
0
LINE
5
148
100
AcDbEntity
8
0
100
AcDbLine
10
59.961700431294737
20
-250
30
0
11
75.000000447034836
21
-250
31
0
0
LINE
5
149
100
AcDbEntity
8
0
100
AcDbLine
10
75.000000447034836
20
-250
30
0
11
75.000000447034836
21
-245
31
0
0
LINE
5
150
100
AcDbEntity
8
0
100
AcDbLine
10
75.000000447034836
20
-245
30
0
11
60.000000298023224
21
-245
31
0
0
LINE
5
151
100
AcDbEntity
8
0
100
AcDbLine
10
60.000000223517418
20
-305.00000454485416
30
0
11
60.000000223517418
21
-300.00000447034836
31
0
0
LINE
5
152
100
AcDbEntity
8
0
100
AcDbLine
10
90
20
50
30
0
11
102.5
21
50
31
0
0
LINE
5
153
100
AcDbEntity
8
0
100
AcDbLine
10
102.5
20
50
30
0
11
115
21
0
31
0
0
LINE
5
154
100
AcDbEntity
8
0
100
AcDbLine
10
115
20
0
30
0
11
115
21
-75
31
0
0
LINE
5
155
100
AcDbEntity
8
0
100
AcDbLine
10
115
20
-75
30
0
11
65.00000037252903
21
-350.00000521540642
31
0
0
LINE
5
156
100
AcDbEntity
8
0
100
AcDbLine
10
75.000000447034822
20
-215.00000361639749
30
0
11
74.999999999999986
21
-220.0000002173789
31
0
0
LINE
5
157
100
AcDbEntity
8
0
100
AcDbLine
10
60.000000298023224
20
-220.00000016829426
30
0
11
60.000000298023224
21
-245
31
0
0
LINE
5
158
100
AcDbEntity
8
0
100
AcDbLine
10
75.000000447034836
20
-245
30
0
11
75.000000447034836
21
-250
31
0
0
LINE
5
159
100
AcDbEntity
8
0
100
AcDbLine
10
59.961700431294737
20
-250
30
0
11
60.000000298023224
21
-275.00000409781933
31
0
0
LINE
5
160
100
AcDbEntity
8
0
100
AcDbLine
10
75.000000447034836
20
-274.97702418132059
30
0
11
75.000000447034836
21
-280.00000417232513
31
0
0
ENDSEC
0
SECTION
2
OBJECTS
0
DICTIONARY
5
C
100
AcDbDictionary
3
ACAD_GROUP
350
D
3
ACAD_MLINESTYLE
350
17
0
DICTIONARY
5
D
100
AcDbDictionary
0
DICTIONARY
5
1A
330
C
100
AcDbDictionary
0
DICTIONARY
5
17
100
AcDbDictionary
0
ENDSEC
0
EOF
