  0
SECTION
  2
HEADER
  9
$ACADVER
  1
AC1024
  9
$ACADMAINTVER
 70
     6
  9
$DWGCODEPAGE
  3
UNDEFINED
  9
$INSBASE
 10
0.0
 20
0.0
 30
0.0
  9
$EXTMIN
 10
1.000000000000000E+20
 20
1.000000000000000E+20
 30
1.000000000000000E+20
  9
$EXTMAX
 10
-1.000000000000000E+20
 20
-1.000000000000000E+20
 30
-1.000000000000000E+20
  9
$LIMMIN
 10
0.0
 20
0.0
  9
$LIMMAX
 10
12.0
 20
9.0
  9
$ORTHOMODE
 70
     0
  9
$REGENMODE
 70
     1
  9
$FILLMODE
 70
     1
  9
$QTEXTMODE
 70
     0
  9
$MIRRTEXT
 70
     1
  9
$LTSCALE
 40
1.0
  9
$ATTMODE
 70
     1
  9
$TEXTSIZE
 40
0.2
  9
$TRACEWID
 40
0.05
  9
$TEXTSTYLE
  7
Standard
  9
$CLAYER
  8
0
  9
$CELTYPE
  6
ByLayer
  9
$CECOLOR
 62
   256
  9
$CELTSCALE
 40
1.0
  9
$DISPSILH
 70
     0
  9
$DIMSCALE
 40
1.0
  9
$DIMASZ
 40
0.18
  9
$DIMEXO
 40
0.0625
  9
$DIMDLI
 40
0.38
  9
$DIMRND
 40
0.0
  9
$DIMDLE
 40
0.0
  9
$DIMEXE
 40
0.18
  9
$DIMTP
 40
0.0
  9
$DIMTM
 40
0.0
  9
$DIMTXT
 40
0.18
  9
$DIMCEN
 40
0.09
  9
$DIMTSZ
 40
0.0
  9
$DIMTOL
 70
     0
  9
$DIMLIM
 70
     0
  9
$DIMTIH
 70
     1
  9
$DIMTOH
 70
     1
  9
$DIMSE1
 70
     0
  9
$DIMSE2
 70
     0
  9
$DIMTAD
 70
     0
  9
$DIMZIN
 70
     0
  9
$DIMBLK
  1

  9
$DIMASO
 70
     1
  9
$DIMSHO
 70
     1
  9
$DIMPOST
  1

  9
$DIMAPOST
  1

  9
$DIMALT
 70
     0
  9
$DIMALTD
 70
     2
  9
$DIMALTF
 40
25.4
  9
$DIMLFAC
 40
1.0
  9
$DIMTOFL
 70
     0
  9
$DIMTVP
 40
0.0
  9
$DIMTIX
 70
     0
  9
$DIMSOXD
 70
     0
  9
$DIMSAH
 70
     0
  9
$DIMBLK1
  1

  9
$DIMBLK2
  1

  9
$DIMSTYLE
  2
Standard
  9
$DIMCLRD
 70
     0
  9
$DIMCLRE
 70
     0
  9
$DIMCLRT
 70
     0
  9
$DIMTFAC
 40
1.0
  9
$DIMGAP
 40
0.09
  9
$DIMJUST
 70
     0
  9
$DIMSD1
 70
     0
  9
$DIMSD2
 70
     0
  9
$DIMTOLJ
 70
     1
  9
$DIMTZIN
 70
     0
  9
$DIMALTZ
 70
     0
  9
$DIMALTTZ
 70
     0
  9
$DIMUPT
 70
     0
  9
$DIMDEC
 70
     4
  9
$DIMTDEC
 70
     4
  9
$DIMALTU
 70
     2
  9
$DIMALTTD
 70
     2
  9
$DIMTXSTY
  7
Standard
  9
$DIMAUNIT
 70
     0
  9
$DIMADEC
 70
     0
  9
$DIMALTRND
 40
0.0
  9
$DIMAZIN
 70
     0
  9
$DIMDSEP
 70
    46
  9
$DIMATFIT
 70
     3
  9
$DIMFRAC
 70
     0
  9
$DIMLDRBLK
  1

  9
$DIMLUNIT
 70
     2
  9
$DIMLWD
 70
    -2
  9
$DIMLWE
 70
    -2
  9
$DIMTMOVE
 70
     0
  9
$DIMFXL
 40
1.0
  9
$DIMFXLON
 70
     0
  9
$DIMJOGANG
 40
0.7853981633974483
  9
$DIMTFILL
 70
     0
  9
$DIMTFILLCLR
 70
     0
  9
$DIMARCSYM
 70
     0
  9
$DIMLTYPE
  6

  9
$DIMLTEX1
  6

  9
$DIMLTEX2
  6

  9
$DIMTXTDIRECTION
 70
     0
  9
$LUNITS
 70
     2
  9
$LUPREC
 70
     4
  9
$SKETCHINC
 40
0.1
  9
$FILLETRAD
 40
0.5
  9
$AUNITS
 70
     0
  9
$AUPREC
 70
     0
  9
$MENU
  1
.
  9
$ELEVATION
 40
0.0
  9
$PELEVATION
 40
0.0
  9
$THICKNESS
 40
0.0
  9
$LIMCHECK
 70
     0
  9
$CHAMFERA
 40
0.5
  9
$CHAMFERB
 40
0.5
  9
$CHAMFERC
 40
1.0
  9
$CHAMFERD
 40
0.0
  9
$SKPOLY
 70
     0
  9
$TDCREATE
 40
2458295.706284722
  9
$TDUCREATE
 40
2458295.706284722
  9
$TDUPDATE
 40
2458295.706284722
  9
$TDUUPDATE
 40
2458295.706284722
  9
$TDINDWG
 40
0.0000000116
  9
$TDUSRTIMER
 40
0.0000000116
  9
$USRTIMER
 70
     1
  9
$ANGBASE
 50
0.0
  9
$ANGDIR
 70
     0
  9
$PDMODE
 70
     0
  9
$PDSIZE
 40
0.0
  9
$PLINEWID
 40
0.0
  9
$SPLFRAME
 70
     0
  9
$SPLINETYPE
 70
     6
  9
$SPLINESEGS
 70
     8
  9
$HANDSEED
  5
93
  9
$SURFTAB1
 70
     6
  9
$SURFTAB2
 70
     6
  9
$SURFTYPE
 70
     6
  9
$SURFU
 70
     6
  9
$SURFV
 70
     6
  9
$UCSBASE
  2

  9
$UCSNAME
  2

  9
$UCSORG
 10
0.0
 20
0.0
 30
0.0
  9
$UCSXDIR
 10
1.0
 20
0.0
 30
0.0
  9
$UCSYDIR
 10
0.0
 20
1.0
 30
0.0
  9
$UCSORTHOREF
  2

  9
$UCSORTHOVIEW
 70
     0
  9
$UCSORGTOP
 10
0.0
 20
0.0
 30
0.0
  9
$UCSORGBOTTOM
 10
0.0
 20
0.0
 30
0.0
  9
$UCSORGLEFT
 10
0.0
 20
0.0
 30
0.0
  9
$UCSORGRIGHT
 10
0.0
 20
0.0
 30
0.0
  9
$UCSORGFRONT
 10
0.0
 20
0.0
 30
0.0
  9
$UCSORGBACK
 10
0.0
 20
0.0
 30
0.0
  9
$PUCSBASE
  2

  9
$PUCSNAME
  2

  9
$PUCSORG
 10
0.0
 20
0.0
 30
0.0
  9
$PUCSXDIR
 10
1.0
 20
0.0
 30
0.0
  9
$PUCSYDIR
 10
0.0
 20
1.0
 30
0.0
  9
$PUCSORTHOREF
  2

  9
$PUCSORTHOVIEW
 70
     0
  9
$PUCSORGTOP
 10
0.0
 20
0.0
 30
0.0
  9
$PUCSORGBOTTOM
 10
0.0
 20
0.0
 30
0.0
  9
$PUCSORGLEFT
 10
0.0
 20
0.0
 30
0.0
  9
$PUCSORGRIGHT
 10
0.0
 20
0.0
 30
0.0
  9
$PUCSORGFRONT
 10
0.0
 20
0.0
 30
0.0
  9
$PUCSORGBACK
 10
0.0
 20
0.0
 30
0.0
  9
$USERI1
 70
     0
  9
$USERI2
 70
     0
  9
$USERI3
 70
     0
  9
$USERI4
 70
     0
  9
$USERI5
 70
     0
  9
$USERR1
 40
0.0
  9
$USERR2
 40
0.0
  9
$USERR3
 40
0.0
  9
$USERR4
 40
0.0
  9
$USERR5
 40
0.0
  9
$WORLDVIEW
 70
     1
  9
$SHADEDGE
 70
     3
  9
$SHADEDIF
 70
    70
  9
$TILEMODE
 70
     1
  9
$MAXACTVP
 70
    64
  9
$PINSBASE
 10
0.0
 20
0.0
 30
0.0
  9
$PLIMCHECK
 70
     0
  9
$PEXTMIN
 10
1.000000000000000E+20
 20
1.000000000000000E+20
 30
1.000000000000000E+20
  9
$PEXTMAX
 10
-1.000000000000000E+20
 20
-1.000000000000000E+20
 30
-1.000000000000000E+20
  9
$PLIMMIN
 10
0.0
 20
0.0
  9
$PLIMMAX
 10
12.0
 20
9.0
  9
$UNITMODE
 70
     0
  9
$VISRETAIN
 70
     1
  9
$PLINEGEN
 70
     0
  9
$PSLTSCALE
 70
     1
  9
$TREEDEPTH
 70
  3020
  9
$CMLSTYLE
  2
Standard
  9
$CMLJUST
 70
     0
  9
$CMLSCALE
 40
1.0
  9
$PROXYGRAPHICS
 70
     1
  9
$MEASUREMENT
 70
     0
  9
$CELWEIGHT
370
    -1
  9
$ENDCAPS
280
     0
  9
$JOINSTYLE
280
     0
  9
$LWDISPLAY
290
     1
  9
$INSUNITS
 70
     1
  9
$HYPERLINKBASE
  1

  9
$STYLESHEET
  1

  9
$XEDIT
290
     1
  9
$CEPSNTYPE
380
     0
  9
$PSTYLEMODE
290
     1
  9
$FINGERPRINTGUID
  2
{90263FC8-23FB-DAEC-7A23-121EEC3D663F}
  9
$VERSIONGUID
  2
{FAEB1C32-E019-11D5-929B-00C0DF256EC4}
  9
$EXTNAMES
290
     1
  9
$PSVPSCALE
 40
0.0
  9
$OLESTARTUP
290
     0
  9
$SORTENTS
280
   127
  9
$INDEXCTL
280
     0
  9
$HIDETEXT
280
     1
  9
$XCLIPFRAME
280
     2
  9
$HALOGAP
280
     0
  9
$OBSCOLOR
 70
   257
  9
$OBSLTYPE
280
     0
  9
$INTERSECTIONDISPLAY
280
     0
  9
$INTERSECTIONCOLOR
 70
   257
  9
$DIMASSOC
280
     2
  9
$PROJECTNAME
  1

  9
$CAMERADISPLAY
290
     0
  9
$LENSLENGTH
 40
50.0
  9
$CAMERAHEIGHT
 40
0.0
  9
$STEPSPERSEC
 40
2.0
  9
$STEPSIZE
 40
6.0
  9
$3DDWFPREC
 40
2.0
  9
$PSOLWIDTH
 40
0.25
  9
$PSOLHEIGHT
 40
4.0
  9
$LOFTANG1
 40
1.570796326794897
  9
$LOFTANG2
 40
1.570796326794897
  9
$LOFTMAG1
 40
0.0
  9
$LOFTMAG2
 40
0.0
  9
$LOFTPARAM
 70
     7
  9
$LOFTNORMALS
280
     1
  9
$LATITUDE
 40
37.795
  9
$LONGITUDE
 40
-122.394
  9
$NORTHDIRECTION
 40
0.0
  9
$TIMEZONE
 70
 -8000
  9
$LIGHTGLYPHDISPLAY
280
     1
  9
$TILEMODELIGHTSYNCH
280
     1
  9
$CMATERIAL
347
3C
  9
$SOLIDHIST
280
     1
  9
$SHOWHIST
280
     1
  9
$DWFFRAME
280
     2
  9
$DGNFRAME
280
     2
  9
$REALWORLDSCALE
290
     1
  9
$INTERFERECOLOR
 62
   256
  9
$CSHADOW
280
     0
  9
$SHADOWPLANELOCATION
 40
0.0
  0
ENDSEC
  0
SECTION
  2
CLASSES
  0
CLASS
  1
ACDBDICTIONARYWDFLT
  2
AcDbDictionaryWithDefault
  3
ObjectDBX Classes
 90
        0
 91
        4
280
     0
281
     0
  0
CLASS
  1
VISUALSTYLE
  2
AcDbVisualStyle
  3
ObjectDBX Classes
 90
     4095
 91
        4
280
     0
281
     0
  0
CLASS
  1
MATERIAL
  2
AcDbMaterial
  3
ObjectDBX Classes
 90
     1153
 91
        4
280
     0
281
     0
  0
CLASS
  1
SUN
  2
AcDbSun
  3
SCENEOE
 90
     1024
 91
        4
280
     0
281
     0
  0
ENDSEC
  0
SECTION
  2
TABLES
  0
TABLE
  2
VPORT
  5
8
330
0
100
AcDbSymbolTable
 70
     1
  0
VPORT
  5
29
330
8
100
AcDbSymbolTableRecord
100
AcDbViewportTableRecord
  2
*Active
 70
     0
 10
0.0
 20
0.0
 11
1.0
 21
1.0
 12
0.0
 22
0.0
 13
0.0
 23
0.0
 14
0.5
 24
0.5
 15
0.5
 25
0.5
 16
0.0
 26
0.0
 36
1.0
 17
500.0007637638886
 27
-500.0007637638886
 37
0.0
 40
1000.001527527777
 41
1.0
 42
50.0
 43
0.0
 44
0.0
 50
0.0
 51
0.0
 71
     0
 72
   100
 73
     1
 74
     3
 75
     0
 76
     0
 77
     0
 78
     0
281
     0
 65
     1
110
0.0
120
0.0
130
0.0
111
1.0
121
0.0
131
0.0
112
0.0
122
1.0
132
0.0
 79
     0
146
0.0
 60
     3
 61
     5
292
     1
282
     1
141
0.0
142
0.0
 63
   250
361
3F
  0
ENDTAB
  0
TABLE
  2
LTYPE
  5
5
330
0
100
AcDbSymbolTable
 70
     1
  0
LTYPE
  5
14
330
5
100
AcDbSymbolTableRecord
100
AcDbLinetypeTableRecord
  2
ByBlock
 70
     0
  3

 72
    65
 73
     0
 40
0.0
  0
LTYPE
  5
15
330
5
100
AcDbSymbolTableRecord
100
AcDbLinetypeTableRecord
  2
ByLayer
 70
     0
  3

 72
    65
 73
     0
 40
0.0
  0
LTYPE
  5
16
330
5
100
AcDbSymbolTableRecord
100
AcDbLinetypeTableRecord
  2
Continuous
 70
     0
  3
Solid line
 72
    65
 73
     0
 40
0.0
  0
ENDTAB
  0
TABLE
  2
LAYER
  5
2
330
0
100
AcDbSymbolTable
 70
     2
  0
LAYER
  5
10
330
2
100
AcDbSymbolTableRecord
100
AcDbLayerTableRecord
  2
0
 70
     0
 62
     7
  6
Continuous
370
    -3
390
F
347
3E
  0
LAYER
  5
40
330
2
100
AcDbSymbolTableRecord
100
AcDbLayerTableRecord
  2
Layer 1
 70
     0
 62
     7
  6
Continuous
370
    -3
390
F
347
3E
  0
ENDTAB
  0
TABLE
  2
STYLE
  5
3
330
0
100
AcDbSymbolTable
 70
     1
  0
STYLE
  5
11
330
3
100
AcDbSymbolTableRecord
100
AcDbTextStyleTableRecord
  2
Standard
 70
     0
 40
0.0
 41
1.0
 50
0.0
 71
     0
 42
0.2
  3
txt
  4

  0
ENDTAB
  0
TABLE
  2
VIEW
  5
6
330
0
100
AcDbSymbolTable
 70
     0
  0
ENDTAB
  0
TABLE
  2
UCS
  5
7
330
0
100
AcDbSymbolTable
 70
     0
  0
ENDTAB
  0
TABLE
  2
APPID
  5
9
330
0
100
AcDbSymbolTable
 70
     1
  0
APPID
  5
12
330
9
100
AcDbSymbolTableRecord
100
AcDbRegAppTableRecord
  2
ACAD
 70
     0
  0
ENDTAB
  0
TABLE
  2
DIMSTYLE
  5
A
330
0
100
AcDbSymbolTable
 70
     1
100
AcDbDimStyleTable
  0
DIMSTYLE
105
27
330
A
100
AcDbSymbolTableRecord
100
AcDbDimStyleTableRecord
  2
Standard
 70
     0
178
     0
340
11
  0
ENDTAB
  0
TABLE
  2
BLOCK_RECORD
  5
1
330
0
100
AcDbSymbolTable
 70
     1
  0
BLOCK_RECORD
  5
1F
330
1
100
AcDbSymbolTableRecord
100
AcDbBlockTableRecord
  2
*Model_Space
340
22
 70
     0
280
     1
281
     0
  0
BLOCK_RECORD
  5
1B
330
1
100
AcDbSymbolTableRecord
100
AcDbBlockTableRecord
  2
*Paper_Space
340
1E
 70
     0
280
     1
281
     0
  0
BLOCK_RECORD
  5
23
330
1
100
AcDbSymbolTableRecord
100
AcDbBlockTableRecord
  2
*Paper_Space0
340
26
 70
     0
280
     1
281
     0
  0
ENDTAB
  0
ENDSEC
  0
SECTION
  2
BLOCKS
  0
BLOCK
  5
20
330
1F
100
AcDbEntity
  8
0
100
AcDbBlockBegin
  2
*Model_Space
 70
     0
 10
0.0
 20
0.0
 30
0.0
  3
*Model_Space
  1

  0
ENDBLK
  5
21
330
1F
100
AcDbEntity
  8
0
100
AcDbBlockEnd
  0
BLOCK
  5
1C
330
1B
100
AcDbEntity
 67
     1
  8
0
100
AcDbBlockBegin
  2
*Paper_Space
 70
     0
 10
0.0
 20
0.0
 30
0.0
  3
*Paper_Space
  1

  0
ENDBLK
  5
1D
330
1B
100
AcDbEntity
 67
     1
  8
0
100
AcDbBlockEnd
  0
BLOCK
  5
24
330
23
100
AcDbEntity
  8
0
100
AcDbBlockBegin
  2
*Paper_Space0
 70
     0
 10
0.0
 20
0.0
 30
0.0
  3
*Paper_Space0
  1

  0
ENDBLK
  5
25
330
23
100
AcDbEntity
  8
0
100
AcDbBlockEnd
  0
ENDSEC
  0
SECTION
  2
ENTITIES
  0
POLYLINE
  5
41
330
1F
100
AcDbEntity
  8
Layer 1
370
     0
100
AcDb2dPolyline
 66
     1
 10
0.0
 20
0.0
 30
0.0
  0
VERTEX
  5
42
330
41
100
AcDbEntity
  8
Layer 1
370
     0
100
AcDbVertex
100
AcDb2dVertex
 10
415.9249998960188
 20
-172.6166666235106
 30
0.0
  0
VERTEX
  5
43
330
41
100
AcDbEntity
  8
Layer 1
370
     0
100
AcDbVertex
100
AcDb2dVertex
 10
415.9249998960188
 20
-84.6666666455
 30
0.0
  0
VERTEX
  5
44
330
41
100
AcDbEntity
  8
Layer 1
370
     0
100
AcDbVertex
100
AcDb2dVertex
 10
33.8666666582
 20
-84.6666666455
 30
0.0
  0
VERTEX
  5
45
330
41
100
AcDbEntity
  8
Layer 1
370
     0
100
AcDbVertex
100
AcDb2dVertex
 10
33.8666666582
 20
-144.6388888527292
 30
0.0
  0
VERTEX
  5
46
330
41
100
AcDbEntity
  8
Layer 1
370
     0
100
AcDbVertex
100
AcDb2dVertex
 10
15.52222221834167
 20
-144.6388888527292
 30
0.0
  0
VERTEX
  5
47
330
41
100
AcDbEntity
  8
Layer 1
370
     0
100
AcDbVertex
100
AcDb2dVertex
 10
15.52222221834167
 20
-204.6111110599583
 30
0.0
  0
VERTEX
  5
48
330
41
100
AcDbEntity
  8
Layer 1
370
     0
100
AcDbVertex
100
AcDb2dVertex
 10
33.8666666582
 20
-204.6111110599583
 30
0.0
  0
VERTEX
  5
49
330
41
100
AcDbEntity
  8
Layer 1
370
     0
100
AcDbVertex
100
AcDb2dVertex
 10
33.8666666582
 20
-364.4194443533396
 30
0.0
  0
VERTEX
  5
4A
330
41
100
AcDbEntity
  8
Layer 1
370
     0
100
AcDbVertex
100
AcDb2dVertex
 10
15.52222221834167
 20
-364.4194443533396
 30
0.0
  0
VERTEX
  5
4B
330
41
100
AcDbEntity
  8
Layer 1
370
     0
100
AcDbVertex
100
AcDb2dVertex
 10
15.52222221834167
 20
-424.3916665605688
 30
0.0
  0
VERTEX
  5
4C
330
41
100
AcDbEntity
  8
Layer 1
370
     0
100
AcDbVertex
100
AcDb2dVertex
 10
33.8666666582
 20
-424.3916665605688
 30
0.0
  0
VERTEX
  5
4D
330
41
100
AcDbEntity
  8
Layer 1
370
     0
100
AcDbVertex
100
AcDb2dVertex
 10
33.8666666582
 20
-484.7166665454875
 30
0.0
  0
VERTEX
  5
4E
330
41
100
AcDbEntity
  8
Layer 1
370
     0
100
AcDbVertex
100
AcDb2dVertex
 10
415.9249998960188
 20
-484.7166665454875
 30
0.0
  0
VERTEX
  5
4F
330
41
100
AcDbEntity
  8
Layer 1
370
     0
100
AcDbVertex
100
AcDb2dVertex
 10
415.9249998960188
 20
-396.4138887897867
 30
0.0
  0
VERTEX
  5
50
330
41
100
AcDbEntity
  8
Layer 1
370
     0
100
AcDbVertex
100
AcDb2dVertex
 10
154.1638888503479
 20
-376.4138887947854
 30
0.0
  0
VERTEX
  5
51
330
41
100
AcDbEntity
  8
Layer 1
370
     0
100
AcDbVertex
100
AcDb2dVertex
 10
154.1638888503479
 20
-192.6166666185125
 30
0.0
  0
VERTEX
  5
52
330
41
100
AcDbEntity
  8
Layer 1
370
     0
100
AcDbVertex
100
AcDb2dVertex
 10
415.9249998960188
 20
-172.6166666235106
 30
0.0
  0
SEQEND
  5
53
330
41
100
AcDbEntity
  8
Layer 1
370
     0
  0
SPLINE
  5
54
330
1F
100
AcDbEntity
  8
Layer 1
370
     0
100
AcDbSpline
210
0.0
220
0.0
230
1.0
 70
    11
 71
     3
 72
    41
 73
    37
 74
     0
 42
0.0000000001
 43
0.0000000001
 12
1.0
 22
0.0
 32
0.0
 13
1.0
 23
0.0
 33
0.0
 40
0.0
 40
0.0
 40
0.0
 40
0.0
 40
1.0
 40
1.0
 40
1.0
 40
2.0
 40
2.0
 40
2.0
 40
3.0
 40
3.0
 40
3.0
 40
4.0
 40
4.0
 40
4.0
 40
5.0
 40
5.0
 40
5.0
 40
6.0
 40
6.0
 40
6.0
 40
7.0
 40
7.0
 40
7.0
 40
8.0
 40
8.0
 40
8.0
 40
9.0
 40
9.0
 40
9.0
 40
10.0
 40
10.0
 40
10.0
 40
11.0
 40
11.0
 40
11.0
 40
12.0
 40
12.0
 40
12.0
 40
12.0
 10
79.02222220246666
 20
-293.6089517495145
 30
0.0
 10
79.02222220246666
 20
-295.8181192294309
 30
0.0
 10
77.34166156106855
 20
-297.7365206503923
 30
0.0
 10
75.13253714484534
 20
-297.7365206503923
 30
0.0
 10
72.92339119677567
 20
-297.7365206503923
 30
0.0
 10
71.24280902353077
 20
-296.33333325925
 30
0.0
 10
71.24280902353077
 20
-293.8638888154229
 30
0.0
 10
71.24280902353077
 20
-293.8638888154229
 30
0.0
 10
57.2428237771932
 20
-293.8638888154229
 30
0.0
 10
57.2428237771932
 20
-293.8638888154229
 30
0.0
 10
57.2428237771932
 20
-296.33333325925
 30
0.0
 10
55.34860262016925
 20
-297.7365206503923
 30
0.0
 10
53.13945667209925
 20
-297.7365206503923
 30
0.0
 10
50.93033225587636
 20
-297.7365206503923
 30
0.0
 10
49.03611109885208
 20
-295.8181192294309
 30
0.0
 10
49.03611109885208
 20
-293.6089517495145
 30
0.0
 10
49.03611109885208
 20
-293.6089517495145
 30
0.0
 10
49.03611109885208
 20
-275.1089612484971
 30
0.0
 10
49.03611109885208
 20
-275.1089612484971
 30
0.0
 10
49.03611109885208
 20
-272.8998798959677
 30
0.0
 10
50.93033225587636
 20
-271.3142746988815
 30
0.0
 10
53.13945667209925
 20
-271.3142746988815
 30
0.0
 10
55.34860262016925
 20
-271.3142746988815
 30
0.0
 10
57.2428237771932
 20
-273.4027777094271
 30
0.0
 10
57.2428237771932
 20
-275.5194443755646
 30
0.0
 10
57.2428237771932
 20
-275.5194443755646
 30
0.0
 10
71.24280902353077
 20
-275.5194443755646
 30
0.0
 10
71.24280902353077
 20
-275.5194443755646
 30
0.0
 10
71.24280902353077
 20
-273.4027777094271
 30
0.0
 10
72.92339119677567
 20
-271.3142746988815
 30
0.0
 10
75.13253714484534
 20
-271.3142746988815
 30
0.0
 10
77.34166156106855
 20
-271.3142746988815
 30
0.0
 10
79.02222220246666
 20
-272.8998798959677
 30
0.0
 10
79.02222220246666
 20
-275.1089612484971
 30
0.0
 10
79.02222220246666
 20
-275.1089612484971
 30
0.0
 10
79.02222220246666
 20
-293.6089517495145
 30
0.0
 10
79.02222220246666
 20
-293.6089517495145
 30
0.0
  0
SPLINE
  5
55
330
1F
100
AcDbEntity
  8
Layer 1
370
     0
100
AcDbSpline
210
0.0
220
0.0
230
1.0
 70
    11
 71
     3
 72
    59
 73
    55
 74
     0
 42
0.0000000001
 43
0.0000000001
 12
1.0
 22
0.0
 32
0.0
 13
1.0
 23
0.0
 33
0.0
 40
0.0
 40
0.0
 40
0.0
 40
0.0
 40
1.0
 40
1.0
 40
1.0
 40
2.0
 40
2.0
 40
2.0
 40
3.0
 40
3.0
 40
3.0
 40
4.0
 40
4.0
 40
4.0
 40
5.0
 40
5.0
 40
5.0
 40
6.0
 40
6.0
 40
6.0
 40
7.0
 40
7.0
 40
7.0
 40
8.0
 40
8.0
 40
8.0
 40
9.0
 40
9.0
 40
9.0
 40
10.0
 40
10.0
 40
10.0
 40
11.0
 40
11.0
 40
11.0
 40
12.0
 40
12.0
 40
12.0
 40
13.0
 40
13.0
 40
13.0
 40
14.0
 40
14.0
 40
14.0
 40
15.0
 40
15.0
 40
15.0
 40
16.0
 40
16.0
 40
16.0
 40
17.0
 40
17.0
 40
17.0
 40
18.0
 40
18.0
 40
18.0
 40
18.0
 10
135.2364050633049
 20
-297.8611469795712
 30
0.0
 10
133.0281849846469
 20
-297.8611469795712
 30
0.0
 10
131.2444437334649
 20
-296.33333325925
 30
0.0
 10
131.2429365041905
 20
-293.8638888154229
 30
0.0
 10
131.2429365041905
 20
-293.8638888154229
 30
0.0
 10
117.1222221929417
 20
-293.8638888154229
 30
0.0
 10
117.1222221929417
 20
-293.8638888154229
 30
0.0
 10
117.1222221929417
 20
-293.8638888154229
 30
0.0
 10
117.1222221929417
 20
-293.6104159150957
 30
0.0
 10
117.1222221929417
 20
-293.6111910615799
 30
0.0
 10
117.1222221929417
 20
-295.8202724141092
 30
0.0
 10
115.2744021657347
 20
-297.6111191747292
 30
0.0
 10
113.0652562176647
 20
-297.6111191747292
 30
0.0
 10
110.8561318014418
 20
-297.6111191747292
 30
0.0
 10
109.0083333060813
 20
-295.8202724141092
 30
0.0
 10
109.0083333060813
 20
-293.6111910615799
 30
0.0
 10
109.0083333060813
 20
-293.6104159150957
 30
0.0
 10
109.0083333060813
 20
-293.6097268959986
 30
0.0
 10
109.0083333060813
 20
-293.6089517495145
 30
0.0
 10
109.0083333060813
 20
-293.6089517495145
 30
0.0
 10
109.0083333060813
 20
-275.1089612484971
 30
0.0
 10
109.0083333060813
 20
-275.1089612484971
 30
0.0
 10
109.0083333060813
 20
-275.1089612484971
 30
0.0
 10
109.0083333060813
 20
-275.1084444841743
 30
0.0
 10
109.0083333060813
 20
-275.1080999746258
 30
0.0
 10
109.0083333060813
 20
-272.8989324947093
 30
0.0
 10
110.8561533332889
 20
-271.1080857340893
 30
0.0
 10
113.0652777495115
 20
-271.1080857340893
 30
0.0
 10
115.2744236975811
 20
-271.1080857340893
 30
0.0
 10
117.1222221929417
 20
-272.8989324947093
 30
0.0
 10
117.1222221929417
 20
-275.1080999746258
 30
0.0
 10
117.1222221929417
 20
-275.1084444841743
 30
0.0
 10
117.1222221929417
 20
-275.5194443755646
 30
0.0
 10
117.1222221929417
 20
-275.5194443755646
 30
0.0
 10
117.1222221929417
 20
-275.5194443755646
 30
0.0
 10
131.2428719086498
 20
-275.5194443755646
 30
0.0
 10
131.2428719086498
 20
-275.5194443755646
 30
0.0
 10
131.2435178640533
 20
-273.4027777094271
 30
0.0
 10
133.0340631788183
 20
-271.3153943549142
 30
0.0
 10
135.2428215536459
 20
-271.3153943549142
 30
0.0
 10
137.4515583966267
 20
-271.3153943549142
 30
0.0
 10
139.1179295509953
 20
-273.0030174420574
 30
0.0
 10
139.1185755063987
 20
-275.211582030264
 30
0.0
 10
139.1185755063987
 20
-275.211582030264
 30
0.0
 10
138.9944444096958
 20
-275.1089612484971
 30
0.0
 10
138.9944444096958
 20
-275.1089612484971
 30
0.0
 10
138.9944444096958
 20
-275.1089612484971
 30
0.0
 10
138.9944444096958
 20
-293.8638888154229
 30
0.0
 10
138.9944444096958
 20
-293.8638888154229
 30
0.0
 10
138.9944444096958
 20
-293.8638888154229
 30
0.0
 10
139.2298520905723
 20
-293.8638888154229
 30
0.0
 10
139.2298520905723
 20
-293.8638888154229
 30
0.0
 10
139.2283448612975
 20
-296.33333325925
 30
0.0
 10
137.4446036101158
 20
-297.8611469795712
 30
0.0
 10
135.2364050633049
 20
-297.8611469795712
 30
0.0
  0
HATCH
  5
56
330
1F
100
AcDbEntity
  8
Layer 1
 62
     7
420
 16777215
100
AcDbHatch
 10
0.0
 20
0.0
 30
0.0
210
0.0
220
0.0
230
1.0
  2
SOLID
 70
     1
 71
     0
 91
        3
 92
        1
 93
       16
 72
     1
 10
415.9249998960188
 20
-172.6166666235106
 11
415.9249998960188
 21
-84.6666666455
 72
     1
 10
415.9249998960188
 20
-84.6666666455
 11
33.86666665820002
 21
-84.6666666455
 72
     1
 10
33.8666666582
 20
-84.6666666455
 11
33.8666666582
 21
-144.6388888527292
 72
     1
 10
33.8666666582
 20
-144.6388888527292
 11
15.52222221834167
 21
-144.6388888527292
 72
     1
 10
15.52222221834167
 20
-144.6388888527292
 11
15.52222221834167
 21
-204.6111110599583
 72
     1
 10
15.52222221834167
 20
-204.6111110599583
 11
33.8666666582
 21
-204.6111110599583
 72
     1
 10
33.8666666582
 20
-204.6111110599583
 11
33.8666666582
 21
-364.4194443533396
 72
     1
 10
33.8666666582
 20
-364.4194443533396
 11
15.52222221834167
 21
-364.4194443533396
 72
     1
 10
15.52222221834167
 20
-364.4194443533396
 11
15.52222221834167
 21
-424.3916665605688
 72
     1
 10
15.52222221834167
 20
-424.3916665605688
 11
33.8666666582
 21
-424.3916665605688
 72
     1
 10
33.8666666582
 20
-424.3916665605688
 11
33.8666666582
 21
-484.7166665454875
 72
     1
 10
33.8666666582
 20
-484.7166665454875
 11
415.9249998960188
 21
-484.7166665454875
 72
     1
 10
415.9249998960188
 20
-484.7166665454875
 11
415.9249998960188
 21
-396.4138887897867
 72
     1
 10
415.9249998960188
 20
-396.4138887897867
 11
154.1638888503479
 21
-376.4138887947854
 72
     1
 10
154.1638888503479
 20
-376.4138887947854
 11
154.1638888503479
 21
-192.6166666185125
 72
     1
 10
154.1638888503479
 20
-192.6166666185125
 11
415.9249998960188
 21
-172.6166666235106
 97
        0
 92
        1
 93
        1
 72
     4
 94
        3
 73
     0
 74
     1
 95
       41
 96
       37
 40
0.0
 40
0.0
 40
0.0
 40
0.0
 40
1.0
 40
1.0
 40
1.0
 40
2.0
 40
2.0
 40
2.0
 40
3.0
 40
3.0
 40
3.0
 40
4.0
 40
4.0
 40
4.0
 40
5.0
 40
5.0
 40
5.0
 40
6.0
 40
6.0
 40
6.0
 40
7.0
 40
7.0
 40
7.0
 40
8.0
 40
8.0
 40
8.0
 40
9.0
 40
9.0
 40
9.0
 40
10.0
 40
10.0
 40
10.0
 40
11.0
 40
11.0
 40
11.0
 40
12.0
 40
12.0
 40
12.0
 40
12.0
 10
79.02222220246666
 20
-293.6089517495145
 10
79.02222220246666
 20
-295.8181192294309
 10
77.34166156106855
 20
-297.7365206503923
 10
75.13253714484534
 20
-297.7365206503923
 10
72.92339119677567
 20
-297.7365206503923
 10
71.24280902353077
 20
-296.33333325925
 10
71.24280902353077
 20
-293.8638888154229
 10
71.24280902353077
 20
-293.8638888154229
 10
57.2428237771932
 20
-293.8638888154229
 10
57.2428237771932
 20
-293.8638888154229
 10
57.2428237771932
 20
-296.33333325925
 10
55.34860262016925
 20
-297.7365206503923
 10
53.13945667209925
 20
-297.7365206503923
 10
50.93033225587636
 20
-297.7365206503923
 10
49.03611109885208
 20
-295.8181192294309
 10
49.03611109885208
 20
-293.6089517495145
 10
49.03611109885208
 20
-293.6089517495145
 10
49.03611109885208
 20
-275.1089612484971
 10
49.03611109885208
 20
-275.1089612484971
 10
49.03611109885208
 20
-272.8998798959677
 10
50.93033225587636
 20
-271.3142746988815
 10
53.13945667209925
 20
-271.3142746988815
 10
55.34860262016925
 20
-271.3142746988815
 10
57.2428237771932
 20
-273.4027777094271
 10
57.2428237771932
 20
-275.5194443755646
 10
57.2428237771932
 20
-275.5194443755646
 10
71.24280902353077
 20
-275.5194443755646
 10
71.24280902353077
 20
-275.5194443755646
 10
71.24280902353077
 20
-273.4027777094271
 10
72.92339119677567
 20
-271.3142746988815
 10
75.13253714484534
 20
-271.3142746988815
 10
77.34166156106855
 20
-271.3142746988815
 10
79.02222220246666
 20
-272.8998798959677
 10
79.02222220246666
 20
-275.1089612484971
 10
79.02222220246666
 20
-275.1089612484971
 10
79.02222220246666
 20
-293.6089517495145
 10
79.02222220246666
 20
-293.6089517495145
 97
        0
 97
        0
 92
        1
 93
        1
 72
     4
 94
        3
 73
     0
 74
     1
 95
       59
 96
       55
 40
0.0
 40
0.0
 40
0.0
 40
0.0
 40
1.0
 40
1.0
 40
1.0
 40
2.0
 40
2.0
 40
2.0
 40
3.0
 40
3.0
 40
3.0
 40
4.0
 40
4.0
 40
4.0
 40
5.0
 40
5.0
 40
5.0
 40
6.0
 40
6.0
 40
6.0
 40
7.0
 40
7.0
 40
7.0
 40
8.0
 40
8.0
 40
8.0
 40
9.0
 40
9.0
 40
9.0
 40
10.0
 40
10.0
 40
10.0
 40
11.0
 40
11.0
 40
11.0
 40
12.0
 40
12.0
 40
12.0
 40
13.0
 40
13.0
 40
13.0
 40
14.0
 40
14.0
 40
14.0
 40
15.0
 40
15.0
 40
15.0
 40
16.0
 40
16.0
 40
16.0
 40
17.0
 40
17.0
 40
17.0
 40
18.0
 40
18.0
 40
18.0
 40
18.0
 10
135.2364050633049
 20
-297.8611469795712
 10
133.0281849846469
 20
-297.8611469795712
 10
131.2444437334649
 20
-296.33333325925
 10
131.2429365041905
 20
-293.8638888154229
 10
131.2429365041905
 20
-293.8638888154229
 10
117.1222221929417
 20
-293.8638888154229
 10
117.1222221929417
 20
-293.8638888154229
 10
117.1222221929417
 20
-293.8638888154229
 10
117.1222221929417
 20
-293.6104159150957
 10
117.1222221929417
 20
-293.6111910615799
 10
117.1222221929417
 20
-295.8202724141092
 10
115.2744021657347
 20
-297.6111191747292
 10
113.0652562176647
 20
-297.6111191747292
 10
110.8561318014418
 20
-297.6111191747292
 10
109.0083333060813
 20
-295.8202724141092
 10
109.0083333060813
 20
-293.6111910615799
 10
109.0083333060813
 20
-293.6104159150957
 10
109.0083333060813
 20
-293.6097268959986
 10
109.0083333060813
 20
-293.6089517495145
 10
109.0083333060813
 20
-293.6089517495145
 10
109.0083333060813
 20
-275.1089612484971
 10
109.0083333060813
 20
-275.1089612484971
 10
109.0083333060813
 20
-275.1089612484971
 10
109.0083333060813
 20
-275.1084444841743
 10
109.0083333060813
 20
-275.1080999746258
 10
109.0083333060813
 20
-272.8989324947093
 10
110.8561533332889
 20
-271.1080857340893
 10
113.0652777495115
 20
-271.1080857340893
 10
115.2744236975811
 20
-271.1080857340893
 10
117.1222221929417
 20
-272.8989324947093
 10
117.1222221929417
 20
-275.1080999746258
 10
117.1222221929417
 20
-275.1084444841743
 10
117.1222221929417
 20
-275.5194443755646
 10
117.1222221929417
 20
-275.5194443755646
 10
117.1222221929417
 20
-275.5194443755646
 10
131.2428719086498
 20
-275.5194443755646
 10
131.2428719086498
 20
-275.5194443755646
 10
131.2435178640533
 20
-273.4027777094271
 10
133.0340631788183
 20
-271.3153943549142
 10
135.2428215536459
 20
-271.3153943549142
 10
137.4515583966267
 20
-271.3153943549142
 10
139.1179295509953
 20
-273.0030174420574
 10
139.1185755063987
 20
-275.211582030264
 10
139.1185755063987
 20
-275.211582030264
 10
138.9944444096958
 20
-275.1089612484971
 10
138.9944444096958
 20
-275.1089612484971
 10
138.9944444096958
 20
-275.1089612484971
 10
138.9944444096958
 20
-293.8638888154229
 10
138.9944444096958
 20
-293.8638888154229
 10
138.9944444096958
 20
-293.8638888154229
 10
139.2298520905723
 20
-293.8638888154229
 10
139.2298520905723
 20
-293.8638888154229
 10
139.2283448612975
 20
-296.33333325925
 10
137.4446036101158
 20
-297.8611469795712
 10
135.2364050633049
 20
-297.8611469795712
 97
        0
 97
        0
 75
     2
 76
     1
 98
        0
  0
POLYLINE
  5
57
330
1F
100
AcDbEntity
  8
Layer 1
370
     0
100
AcDb2dPolyline
 66
     1
 10
0.0
 20
0.0
 30
0.0
  0
VERTEX
  5
58
330
57
100
AcDbEntity
  8
Layer 1
370
     0
100
AcDbVertex
100
AcDb2dVertex
 10
174.2722221786542
 20
-285.7499999285625
 30
0.0
  0
VERTEX
  5
59
330
57
100
AcDbEntity
  8
Layer 1
370
     0
100
AcDbVertex
100
AcDb2dVertex
 10
174.2722221786542
 20
-315.7361110321771
 30
0.0
  0
VERTEX
  5
5A
330
57
100
AcDbEntity
  8
Layer 1
370
     0
100
AcDbVertex
100
AcDb2dVertex
 10
192.6166666185125
 20
-315.7361110321771
 30
0.0
  0
VERTEX
  5
5B
330
57
100
AcDbEntity
  8
Layer 1
370
     0
100
AcDbVertex
100
AcDb2dVertex
 10
192.6166666185125
 20
-330.9055554728292
 30
0.0
  0
VERTEX
  5
5C
330
57
100
AcDbEntity
  8
Layer 1
370
     0
100
AcDbVertex
100
AcDb2dVertex
 10
384.5277776816458
 20
-330.9055554728292
 30
0.0
  0
VERTEX
  5
5D
330
57
100
AcDbEntity
  8
Layer 1
370
     0
100
AcDbVertex
100
AcDb2dVertex
 10
384.5277776816458
 20
-349.2499999126875
 30
0.0
  0
VERTEX
  5
5E
330
57
100
AcDbEntity
  8
Layer 1
370
     0
100
AcDbVertex
100
AcDb2dVertex
 10
444.499999888875
 20
-349.2499999126875
 30
0.0
  0
VERTEX
  5
5F
330
57
100
AcDbEntity
  8
Layer 1
370
     0
100
AcDbVertex
100
AcDb2dVertex
 10
444.499999888875
 20
-330.9055554728292
 30
0.0
  0
VERTEX
  5
60
330
57
100
AcDbEntity
  8
Layer 1
370
     0
100
AcDbVertex
100
AcDb2dVertex
 10
504.8249998737938
 20
-330.9055554728292
 30
0.0
  0
VERTEX
  5
61
330
57
100
AcDbEntity
  8
Layer 1
370
     0
100
AcDbVertex
100
AcDb2dVertex
 10
504.8249998737938
 20
-349.2499999126875
 30
0.0
  0
VERTEX
  5
62
330
57
100
AcDbEntity
  8
Layer 1
370
     0
100
AcDbVertex
100
AcDb2dVertex
 10
564.7972220810229
 20
-349.2499999126875
 30
0.0
  0
VERTEX
  5
63
330
57
100
AcDbEntity
  8
Layer 1
370
     0
100
AcDbVertex
100
AcDb2dVertex
 10
564.7972220810229
 20
-330.9055554728292
 30
0.0
  0
VERTEX
  5
64
330
57
100
AcDbEntity
  8
Layer 1
370
     0
100
AcDbVertex
100
AcDb2dVertex
 10
756.3555553664667
 20
-330.9055554728292
 30
0.0
  0
VERTEX
  5
65
330
57
100
AcDbEntity
  8
Layer 1
370
     0
100
AcDbVertex
100
AcDb2dVertex
 10
756.3555553664667
 20
-315.7361110321771
 30
0.0
  0
VERTEX
  5
66
330
57
100
AcDbEntity
  8
Layer 1
370
     0
100
AcDbVertex
100
AcDb2dVertex
 10
773.9944442509459
 20
-315.7361110321771
 30
0.0
  0
VERTEX
  5
67
330
57
100
AcDbEntity
  8
Layer 1
370
     0
100
AcDbVertex
100
AcDb2dVertex
 10
773.9944442509459
 20
-285.7499999285625
 30
0.0
  0
VERTEX
  5
68
330
57
100
AcDbEntity
  8
Layer 1
370
     0
100
AcDbVertex
100
AcDb2dVertex
 10
756.3555553664667
 20
-285.7499999285625
 30
0.0
  0
VERTEX
  5
69
330
57
100
AcDbEntity
  8
Layer 1
370
     0
100
AcDbVertex
100
AcDb2dVertex
 10
756.3555553664667
 20
-255.7638888249479
 30
0.0
  0
VERTEX
  5
6A
330
57
100
AcDbEntity
  8
Layer 1
370
     0
100
AcDbVertex
100
AcDb2dVertex
 10
774.3472220286354
 20
-255.7638888249479
 30
0.0
  0
VERTEX
  5
6B
330
57
100
AcDbEntity
  8
Layer 1
370
     0
100
AcDbVertex
100
AcDb2dVertex
 10
774.3472220286354
 20
-225.7777777213333
 30
0.0
  0
VERTEX
  5
6C
330
57
100
AcDbEntity
  8
Layer 1
370
     0
100
AcDbVertex
100
AcDb2dVertex
 10
756.3555553664667
 20
-225.7777777213333
 30
0.0
  0
VERTEX
  5
6D
330
57
100
AcDbEntity
  8
Layer 1
370
     0
100
AcDbVertex
100
AcDb2dVertex
 10
756.3555553664667
 20
-210.6083332806813
 30
0.0
  0
VERTEX
  5
6E
330
57
100
AcDbEntity
  8
Layer 1
370
     0
100
AcDbVertex
100
AcDb2dVertex
 10
192.6166666185125
 20
-210.6083332806813
 30
0.0
  0
VERTEX
  5
6F
330
57
100
AcDbEntity
  8
Layer 1
370
     0
100
AcDbVertex
100
AcDb2dVertex
 10
192.6166666185125
 20
-225.7777777213333
 30
0.0
  0
VERTEX
  5
70
330
57
100
AcDbEntity
  8
Layer 1
370
     0
100
AcDbVertex
100
AcDb2dVertex
 10
174.2722221786542
 20
-225.7777777213333
 30
0.0
  0
VERTEX
  5
71
330
57
100
AcDbEntity
  8
Layer 1
370
     0
100
AcDbVertex
100
AcDb2dVertex
 10
174.2722221786542
 20
-255.7638888249479
 30
0.0
  0
VERTEX
  5
72
330
57
100
AcDbEntity
  8
Layer 1
370
     0
100
AcDbVertex
100
AcDb2dVertex
 10
192.6166666185125
 20
-255.7638888249479
 30
0.0
  0
VERTEX
  5
73
330
57
100
AcDbEntity
  8
Layer 1
370
     0
100
AcDbVertex
100
AcDb2dVertex
 10
192.6166666185125
 20
-285.7499999285625
 30
0.0
  0
VERTEX
  5
74
330
57
100
AcDbEntity
  8
Layer 1
370
     0
100
AcDbVertex
100
AcDb2dVertex
 10
174.2722221786542
 20
-285.7499999285625
 30
0.0
  0
SEQEND
  5
76
330
57
100
AcDbEntity
  8
Layer 1
370
     0
  0
HATCH
  5
75
330
1F
100
AcDbEntity
  8
Layer 1
 62
     7
420
 16777215
100
AcDbHatch
 10
0.0
 20
0.0
 30
0.0
210
0.0
220
0.0
230
1.0
  2
SOLID
 70
     1
 71
     0
 91
        1
 92
        1
 93
       28
 72
     1
 10
174.2722221786542
 20
-285.7499999285625
 11
174.2722221786542
 21
-315.7361110321771
 72
     1
 10
174.2722221786542
 20
-315.7361110321771
 11
192.6166666185125
 21
-315.7361110321771
 72
     1
 10
192.6166666185125
 20
-315.7361110321771
 11
192.6166666185125
 21
-330.9055554728292
 72
     1
 10
192.6166666185125
 20
-330.9055554728292
 11
384.5277776816458
 21
-330.9055554728292
 72
     1
 10
384.5277776816458
 20
-330.9055554728292
 11
384.5277776816458
 21
-349.2499999126875
 72
     1
 10
384.5277776816458
 20
-349.2499999126875
 11
444.499999888875
 21
-349.2499999126875
 72
     1
 10
444.499999888875
 20
-349.2499999126875
 11
444.499999888875
 21
-330.9055554728292
 72
     1
 10
444.499999888875
 20
-330.9055554728292
 11
504.8249998737938
 21
-330.9055554728292
 72
     1
 10
504.8249998737938
 20
-330.9055554728292
 11
504.8249998737938
 21
-349.2499999126875
 72
     1
 10
504.8249998737938
 20
-349.2499999126875
 11
564.7972220810229
 21
-349.2499999126875
 72
     1
 10
564.7972220810229
 20
-349.2499999126875
 11
564.7972220810229
 21
-330.9055554728292
 72
     1
 10
564.7972220810229
 20
-330.9055554728292
 11
756.3555553664667
 21
-330.9055554728292
 72
     1
 10
756.3555553664667
 20
-330.9055554728292
 11
756.3555553664667
 21
-315.7361110321771
 72
     1
 10
756.3555553664667
 20
-315.7361110321771
 11
773.9944442509459
 21
-315.7361110321771
 72
     1
 10
773.9944442509459
 20
-315.7361110321771
 11
773.9944442509459
 21
-285.7499999285625
 72
     1
 10
773.9944442509459
 20
-285.7499999285625
 11
756.3555553664667
 21
-285.7499999285625
 72
     1
 10
756.3555553664667
 20
-285.7499999285625
 11
756.3555553664667
 21
-255.7638888249479
 72
     1
 10
756.3555553664667
 20
-255.7638888249479
 11
774.3472220286354
 21
-255.7638888249479
 72
     1
 10
774.3472220286354
 20
-255.7638888249479
 11
774.3472220286354
 21
-225.7777777213333
 72
     1
 10
774.3472220286354
 20
-225.7777777213333
 11
756.3555553664667
 21
-225.7777777213333
 72
     1
 10
756.3555553664667
 20
-225.7777777213333
 11
756.3555553664667
 21
-210.6083332806813
 72
     1
 10
756.3555553664667
 20
-210.6083332806813
 11
192.6166666185125
 21
-210.6083332806813
 72
     1
 10
192.6166666185125
 20
-210.6083332806813
 11
192.6166666185125
 21
-225.7777777213333
 72
     1
 10
192.6166666185125
 20
-225.7777777213333
 11
174.2722221786542
 21
-225.7777777213333
 72
     1
 10
174.2722221786542
 20
-225.7777777213333
 11
174.2722221786542
 21
-255.7638888249479
 72
     1
 10
174.2722221786542
 20
-255.7638888249479
 11
192.6166666185125
 21
-255.7638888249479
 72
     1
 10
192.6166666185125
 20
-255.7638888249479
 11
192.6166666185125
 21
-285.7499999285625
 72
     1
 10
192.6166666185125
 20
-285.7499999285625
 11
174.2722221786542
 21
-285.7499999285625
 97
        0
 75
     2
 76
     1
 98
        0
  0
SPLINE
  5
77
330
1F
100
AcDbEntity
  8
Layer 1
370
     0
100
AcDbSpline
210
0.0
220
0.0
230
1.0
 70
    11
 71
     3
 72
   152
 73
   148
 74
     0
 42
0.0000000001
 43
0.0000000001
 12
1.0
 22
0.0
 32
0.0
 13
1.0
 23
0.0
 33
0.0
 40
0.0
 40
0.0
 40
0.0
 40
0.0
 40
1.0
 40
1.0
 40
1.0
 40
2.0
 40
2.0
 40
2.0
 40
3.0
 40
3.0
 40
3.0
 40
4.0
 40
4.0
 40
4.0
 40
5.0
 40
5.0
 40
5.0
 40
6.0
 40
6.0
 40
6.0
 40
7.0
 40
7.0
 40
7.0
 40
8.0
 40
8.0
 40
8.0
 40
9.0
 40
9.0
 40
9.0
 40
10.0
 40
10.0
 40
10.0
 40
11.0
 40
11.0
 40
11.0
 40
12.0
 40
12.0
 40
12.0
 40
13.0
 40
13.0
 40
13.0
 40
14.0
 40
14.0
 40
14.0
 40
15.0
 40
15.0
 40
15.0
 40
16.0
 40
16.0
 40
16.0
 40
17.0
 40
17.0
 40
17.0
 40
18.0
 40
18.0
 40
18.0
 40
19.0
 40
19.0
 40
19.0
 40
20.0
 40
20.0
 40
20.0
 40
21.0
 40
21.0
 40
21.0
 40
22.0
 40
22.0
 40
22.0
 40
23.0
 40
23.0
 40
23.0
 40
24.0
 40
24.0
 40
24.0
 40
25.0
 40
25.0
 40
25.0
 40
26.0
 40
26.0
 40
26.0
 40
27.0
 40
27.0
 40
27.0
 40
28.0
 40
28.0
 40
28.0
 40
29.0
 40
29.0
 40
29.0
 40
30.0
 40
30.0
 40
30.0
 40
31.0
 40
31.0
 40
31.0
 40
32.0
 40
32.0
 40
32.0
 40
33.0
 40
33.0
 40
33.0
 40
34.0
 40
34.0
 40
34.0
 40
35.0
 40
35.0
 40
35.0
 40
36.0
 40
36.0
 40
36.0
 40
37.0
 40
37.0
 40
37.0
 40
38.0
 40
38.0
 40
38.0
 40
39.0
 40
39.0
 40
39.0
 40
40.0
 40
40.0
 40
40.0
 40
41.0
 40
41.0
 40
41.0
 40
42.0
 40
42.0
 40
42.0
 40
43.0
 40
43.0
 40
43.0
 40
44.0
 40
44.0
 40
44.0
 40
45.0
 40
45.0
 40
45.0
 40
46.0
 40
46.0
 40
46.0
 40
47.0
 40
47.0
 40
47.0
 40
48.0
 40
48.0
 40
48.0
 40
49.0
 40
49.0
 40
49.0
 40
49.0
 10
967.3166664248375
 20
-628.6499998428375
 30
0.0
 10
967.3166664248375
 20
-628.6499998428375
 30
0.0
 10
967.3166664248375
 20
-568.6777776356083
 30
0.0
 10
967.3166664248375
 20
-568.6777776356083
 30
0.0
 10
967.3166664248375
 20
-568.6777776356083
 30
0.0
 10
367.5944443525458
 20
-568.6777776356083
 30
0.0
 10
367.5944443525458
 20
-568.6777776356083
 30
0.0
 10
367.5944443525458
 20
-568.6777776356083
 30
0.0
 10
367.5944443525458
 20
-628.6499998428375
 30
0.0
 10
367.5944443525458
 20
-628.6499998428375
 30
0.0
 10
367.5944443525458
 20
-628.6499998428375
 30
0.0
 10
385.7791224892777
 20
-628.6499998428375
 30
0.0
 10
385.7791224892777
 20
-628.6499998428375
 30
0.0
 10
385.7791224892777
 20
-628.6499998428375
 30
0.0
 10
385.7749883746953
 20
-628.6374252443163
 30
0.0
 10
385.7749883746953
 20
-628.6374252443163
 30
0.0
 10
387.9835529629
 20
-628.6379420086391
 30
0.0
 10
389.8579432890392
 20
-630.4159557885766
 30
0.0
 10
389.8579432890392
 20
-632.6246926315594
 30
0.0
 10
389.8579432890392
 20
-634.8335156019273
 30
0.0
 10
388.0555554585417
 20
-636.6241039803858
 30
0.0
 10
385.9388887924042
 20
-636.6246638084009
 30
0.0
 10
385.9388887924042
 20
-636.6246638084009
 30
0.0
 10
385.9388887924042
 20
-680.5083331632063
 30
0.0
 10
385.9388887924042
 20
-680.5083331632063
 30
0.0
 10
385.9388887924042
 20
-680.5083331632063
 30
0.0
 10
385.7798115083747
 20
-680.5083331632063
 30
0.0
 10
385.7801560179232
 20
-680.5083331632063
 30
0.0
 10
387.9893234978397
 20
-680.5083331632063
 30
0.0
 10
389.7801702584578
 20
-682.356153190413
 30
0.0
 10
389.7801702584578
 20
-684.5652776066365
 30
0.0
 10
389.7801702584578
 20
-686.774445086553
 30
0.0
 10
387.9893234978397
 20
-688.6222220500667
 30
0.0
 10
385.7801560179232
 20
-688.6222220500667
 30
0.0
 10
385.7798115083747
 20
-688.6222220500667
 30
0.0
 10
385.7794669988262
 20
-688.6222220500667
 30
0.0
 10
385.7791224892777
 20
-688.6222220500667
 30
0.0
 10
385.7791224892777
 20
-688.6222220500667
 30
0.0
 10
367.5944443525458
 20
-688.6222220500667
 30
0.0
 10
367.5944443525458
 20
-688.6222220500667
 30
0.0
 10
367.5944443525458
 20
-688.6222220500667
 30
0.0
 10
367.5944443525458
 20
-848.7833331211375
 30
0.0
 10
367.5944443525458
 20
-848.7833331211375
 30
0.0
 10
367.5944443525458
 20
-848.7833331211375
 30
0.0
 10
385.7791224892777
 20
-848.7833331211375
 30
0.0
 10
385.7791224892777
 20
-848.7833331211375
 30
0.0
 10
385.7794669988262
 20
-848.7833331211375
 30
0.0
 10
385.7798115083747
 20
-848.7833331211375
 30
0.0
 10
385.7801560179232
 20
-848.7833331211375
 30
0.0
 10
387.9893234978397
 20
-848.7833331211375
 30
0.0
 10
389.7801702584578
 20
-850.6311100846513
 30
0.0
 10
389.7801702584578
 20
-852.8402775645677
 30
0.0
 10
389.7801702584578
 20
-855.0494450444842
 30
0.0
 10
387.9893234978397
 20
-856.8972220079979
 30
0.0
 10
385.7801560179232
 20
-856.8972220079979
 30
0.0
 10
385.7798115083747
 20
-856.8972220079979
 30
0.0
 10
385.9388887924042
 20
-856.8972220079979
 30
0.0
 10
385.9388887924042
 20
-856.8972220079979
 30
0.0
 10
385.9388887924042
 20
-867.1277775609959
 30
0.0
 10
385.9388887924042
 20
-890.6627751137058
 30
0.0
 10
385.9388887924042
 20
-900.8316634575178
 30
0.0
 10
388.0555554585417
 20
-900.8321802218406
 30
0.0
 10
389.9378264406005
 20
-902.6038205751304
 30
0.0
 10
389.9378264406005
 20
-904.8126435454983
 30
0.0
 10
389.9378264406005
 20
-907.021380388481
 30
0.0
 10
388.0555554585417
 20
-908.7930207417708
 30
0.0
 10
385.9388887924042
 20
-908.7935375060935
 30
0.0
 10
385.9388887924042
 20
-908.7935375060935
 30
0.0
 10
385.9388887924042
 20
-908.7555553283667
 30
0.0
 10
385.9388887924042
 20
-908.7555553283667
 30
0.0
 10
385.9388887924042
 20
-908.7555553283667
 30
0.0
 10
367.5944443525458
 20
-908.7555553283667
 30
0.0
 10
367.5944443525458
 20
-908.7555553283667
 30
0.0
 10
367.5944443525458
 20
-908.7555553283667
 30
0.0
 10
367.5944443525458
 20
-968.7277775355959
 30
0.0
 10
367.5944443525458
 20
-968.7277775355959
 30
0.0
 10
367.5944443525458
 20
-968.7277775355959
 30
0.0
 10
967.3166664248375
 20
-968.7277775355959
 30
0.0
 10
967.3166664248375
 20
-968.7277775355959
 30
0.0
 10
967.3166664248375
 20
-968.7277775355959
 30
0.0
 10
967.3166664248375
 20
-908.7555553283667
 30
0.0
 10
967.3166664248375
 20
-908.7555553283667
 30
0.0
 10
967.3166664248375
 20
-908.7555553283667
 30
0.0
 10
949.3001089477898
 20
-908.7555553283667
 30
0.0
 10
949.3001089477898
 20
-908.7555553283667
 30
0.0
 10
949.3001089477898
 20
-908.7555553283667
 30
0.0
 10
949.2622128974521
 20
-908.7935375060935
 30
0.0
 10
949.2622128974521
 20
-908.7935375060935
 30
0.0
 10
947.0536483092436
 20
-908.7930207417708
 30
0.0
 10
945.3136167070329
 20
-907.040414541035
 30
0.0
 10
945.3136167070329
 20
-904.8315915706671
 30
0.0
 10
945.3136167070329
 20
-902.6228547276883
 30
0.0
 10
947.2083330965313
 20
-900.8321802218406
 30
0.0
 10
949.3249997626688
 20
-900.8316634575178
 30
0.0
 10
949.3249997626688
 20
-900.8316634575178
 30
0.0
 10
949.3249997626688
 20
-856.8972220079979
 30
0.0
 10
949.3249997626688
 20
-856.8972220079979
 30
0.0
 10
949.3249997626688
 20
-856.8972220079979
 30
0.0
 10
949.2993338013036
 20
-856.8972220079979
 30
0.0
 10
949.2989892917551
 20
-856.8972220079979
 30
0.0
 10
947.0899079392277
 20
-856.8972220079979
 30
0.0
 10
945.2990611786058
 20
-855.0494450444842
 30
0.0
 10
945.2990611786058
 20
-852.8402775645677
 30
0.0
 10
945.2990611786058
 20
-850.6311100846513
 30
0.0
 10
947.0899079392277
 20
-848.7833331211375
 30
0.0
 10
949.2989892917551
 20
-848.7833331211375
 30
0.0
 10
949.2993338013036
 20
-848.7833331211375
 30
0.0
 10
949.2996783108522
 20
-848.7833331211375
 30
0.0
 10
949.3001089477898
 20
-848.7833331211375
 30
0.0
 10
949.3001089477898
 20
-848.7833331211375
 30
0.0
 10
949.3249997626688
 20
-848.7833331211375
 30
0.0
 10
949.3249997626688
 20
-848.7833331211375
 30
0.0
 10
949.3249997626688
 20
-848.7833331211375
 30
0.0
 10
967.3166664248375
 20
-848.7833331211375
 30
0.0
 10
967.3166664248375
 20
-848.7833331211375
 30
0.0
 10
967.3166664248375
 20
-848.7833331211375
 30
0.0
 10
967.3166664248375
 20
-688.6222220500667
 30
0.0
 10
967.3166664248375
 20
-688.6222220500667
 30
0.0
 10
967.3166664248375
 20
-688.6222220500667
 30
0.0
 10
949.3001089477898
 20
-688.6222220500667
 30
0.0
 10
949.3001089477898
 20
-688.6222220500667
 30
0.0
 10
949.2996783108522
 20
-688.6222220500667
 30
0.0
 10
949.2993338013036
 20
-688.6222220500667
 30
0.0
 10
949.2989892917551
 20
-688.6222220500667
 30
0.0
 10
947.0899079392277
 20
-688.6222220500667
 30
0.0
 10
945.2990611786058
 20
-686.774445086553
 30
0.0
 10
945.2990611786058
 20
-684.5652776066365
 30
0.0
 10
945.2990611786058
 20
-682.356153190413
 30
0.0
 10
947.0899079392277
 20
-680.5083331632063
 30
0.0
 10
949.2989892917551
 20
-680.5083331632063
 30
0.0
 10
949.2993338013036
 20
-680.5083331632063
 30
0.0
 10
949.3249997626688
 20
-680.5083331632063
 30
0.0
 10
949.3249997626688
 20
-680.5083331632063
 30
0.0
 10
949.3249997626688
 20
-680.5083331632063
 30
0.0
 10
949.3249997626688
 20
-636.6246638084009
 30
0.0
 10
949.3249997626688
 20
-636.6246638084009
 30
0.0
 10
947.2083330965313
 20
-636.6241039803858
 30
0.0
 10
945.326105178165
 20
-634.8398459648788
 30
0.0
 10
945.326105178165
 20
-632.6310229945109
 30
0.0
 10
945.326105178165
 20
-630.4222861515314
 30
0.0
 10
947.2083330965313
 20
-628.6379420086391
 30
0.0
 10
949.3249997626688
 20
-628.6374252443163
 30
0.0
 10
949.3249997626688
 20
-628.6374252443163
 30
0.0
 10
949.3249997626688
 20
-628.6499998428375
 30
0.0
 10
949.3249997626688
 20
-628.6499998428375
 30
0.0
 10
949.3249997626688
 20
-628.6499998428375
 30
0.0
 10
967.3166664248375
 20
-628.6499998428375
 30
0.0
 10
967.3166664248375
 20
-628.6499998428375
 30
0.0
  0
SPLINE
  5
78
330
1F
100
AcDbEntity
  8
Layer 1
370
     0
100
AcDbSpline
210
0.0
220
0.0
230
1.0
 70
    11
 71
     3
 72
    47
 73
    43
 74
     0
 42
0.0000000001
 43
0.0000000001
 12
1.0
 22
0.0
 32
0.0
 13
1.0
 23
0.0
 33
0.0
 40
0.0
 40
0.0
 40
0.0
 40
0.0
 40
1.0
 40
1.0
 40
1.0
 40
2.0
 40
2.0
 40
2.0
 40
3.0
 40
3.0
 40
3.0
 40
4.0
 40
4.0
 40
4.0
 40
5.0
 40
5.0
 40
5.0
 40
6.0
 40
6.0
 40
6.0
 40
7.0
 40
7.0
 40
7.0
 40
8.0
 40
8.0
 40
8.0
 40
9.0
 40
9.0
 40
9.0
 40
10.0
 40
10.0
 40
10.0
 40
11.0
 40
11.0
 40
11.0
 40
12.0
 40
12.0
 40
12.0
 40
13.0
 40
13.0
 40
13.0
 40
14.0
 40
14.0
 40
14.0
 40
14.0
 10
637.8222220627667
 20
-777.8749998055313
 30
0.0
 10
637.8222220627667
 20
-777.8749998055313
 30
0.0
 10
637.4842151319708
 20
-777.8749998055313
 30
0.0
 10
637.4842151319708
 20
-777.8749998055313
 30
0.0
 10
637.4841720682784
 20
-780.3444442493584
 30
0.0
 10
635.6933253076566
 20
-781.8749279186806
 30
0.0
 10
633.4842439551292
 20
-781.8749279186806
 30
0.0
 10
631.2750764752127
 20
-781.8749279186806
 30
0.0
 10
629.4842727782838
 20
-780.3444442493584
 30
0.0
 10
629.4842297145908
 20
-777.8749998055313
 30
0.0
 10
629.4842297145908
 20
-777.8749998055313
 30
0.0
 10
585.5396252333894
 20
-777.8749998055313
 30
0.0
 10
585.5396252333894
 20
-777.8749998055313
 30
0.0
 10
585.5395391060042
 20
-780.3444442493584
 30
0.0
 10
583.9038938969928
 20
-781.9265182235741
 30
0.0
 10
581.6948125444654
 20
-781.9265182235741
 30
0.0
 10
579.4856881282412
 20
-781.9265182235741
 30
0.0
 10
577.8499998555375
 20
-780.1872617678458
 30
0.0
 10
577.8499998555375
 20
-777.9781804153146
 30
0.0
 10
577.8499998555375
 20
-777.9781804153146
 30
0.0
 10
577.8499998555375
 20
-759.4781899142971
 30
0.0
 10
577.8499998555375
 20
-759.4781899142971
 30
0.0
 10
577.8499998555375
 20
-757.2690224343806
 30
0.0
 10
579.4856881282412
 20
-755.5044445268358
 30
0.0
 10
581.6948125444654
 20
-755.5044445268358
 30
0.0
 10
583.9038938969928
 20
-755.5044445268358
 30
0.0
 10
585.5395391060042
 20
-757.4138886995355
 30
0.0
 10
585.5396252333894
 20
-759.530555365673
 30
0.0
 10
585.5396252333894
 20
-759.530555365673
 30
0.0
 10
629.4842297145908
 20
-759.530555365673
 30
0.0
 10
629.4842297145908
 20
-759.530555365673
 30
0.0
 10
629.4842727782838
 20
-757.4138886995355
 30
0.0
 10
631.2750764752127
 20
-755.5306272525236
 30
0.0
 10
633.4842439551292
 20
-755.5306272525236
 30
0.0
 10
635.6933253076566
 20
-755.5306272525236
 30
0.0
 10
637.4841720682784
 20
-757.4138886995355
 30
0.0
 10
637.4842151319708
 20
-759.530555365673
 30
0.0
 10
637.4842151319708
 20
-759.530555365673
 30
0.0
 10
637.8222220627667
 20
-759.530555365673
 30
0.0
 10
637.8222220627667
 20
-759.530555365673
 30
0.0
 10
637.8222220627667
 20
-759.530555365673
 30
0.0
 10
637.8222220627667
 20
-777.8749998055313
 30
0.0
 10
637.8222220627667
 20
-777.8749998055313
 30
0.0
  0
SPLINE
  5
79
330
1F
100
AcDbEntity
  8
Layer 1
370
     0
100
AcDbSpline
210
0.0
220
0.0
230
1.0
 70
    11
 71
     3
 72
    65
 73
    61
 74
     0
 42
0.0000000001
 43
0.0000000001
 12
1.0
 22
0.0
 32
0.0
 13
1.0
 23
0.0
 33
0.0
 40
0.0
 40
0.0
 40
0.0
 40
0.0
 40
1.0
 40
1.0
 40
1.0
 40
2.0
 40
2.0
 40
2.0
 40
3.0
 40
3.0
 40
3.0
 40
4.0
 40
4.0
 40
4.0
 40
5.0
 40
5.0
 40
5.0
 40
6.0
 40
6.0
 40
6.0
 40
7.0
 40
7.0
 40
7.0
 40
8.0
 40
8.0
 40
8.0
 40
9.0
 40
9.0
 40
9.0
 40
10.0
 40
10.0
 40
10.0
 40
11.0
 40
11.0
 40
11.0
 40
12.0
 40
12.0
 40
12.0
 40
13.0
 40
13.0
 40
13.0
 40
14.0
 40
14.0
 40
14.0
 40
15.0
 40
15.0
 40
15.0
 40
16.0
 40
16.0
 40
16.0
 40
17.0
 40
17.0
 40
17.0
 40
18.0
 40
18.0
 40
18.0
 40
19.0
 40
19.0
 40
19.0
 40
20.0
 40
20.0
 40
20.0
 40
20.0
 10
757.766666477225
 20
-759.530555365673
 30
0.0
 10
757.766666477225
 20
-759.530555365673
 30
0.0
 10
757.766666477225
 20
-777.8749998055313
 30
0.0
 10
757.766666477225
 20
-777.8749998055313
 30
0.0
 10
757.766666477225
 20
-777.8749998055313
 30
0.0
 10
757.766666477225
 20
-777.9787833070263
 30
0.0
 10
757.766666477225
 20
-777.9791278165749
 30
0.0
 10
757.766666477225
 20
-780.1882952964913
 30
0.0
 10
755.9188895137113
 20
-781.9791420571095
 30
0.0
 10
753.7097220337948
 20
-781.9791420571095
 30
0.0
 10
751.5005545538784
 20
-781.9791420571095
 30
0.0
 10
749.6527775903646
 20
-780.1882952964913
 30
0.0
 10
749.6527775903646
 20
-777.9791278165749
 30
0.0
 10
749.6527775903646
 20
-777.9787833070263
 30
0.0
 10
749.6527775903646
 20
-777.8749998055313
 30
0.0
 10
749.6527775903646
 20
-777.8749998055313
 30
0.0
 10
749.6527775903646
 20
-777.8749998055313
 30
0.0
 10
705.5555553791667
 20
-777.8749998055313
 30
0.0
 10
705.5555553791667
 20
-777.8749998055313
 30
0.0
 10
705.5555553791667
 20
-777.8749998055313
 30
0.0
 10
705.5555553791667
 20
-777.9787833070263
 30
0.0
 10
705.5555553791667
 20
-777.9791278165749
 30
0.0
 10
705.5555553791667
 20
-780.1882952964913
 30
0.0
 10
703.8841242408048
 20
-781.9791420571095
 30
0.0
 10
701.6749998245813
 20
-781.9791420571095
 30
0.0
 10
699.4658323446648
 20
-781.9791420571095
 30
0.0
 10
697.7944442699959
 20
-780.1882952964913
 30
0.0
 10
697.7944442699959
 20
-777.9791278165749
 30
0.0
 10
697.7944442699959
 20
-777.9787833070263
 30
0.0
 10
697.7944442699959
 20
-777.978524924863
 30
0.0
 10
697.7944442699959
 20
-777.9781804153146
 30
0.0
 10
697.7944442699959
 20
-777.9781804153146
 30
0.0
 10
697.7944442699959
 20
-759.4781899142971
 30
0.0
 10
697.7944442699959
 20
-759.4781899142971
 30
0.0
 10
697.7944442699959
 20
-759.4778454047487
 30
0.0
 10
697.7944442699959
 20
-759.4775008952001
 30
0.0
 10
697.7944442699959
 20
-759.4772425130407
 30
0.0
 10
697.7944442699959
 20
-757.2680750331242
 30
0.0
 10
699.4658323446648
 20
-755.4772282725022
 30
0.0
 10
701.6749998245813
 20
-755.4772282725022
 30
0.0
 10
703.8841242408048
 20
-755.4772282725022
 30
0.0
 10
705.5555553791667
 20
-757.2680750331242
 30
0.0
 10
705.5555553791667
 20
-759.4772425130407
 30
0.0
 10
705.5555553791667
 20
-759.4775008952001
 30
0.0
 10
705.5555553791667
 20
-759.530555365673
 30
0.0
 10
705.5555553791667
 20
-759.530555365673
 30
0.0
 10
705.5555553791667
 20
-759.530555365673
 30
0.0
 10
749.6527775903646
 20
-759.530555365673
 30
0.0
 10
749.6527775903646
 20
-759.530555365673
 30
0.0
 10
749.6527775903646
 20
-759.530555365673
 30
0.0
 10
749.6527775903646
 20
-759.4775008952001
 30
0.0
 10
749.6527775903646
 20
-759.4772425130407
 30
0.0
 10
749.6527775903646
 20
-757.2680750331242
 30
0.0
 10
751.5005545538784
 20
-755.4772282725022
 30
0.0
 10
753.7097220337948
 20
-755.4772282725022
 30
0.0
 10
755.9188895137113
 20
-755.4772282725022
 30
0.0
 10
757.766666477225
 20
-757.2680750331242
 30
0.0
 10
757.766666477225
 20
-759.4772425130407
 30
0.0
 10
757.766666477225
 20
-759.4775008952001
 30
0.0
 10
757.766666477225
 20
-759.530555365673
 30
0.0
 10
757.766666477225
 20
-759.530555365673
 30
0.0
  0
HATCH
  5
7A
330
1F
100
AcDbEntity
  8
Layer 1
 62
     7
420
 16777215
100
AcDbHatch
 10
0.0
 20
0.0
 30
0.0
210
0.0
220
0.0
230
1.0
  2
SOLID
 70
     1
 71
     0
 91
        3
 92
        1
 93
        1
 72
     4
 94
        3
 73
     0
 74
     1
 95
      152
 96
      148
 40
0.0
 40
0.0
 40
0.0
 40
0.0
 40
1.0
 40
1.0
 40
1.0
 40
2.0
 40
2.0
 40
2.0
 40
3.0
 40
3.0
 40
3.0
 40
4.0
 40
4.0
 40
4.0
 40
5.0
 40
5.0
 40
5.0
 40
6.0
 40
6.0
 40
6.0
 40
7.0
 40
7.0
 40
7.0
 40
8.0
 40
8.0
 40
8.0
 40
9.0
 40
9.0
 40
9.0
 40
10.0
 40
10.0
 40
10.0
 40
11.0
 40
11.0
 40
11.0
 40
12.0
 40
12.0
 40
12.0
 40
13.0
 40
13.0
 40
13.0
 40
14.0
 40
14.0
 40
14.0
 40
15.0
 40
15.0
 40
15.0
 40
16.0
 40
16.0
 40
16.0
 40
17.0
 40
17.0
 40
17.0
 40
18.0
 40
18.0
 40
18.0
 40
19.0
 40
19.0
 40
19.0
 40
20.0
 40
20.0
 40
20.0
 40
21.0
 40
21.0
 40
21.0
 40
22.0
 40
22.0
 40
22.0
 40
23.0
 40
23.0
 40
23.0
 40
24.0
 40
24.0
 40
24.0
 40
25.0
 40
25.0
 40
25.0
 40
26.0
 40
26.0
 40
26.0
 40
27.0
 40
27.0
 40
27.0
 40
28.0
 40
28.0
 40
28.0
 40
29.0
 40
29.0
 40
29.0
 40
30.0
 40
30.0
 40
30.0
 40
31.0
 40
31.0
 40
31.0
 40
32.0
 40
32.0
 40
32.0
 40
33.0
 40
33.0
 40
33.0
 40
34.0
 40
34.0
 40
34.0
 40
35.0
 40
35.0
 40
35.0
 40
36.0
 40
36.0
 40
36.0
 40
37.0
 40
37.0
 40
37.0
 40
38.0
 40
38.0
 40
38.0
 40
39.0
 40
39.0
 40
39.0
 40
40.0
 40
40.0
 40
40.0
 40
41.0
 40
41.0
 40
41.0
 40
42.0
 40
42.0
 40
42.0
 40
43.0
 40
43.0
 40
43.0
 40
44.0
 40
44.0
 40
44.0
 40
45.0
 40
45.0
 40
45.0
 40
46.0
 40
46.0
 40
46.0
 40
47.0
 40
47.0
 40
47.0
 40
48.0
 40
48.0
 40
48.0
 40
49.0
 40
49.0
 40
49.0
 40
49.0
 10
967.3166664248375
 20
-628.6499998428375
 10
967.3166664248375
 20
-628.6499998428375
 10
967.3166664248375
 20
-568.6777776356083
 10
967.3166664248375
 20
-568.6777776356083
 10
967.3166664248375
 20
-568.6777776356083
 10
367.5944443525458
 20
-568.6777776356083
 10
367.5944443525458
 20
-568.6777776356083
 10
367.5944443525458
 20
-568.6777776356083
 10
367.5944443525458
 20
-628.6499998428375
 10
367.5944443525458
 20
-628.6499998428375
 10
367.5944443525458
 20
-628.6499998428375
 10
385.7791224892777
 20
-628.6499998428375
 10
385.7791224892777
 20
-628.6499998428375
 10
385.7791224892777
 20
-628.6499998428375
 10
385.7749883746953
 20
-628.6374252443163
 10
385.7749883746953
 20
-628.6374252443163
 10
387.9835529629
 20
-628.6379420086391
 10
389.8579432890392
 20
-630.4159557885766
 10
389.8579432890392
 20
-632.6246926315594
 10
389.8579432890392
 20
-634.8335156019273
 10
388.0555554585417
 20
-636.6241039803858
 10
385.9388887924042
 20
-636.6246638084009
 10
385.9388887924042
 20
-636.6246638084009
 10
385.9388887924042
 20
-680.5083331632063
 10
385.9388887924042
 20
-680.5083331632063
 10
385.9388887924042
 20
-680.5083331632063
 10
385.7798115083747
 20
-680.5083331632063
 10
385.7801560179232
 20
-680.5083331632063
 10
387.9893234978397
 20
-680.5083331632063
 10
389.7801702584578
 20
-682.356153190413
 10
389.7801702584578
 20
-684.5652776066365
 10
389.7801702584578
 20
-686.774445086553
 10
387.9893234978397
 20
-688.6222220500667
 10
385.7801560179232
 20
-688.6222220500667
 10
385.7798115083747
 20
-688.6222220500667
 10
385.7794669988262
 20
-688.6222220500667
 10
385.7791224892777
 20
-688.6222220500667
 10
385.7791224892777
 20
-688.6222220500667
 10
367.5944443525458
 20
-688.6222220500667
 10
367.5944443525458
 20
-688.6222220500667
 10
367.5944443525458
 20
-688.6222220500667
 10
367.5944443525458
 20
-848.7833331211375
 10
367.5944443525458
 20
-848.7833331211375
 10
367.5944443525458
 20
-848.7833331211375
 10
385.7791224892777
 20
-848.7833331211375
 10
385.7791224892777
 20
-848.7833331211375
 10
385.7794669988262
 20
-848.7833331211375
 10
385.7798115083747
 20
-848.7833331211375
 10
385.7801560179232
 20
-848.7833331211375
 10
387.9893234978397
 20
-848.7833331211375
 10
389.7801702584578
 20
-850.6311100846513
 10
389.7801702584578
 20
-852.8402775645677
 10
389.7801702584578
 20
-855.0494450444842
 10
387.9893234978397
 20
-856.8972220079979
 10
385.7801560179232
 20
-856.8972220079979
 10
385.7798115083747
 20
-856.8972220079979
 10
385.9388887924042
 20
-856.8972220079979
 10
385.9388887924042
 20
-856.8972220079979
 10
385.9388887924042
 20
-867.1277775609959
 10
385.9388887924042
 20
-890.6627751137058
 10
385.9388887924042
 20
-900.8316634575178
 10
388.0555554585417
 20
-900.8321802218406
 10
389.9378264406005
 20
-902.6038205751304
 10
389.9378264406005
 20
-904.8126435454983
 10
389.9378264406005
 20
-907.021380388481
 10
388.0555554585417
 20
-908.7930207417708
 10
385.9388887924042
 20
-908.7935375060935
 10
385.9388887924042
 20
-908.7935375060935
 10
385.9388887924042
 20
-908.7555553283667
 10
385.9388887924042
 20
-908.7555553283667
 10
385.9388887924042
 20
-908.7555553283667
 10
367.5944443525458
 20
-908.7555553283667
 10
367.5944443525458
 20
-908.7555553283667
 10
367.5944443525458
 20
-908.7555553283667
 10
367.5944443525458
 20
-968.7277775355959
 10
367.5944443525458
 20
-968.7277775355959
 10
367.5944443525458
 20
-968.7277775355959
 10
967.3166664248375
 20
-968.7277775355959
 10
967.3166664248375
 20
-968.7277775355959
 10
967.3166664248375
 20
-968.7277775355959
 10
967.3166664248375
 20
-908.7555553283667
 10
967.3166664248375
 20
-908.7555553283667
 10
967.3166664248375
 20
-908.7555553283667
 10
949.3001089477898
 20
-908.7555553283667
 10
949.3001089477898
 20
-908.7555553283667
 10
949.3001089477898
 20
-908.7555553283667
 10
949.2622128974521
 20
-908.7935375060935
 10
949.2622128974521
 20
-908.7935375060935
 10
947.0536483092436
 20
-908.7930207417708
 10
945.3136167070329
 20
-907.040414541035
 10
945.3136167070329
 20
-904.8315915706671
 10
945.3136167070329
 20
-902.6228547276883
 10
947.2083330965313
 20
-900.8321802218406
 10
949.3249997626688
 20
-900.8316634575178
 10
949.3249997626688
 20
-900.8316634575178
 10
949.3249997626688
 20
-856.8972220079979
 10
949.3249997626688
 20
-856.8972220079979
 10
949.3249997626688
 20
-856.8972220079979
 10
949.2993338013036
 20
-856.8972220079979
 10
949.2989892917551
 20
-856.8972220079979
 10
947.0899079392277
 20
-856.8972220079979
 10
945.2990611786058
 20
-855.0494450444842
 10
945.2990611786058
 20
-852.8402775645677
 10
945.2990611786058
 20
-850.6311100846513
 10
947.0899079392277
 20
-848.7833331211375
 10
949.2989892917551
 20
-848.7833331211375
 10
949.2993338013036
 20
-848.7833331211375
 10
949.2996783108522
 20
-848.7833331211375
 10
949.3001089477898
 20
-848.7833331211375
 10
949.3001089477898
 20
-848.7833331211375
 10
949.3249997626688
 20
-848.7833331211375
 10
949.3249997626688
 20
-848.7833331211375
 10
949.3249997626688
 20
-848.7833331211375
 10
967.3166664248375
 20
-848.7833331211375
 10
967.3166664248375
 20
-848.7833331211375
 10
967.3166664248375
 20
-848.7833331211375
 10
967.3166664248375
 20
-688.6222220500667
 10
967.3166664248375
 20
-688.6222220500667
 10
967.3166664248375
 20
-688.6222220500667
 10
949.3001089477898
 20
-688.6222220500667
 10
949.3001089477898
 20
-688.6222220500667
 10
949.2996783108522
 20
-688.6222220500667
 10
949.2993338013036
 20
-688.6222220500667
 10
949.2989892917551
 20
-688.6222220500667
 10
947.0899079392277
 20
-688.6222220500667
 10
945.2990611786058
 20
-686.774445086553
 10
945.2990611786058
 20
-684.5652776066365
 10
945.2990611786058
 20
-682.356153190413
 10
947.0899079392277
 20
-680.5083331632063
 10
949.2989892917551
 20
-680.5083331632063
 10
949.2993338013036
 20
-680.5083331632063
 10
949.3249997626688
 20
-680.5083331632063
 10
949.3249997626688
 20
-680.5083331632063
 10
949.3249997626688
 20
-680.5083331632063
 10
949.3249997626688
 20
-636.6246638084009
 10
949.3249997626688
 20
-636.6246638084009
 10
947.2083330965313
 20
-636.6241039803858
 10
945.326105178165
 20
-634.8398459648788
 10
945.326105178165
 20
-632.6310229945109
 10
945.326105178165
 20
-630.4222861515314
 10
947.2083330965313
 20
-628.6379420086391
 10
949.3249997626688
 20
-628.6374252443163
 10
949.3249997626688
 20
-628.6374252443163
 10
949.3249997626688
 20
-628.6499998428375
 10
949.3249997626688
 20
-628.6499998428375
 10
949.3249997626688
 20
-628.6499998428375
 10
967.3166664248375
 20
-628.6499998428375
 10
967.3166664248375
 20
-628.6499998428375
 97
        0
 97
        0
 92
        1
 93
        1
 72
     4
 94
        3
 73
     0
 74
     1
 95
       47
 96
       43
 40
0.0
 40
0.0
 40
0.0
 40
0.0
 40
1.0
 40
1.0
 40
1.0
 40
2.0
 40
2.0
 40
2.0
 40
3.0
 40
3.0
 40
3.0
 40
4.0
 40
4.0
 40
4.0
 40
5.0
 40
5.0
 40
5.0
 40
6.0
 40
6.0
 40
6.0
 40
7.0
 40
7.0
 40
7.0
 40
8.0
 40
8.0
 40
8.0
 40
9.0
 40
9.0
 40
9.0
 40
10.0
 40
10.0
 40
10.0
 40
11.0
 40
11.0
 40
11.0
 40
12.0
 40
12.0
 40
12.0
 40
13.0
 40
13.0
 40
13.0
 40
14.0
 40
14.0
 40
14.0
 40
14.0
 10
637.8222220627667
 20
-777.8749998055313
 10
637.8222220627667
 20
-777.8749998055313
 10
637.4842151319708
 20
-777.8749998055313
 10
637.4842151319708
 20
-777.8749998055313
 10
637.4841720682784
 20
-780.3444442493584
 10
635.6933253076566
 20
-781.8749279186806
 10
633.4842439551292
 20
-781.8749279186806
 10
631.2750764752127
 20
-781.8749279186806
 10
629.4842727782838
 20
-780.3444442493584
 10
629.4842297145908
 20
-777.8749998055313
 10
629.4842297145908
 20
-777.8749998055313
 10
585.5396252333894
 20
-777.8749998055313
 10
585.5396252333894
 20
-777.8749998055313
 10
585.5395391060042
 20
-780.3444442493584
 10
583.9038938969928
 20
-781.9265182235741
 10
581.6948125444654
 20
-781.9265182235741
 10
579.4856881282412
 20
-781.9265182235741
 10
577.8499998555375
 20
-780.1872617678458
 10
577.8499998555375
 20
-777.9781804153146
 10
577.8499998555375
 20
-777.9781804153146
 10
577.8499998555375
 20
-759.4781899142971
 10
577.8499998555375
 20
-759.4781899142971
 10
577.8499998555375
 20
-757.2690224343806
 10
579.4856881282412
 20
-755.5044445268358
 10
581.6948125444654
 20
-755.5044445268358
 10
583.9038938969928
 20
-755.5044445268358
 10
585.5395391060042
 20
-757.4138886995355
 10
585.5396252333894
 20
-759.530555365673
 10
585.5396252333894
 20
-759.530555365673
 10
629.4842297145908
 20
-759.530555365673
 10
629.4842297145908
 20
-759.530555365673
 10
629.4842727782838
 20
-757.4138886995355
 10
631.2750764752127
 20
-755.5306272525236
 10
633.4842439551292
 20
-755.5306272525236
 10
635.6933253076566
 20
-755.5306272525236
 10
637.4841720682784
 20
-757.4138886995355
 10
637.4842151319708
 20
-759.530555365673
 10
637.4842151319708
 20
-759.530555365673
 10
637.8222220627667
 20
-759.530555365673
 10
637.8222220627667
 20
-759.530555365673
 10
637.8222220627667
 20
-759.530555365673
 10
637.8222220627667
 20
-777.8749998055313
 10
637.8222220627667
 20
-777.8749998055313
 97
        0
 97
        0
 92
        1
 93
        1
 72
     4
 94
        3
 73
     0
 74
     1
 95
       65
 96
       61
 40
0.0
 40
0.0
 40
0.0
 40
0.0
 40
1.0
 40
1.0
 40
1.0
 40
2.0
 40
2.0
 40
2.0
 40
3.0
 40
3.0
 40
3.0
 40
4.0
 40
4.0
 40
4.0
 40
5.0
 40
5.0
 40
5.0
 40
6.0
 40
6.0
 40
6.0
 40
7.0
 40
7.0
 40
7.0
 40
8.0
 40
8.0
 40
8.0
 40
9.0
 40
9.0
 40
9.0
 40
10.0
 40
10.0
 40
10.0
 40
11.0
 40
11.0
 40
11.0
 40
12.0
 40
12.0
 40
12.0
 40
13.0
 40
13.0
 40
13.0
 40
14.0
 40
14.0
 40
14.0
 40
15.0
 40
15.0
 40
15.0
 40
16.0
 40
16.0
 40
16.0
 40
17.0
 40
17.0
 40
17.0
 40
18.0
 40
18.0
 40
18.0
 40
19.0
 40
19.0
 40
19.0
 40
20.0
 40
20.0
 40
20.0
 40
20.0
 10
757.766666477225
 20
-759.530555365673
 10
757.766666477225
 20
-759.530555365673
 10
757.766666477225
 20
-777.8749998055313
 10
757.766666477225
 20
-777.8749998055313
 10
757.766666477225
 20
-777.8749998055313
 10
757.766666477225
 20
-777.9787833070263
 10
757.766666477225
 20
-777.9791278165749
 10
757.766666477225
 20
-780.1882952964913
 10
755.9188895137113
 20
-781.9791420571095
 10
753.7097220337948
 20
-781.9791420571095
 10
751.5005545538784
 20
-781.9791420571095
 10
749.6527775903646
 20
-780.1882952964913
 10
749.6527775903646
 20
-777.9791278165749
 10
749.6527775903646
 20
-777.9787833070263
 10
749.6527775903646
 20
-777.8749998055313
 10
749.6527775903646
 20
-777.8749998055313
 10
749.6527775903646
 20
-777.8749998055313
 10
705.5555553791667
 20
-777.8749998055313
 10
705.5555553791667
 20
-777.8749998055313
 10
705.5555553791667
 20
-777.8749998055313
 10
705.5555553791667
 20
-777.9787833070263
 10
705.5555553791667
 20
-777.9791278165749
 10
705.5555553791667
 20
-780.1882952964913
 10
703.8841242408048
 20
-781.9791420571095
 10
701.6749998245813
 20
-781.9791420571095
 10
699.4658323446648
 20
-781.9791420571095
 10
697.7944442699959
 20
-780.1882952964913
 10
697.7944442699959
 20
-777.9791278165749
 10
697.7944442699959
 20
-777.9787833070263
 10
697.7944442699959
 20
-777.978524924863
 10
697.7944442699959
 20
-777.9781804153146
 10
697.7944442699959
 20
-777.9781804153146
 10
697.7944442699959
 20
-759.4781899142971
 10
697.7944442699959
 20
-759.4781899142971
 10
697.7944442699959
 20
-759.4778454047487
 10
697.7944442699959
 20
-759.4775008952001
 10
697.7944442699959
 20
-759.4772425130407
 10
697.7944442699959
 20
-757.2680750331242
 10
699.4658323446648
 20
-755.4772282725022
 10
701.6749998245813
 20
-755.4772282725022
 10
703.8841242408048
 20
-755.4772282725022
 10
705.5555553791667
 20
-757.2680750331242
 10
705.5555553791667
 20
-759.4772425130407
 10
705.5555553791667
 20
-759.4775008952001
 10
705.5555553791667
 20
-759.530555365673
 10
705.5555553791667
 20
-759.530555365673
 10
705.5555553791667
 20
-759.530555365673
 10
749.6527775903646
 20
-759.530555365673
 10
749.6527775903646
 20
-759.530555365673
 10
749.6527775903646
 20
-759.530555365673
 10
749.6527775903646
 20
-759.4775008952001
 10
749.6527775903646
 20
-759.4772425130407
 10
749.6527775903646
 20
-757.2680750331242
 10
751.5005545538784
 20
-755.4772282725022
 10
753.7097220337948
 20
-755.4772282725022
 10
755.9188895137113
 20
-755.4772282725022
 10
757.766666477225
 20
-757.2680750331242
 10
757.766666477225
 20
-759.4772425130407
 10
757.766666477225
 20
-759.4775008952001
 10
757.766666477225
 20
-759.530555365673
 10
757.766666477225
 20
-759.530555365673
 97
        0
 97
        0
 75
     2
 76
     1
 98
        0
  0
POLYLINE
  5
7B
330
1F
100
AcDbEntity
  8
Layer 1
370
     0
100
AcDb2dPolyline
 66
     1
 10
0.0
 20
0.0
 30
0.0
  0
VERTEX
  5
7C
330
7B
100
AcDbEntity
  8
Layer 1
370
     0
100
AcDbVertex
100
AcDb2dVertex
 10
939.7999997650501
 20
-204.6111110599583
 30
0.0
  0
VERTEX
  5
7D
330
7B
100
AcDbEntity
  8
Layer 1
370
     0
100
AcDbVertex
100
AcDb2dVertex
 10
939.7999997650501
 20
-144.6388888527292
 30
0.0
  0
VERTEX
  5
7E
330
7B
100
AcDbEntity
  8
Layer 1
370
     0
100
AcDbVertex
100
AcDb2dVertex
 10
921.4555553251917
 20
-144.6388888527292
 30
0.0
  0
VERTEX
  5
7F
330
7B
100
AcDbEntity
  8
Layer 1
370
     0
100
AcDbVertex
100
AcDb2dVertex
 10
921.4555553251917
 20
-84.6666666455
 30
0.0
  0
VERTEX
  5
80
330
7B
100
AcDbEntity
  8
Layer 1
370
     0
100
AcDbVertex
100
AcDb2dVertex
 10
539.3972220873729
 20
-84.6666666455
 30
0.0
  0
VERTEX
  5
81
330
7B
100
AcDbEntity
  8
Layer 1
370
     0
100
AcDbVertex
100
AcDb2dVertex
 10
539.3972220873729
 20
-172.6166666235106
 30
0.0
  0
VERTEX
  5
82
330
7B
100
AcDbEntity
  8
Layer 1
370
     0
100
AcDbVertex
100
AcDb2dVertex
 10
801.1583331330438
 20
-192.6166666185125
 30
0.0
  0
VERTEX
  5
83
330
7B
100
AcDbEntity
  8
Layer 1
370
     0
100
AcDbVertex
100
AcDb2dVertex
 10
801.1583331330438
 20
-376.4138887947854
 30
0.0
  0
VERTEX
  5
84
330
7B
100
AcDbEntity
  8
Layer 1
370
     0
100
AcDbVertex
100
AcDb2dVertex
 10
539.3972220873729
 20
-396.4138887897867
 30
0.0
  0
VERTEX
  5
85
330
7B
100
AcDbEntity
  8
Layer 1
370
     0
100
AcDbVertex
100
AcDb2dVertex
 10
539.3972220873729
 20
-484.7166665454875
 30
0.0
  0
VERTEX
  5
86
330
7B
100
AcDbEntity
  8
Layer 1
370
     0
100
AcDbVertex
100
AcDb2dVertex
 10
921.4555553251917
 20
-484.7166665454875
 30
0.0
  0
VERTEX
  5
87
330
7B
100
AcDbEntity
  8
Layer 1
370
     0
100
AcDbVertex
100
AcDb2dVertex
 10
921.4555553251917
 20
-424.3916665605688
 30
0.0
  0
VERTEX
  5
88
330
7B
100
AcDbEntity
  8
Layer 1
370
     0
100
AcDbVertex
100
AcDb2dVertex
 10
939.7999997650501
 20
-424.3916665605688
 30
0.0
  0
VERTEX
  5
89
330
7B
100
AcDbEntity
  8
Layer 1
370
     0
100
AcDbVertex
100
AcDb2dVertex
 10
939.7999997650501
 20
-364.4194443533396
 30
0.0
  0
VERTEX
  5
8A
330
7B
100
AcDbEntity
  8
Layer 1
370
     0
100
AcDbVertex
100
AcDb2dVertex
 10
921.4555553251917
 20
-364.4194443533396
 30
0.0
  0
VERTEX
  5
8B
330
7B
100
AcDbEntity
  8
Layer 1
370
     0
100
AcDbVertex
100
AcDb2dVertex
 10
921.4555553251917
 20
-204.6111110599583
 30
0.0
  0
VERTEX
  5
8C
330
7B
100
AcDbEntity
  8
Layer 1
370
     0
100
AcDbVertex
100
AcDb2dVertex
 10
939.7999997650501
 20
-204.6111110599583
 30
0.0
  0
SEQEND
  5
8D
330
7B
100
AcDbEntity
  8
Layer 1
370
     0
  0
SPLINE
  5
8E
330
1F
100
AcDbEntity
  8
Layer 1
370
     0
100
AcDbSpline
210
0.0
220
0.0
230
1.0
 70
    11
 71
     3
 72
    59
 73
    55
 74
     0
 42
0.0000000001
 43
0.0000000001
 12
1.0
 22
0.0
 32
0.0
 13
1.0
 23
0.0
 33
0.0
 40
0.0
 40
0.0
 40
0.0
 40
0.0
 40
1.0
 40
1.0
 40
1.0
 40
2.0
 40
2.0
 40
2.0
 40
3.0
 40
3.0
 40
3.0
 40
4.0
 40
4.0
 40
4.0
 40
5.0
 40
5.0
 40
5.0
 40
6.0
 40
6.0
 40
6.0
 40
7.0
 40
7.0
 40
7.0
 40
8.0
 40
8.0
 40
8.0
 40
9.0
 40
9.0
 40
9.0
 40
10.0
 40
10.0
 40
10.0
 40
11.0
 40
11.0
 40
11.0
 40
12.0
 40
12.0
 40
12.0
 40
13.0
 40
13.0
 40
13.0
 40
14.0
 40
14.0
 40
14.0
 40
15.0
 40
15.0
 40
15.0
 40
16.0
 40
16.0
 40
16.0
 40
17.0
 40
17.0
 40
17.0
 40
18.0
 40
18.0
 40
18.0
 40
18.0
 10
846.3138886773105
 20
-275.1089612484971
 30
0.0
 10
846.3138886773105
 20
-275.1089612484971
 30
0.0
 10
846.3138886773105
 20
-293.6089517495145
 30
0.0
 10
846.3138886773105
 20
-293.6089517495145
 30
0.0
 10
846.3138886773105
 20
-293.6097268959986
 30
0.0
 10
846.3138886773105
 20
-293.6104159150957
 30
0.0
 10
846.3138886773105
 20
-293.6111910615799
 30
0.0
 10
846.3138886773105
 20
-295.8202724141092
 30
0.0
 10
844.4661117137967
 20
-297.6111191747292
 30
0.0
 10
842.2569442338803
 20
-297.6111191747292
 30
0.0
 10
840.0477767539638
 20
-297.6111191747292
 30
0.0
 10
838.1999997904501
 20
-295.8202724141092
 30
0.0
 10
838.1999997904501
 20
-293.6111910615799
 30
0.0
 10
838.1999997904501
 20
-293.6104159150957
 30
0.0
 10
838.1999997904501
 20
-293.8638888154229
 30
0.0
 10
838.1999997904501
 20
-293.8638888154229
 30
0.0
 10
838.1999997904501
 20
-293.8638888154229
 30
0.0
 10
824.4783567274742
 20
-293.8638888154229
 30
0.0
 10
824.4783567274742
 20
-293.8638888154229
 30
0.0
 10
824.4768925618949
 20
-296.33333325925
 30
0.0
 10
822.6931082470177
 20
-297.8611469795712
 30
0.0
 10
820.4848881683616
 20
-297.8611469795712
 30
0.0
 10
818.2766680897017
 20
-297.8611469795712
 30
0.0
 10
816.4929699022136
 20
-296.33333325925
 30
0.0
 10
816.4914196092452
 20
-293.8638888154229
 30
0.0
 10
816.4914196092452
 20
-293.8638888154229
 30
0.0
 10
816.3277775736959
 20
-293.8638888154229
 30
0.0
 10
816.3277775736959
 20
-293.8638888154229
 30
0.0
 10
816.3277775736959
 20
-293.8638888154229
 30
0.0
 10
816.3277775736959
 20
-275.1089612484971
 30
0.0
 10
816.3277775736959
 20
-275.1089612484971
 30
0.0
 10
816.3277775736959
 20
-275.1089612484971
 30
0.0
 10
816.4032251648229
 20
-275.1674848080527
 30
0.0
 10
816.4032251648229
 20
-275.1674848080527
 30
0.0
 10
816.4038280565347
 20
-272.9589202198462
 30
0.0
 10
818.22568067652
 20
-271.3153943549142
 30
0.0
 10
820.4344175195027
 20
-271.3153943549142
 30
0.0
 10
822.6431543624816
 20
-271.3153943549142
 30
0.0
 10
824.4778399631514
 20
-273.4027777094271
 30
0.0
 10
824.4784428548633
 20
-275.5194443755646
 30
0.0
 10
824.4784428548633
 20
-275.5194443755646
 30
0.0
 10
838.1999997904501
 20
-275.5194443755646
 30
0.0
 10
838.1999997904501
 20
-275.5194443755646
 30
0.0
 10
838.1999997904501
 20
-275.5194443755646
 30
0.0
 10
838.1999997904501
 20
-275.1084444841743
 30
0.0
 10
838.1999997904501
 20
-275.1080999746258
 30
0.0
 10
838.1999997904501
 20
-272.8989324947093
 30
0.0
 10
840.0477767539638
 20
-271.1080857340893
 30
0.0
 10
842.2569442338803
 20
-271.1080857340893
 30
0.0
 10
844.4661117137967
 20
-271.1080857340893
 30
0.0
 10
846.3138886773105
 20
-272.8989324947093
 30
0.0
 10
846.3138886773105
 20
-275.1080999746258
 30
0.0
 10
846.3138886773105
 20
-275.1084444841743
 30
0.0
 10
846.3138886773105
 20
-275.1089612484971
 30
0.0
 10
846.3138886773105
 20
-275.1089612484971
 30
0.0
  0
SPLINE
  5
8F
330
1F
100
AcDbEntity
  8
Layer 1
370
     0
100
AcDbSpline
210
0.0
220
0.0
230
1.0
 70
    11
 71
     3
 72
    41
 73
    37
 74
     0
 42
0.0000000001
 43
0.0000000001
 12
1.0
 22
0.0
 32
0.0
 13
1.0
 23
0.0
 33
0.0
 40
0.0
 40
0.0
 40
0.0
 40
0.0
 40
1.0
 40
1.0
 40
1.0
 40
2.0
 40
2.0
 40
2.0
 40
3.0
 40
3.0
 40
3.0
 40
4.0
 40
4.0
 40
4.0
 40
5.0
 40
5.0
 40
5.0
 40
6.0
 40
6.0
 40
6.0
 40
7.0
 40
7.0
 40
7.0
 40
8.0
 40
8.0
 40
8.0
 40
9.0
 40
9.0
 40
9.0
 40
10.0
 40
10.0
 40
10.0
 40
11.0
 40
11.0
 40
11.0
 40
12.0
 40
12.0
 40
12.0
 40
12.0
 10
905.93333310685
 20
-293.6089517495145
 30
0.0
 10
905.93333310685
 20
-295.8181192294309
 30
0.0
 10
904.4150795265004
 20
-297.9129095392371
 30
0.0
 10
902.205912046584
 20
-297.9129095392371
 30
0.0
 10
899.9967445666675
 20
-297.9129095392371
 30
0.0
 10
898.4784909863179
 20
-296.6861110369396
 30
0.0
 10
898.4784909863179
 20
-294.2166665931125
 30
0.0
 10
898.4784909863179
 20
-294.2166665931125
 30
0.0
 10
884.4784842081339
 20
-294.2166665931125
 30
0.0
 10
884.4784842081339
 20
-294.2166665931125
 30
0.0
 10
884.4784842081339
 20
-296.6861110369396
 30
0.0
 10
882.422020585603
 20
-297.9129095392371
 30
0.0
 10
880.2128531056866
 20
-297.9129095392371
 30
0.0
 10
878.0037717531553
 20
-297.9129095392371
 30
0.0
 10
875.9472220032354
 20
-295.8181192294309
 30
0.0
 10
875.9472220032354
 20
-293.6089517495145
 30
0.0
 10
875.9472220032354
 20
-293.6089517495145
 30
0.0
 10
875.9472220032354
 20
-275.1089612484971
 30
0.0
 10
875.9472220032354
 20
-275.1089612484971
 30
0.0
 10
875.9472220032354
 20
-272.8998798959677
 30
0.0
 10
878.0037717531553
 20
-271.4906635877263
 30
0.0
 10
880.2128531056866
 20
-271.4906635877263
 30
0.0
 10
882.422020585603
 20
-271.4906635877263
 30
0.0
 10
884.4784842081339
 20
-273.7555554871167
 30
0.0
 10
884.4784842081339
 20
-275.8722221532542
 30
0.0
 10
884.4784842081339
 20
-275.8722221532542
 30
0.0
 10
898.4784909863179
 20
-275.8722221532542
 30
0.0
 10
898.4784909863179
 20
-275.8722221532542
 30
0.0
 10
898.4784909863179
 20
-273.7555554871167
 30
0.0
 10
899.9967445666675
 20
-271.4906635877263
 30
0.0
 10
902.205912046584
 20
-271.4906635877263
 30
0.0
 10
904.4150795265004
 20
-271.4906635877263
 30
0.0
 10
905.93333310685
 20
-272.8998798959677
 30
0.0
 10
905.93333310685
 20
-275.1089612484971
 30
0.0
 10
905.93333310685
 20
-275.1089612484971
 30
0.0
 10
905.93333310685
 20
-293.6089517495145
 30
0.0
 10
905.93333310685
 20
-293.6089517495145
 30
0.0
  0
HATCH
  5
90
330
1F
100
AcDbEntity
  8
Layer 1
 62
     7
420
 16777215
100
AcDbHatch
 10
0.0
 20
0.0
 30
0.0
210
0.0
220
0.0
230
1.0
  2
SOLID
 70
     1
 71
     0
 91
        3
 92
        1
 93
       16
 72
     1
 10
939.7999997650501
 20
-204.6111110599583
 11
939.7999997650501
 21
-144.6388888527292
 72
     1
 10
939.7999997650501
 20
-144.6388888527292
 11
921.4555553251917
 21
-144.6388888527292
 72
     1
 10
921.4555553251917
 20
-144.6388888527292
 11
921.4555553251917
 21
-84.6666666455
 72
     1
 10
921.4555553251917
 20
-84.6666666455
 11
539.3972220873729
 21
-84.6666666455
 72
     1
 10
539.3972220873729
 20
-84.6666666455
 11
539.3972220873729
 21
-172.6166666235106
 72
     1
 10
539.3972220873729
 20
-172.6166666235106
 11
801.1583331330438
 21
-192.6166666185125
 72
     1
 10
801.1583331330438
 20
-192.6166666185125
 11
801.1583331330438
 21
-376.4138887947854
 72
     1
 10
801.1583331330438
 20
-376.4138887947854
 11
539.3972220873729
 21
-396.4138887897867
 72
     1
 10
539.3972220873729
 20
-396.4138887897867
 11
539.3972220873729
 21
-484.7166665454875
 72
     1
 10
539.3972220873729
 20
-484.7166665454875
 11
921.4555553251917
 21
-484.7166665454875
 72
     1
 10
921.4555553251917
 20
-484.7166665454875
 11
921.4555553251917
 21
-424.3916665605688
 72
     1
 10
921.4555553251917
 20
-424.3916665605688
 11
939.7999997650501
 21
-424.3916665605688
 72
     1
 10
939.7999997650501
 20
-424.3916665605688
 11
939.7999997650501
 21
-364.4194443533396
 72
     1
 10
939.7999997650501
 20
-364.4194443533396
 11
921.4555553251917
 21
-364.4194443533396
 72
     1
 10
921.4555553251917
 20
-364.4194443533396
 11
921.4555553251917
 21
-204.6111110599583
 72
     1
 10
921.4555553251917
 20
-204.6111110599583
 11
939.7999997650501
 21
-204.6111110599583
 97
        0
 92
        1
 93
        1
 72
     4
 94
        3
 73
     0
 74
     1
 95
       59
 96
       55
 40
0.0
 40
0.0
 40
0.0
 40
0.0
 40
1.0
 40
1.0
 40
1.0
 40
2.0
 40
2.0
 40
2.0
 40
3.0
 40
3.0
 40
3.0
 40
4.0
 40
4.0
 40
4.0
 40
5.0
 40
5.0
 40
5.0
 40
6.0
 40
6.0
 40
6.0
 40
7.0
 40
7.0
 40
7.0
 40
8.0
 40
8.0
 40
8.0
 40
9.0
 40
9.0
 40
9.0
 40
10.0
 40
10.0
 40
10.0
 40
11.0
 40
11.0
 40
11.0
 40
12.0
 40
12.0
 40
12.0
 40
13.0
 40
13.0
 40
13.0
 40
14.0
 40
14.0
 40
14.0
 40
15.0
 40
15.0
 40
15.0
 40
16.0
 40
16.0
 40
16.0
 40
17.0
 40
17.0
 40
17.0
 40
18.0
 40
18.0
 40
18.0
 40
18.0
 10
846.3138886773105
 20
-275.1089612484971
 10
846.3138886773105
 20
-275.1089612484971
 10
846.3138886773105
 20
-293.6089517495145
 10
846.3138886773105
 20
-293.6089517495145
 10
846.3138886773105
 20
-293.6097268959986
 10
846.3138886773105
 20
-293.6104159150957
 10
846.3138886773105
 20
-293.6111910615799
 10
846.3138886773105
 20
-295.8202724141092
 10
844.4661117137967
 20
-297.6111191747292
 10
842.2569442338803
 20
-297.6111191747292
 10
840.0477767539638
 20
-297.6111191747292
 10
838.1999997904501
 20
-295.8202724141092
 10
838.1999997904501
 20
-293.6111910615799
 10
838.1999997904501
 20
-293.6104159150957
 10
838.1999997904501
 20
-293.8638888154229
 10
838.1999997904501
 20
-293.8638888154229
 10
838.1999997904501
 20
-293.8638888154229
 10
824.4783567274742
 20
-293.8638888154229
 10
824.4783567274742
 20
-293.8638888154229
 10
824.4768925618949
 20
-296.33333325925
 10
822.6931082470177
 20
-297.8611469795712
 10
820.4848881683616
 20
-297.8611469795712
 10
818.2766680897017
 20
-297.8611469795712
 10
816.4929699022136
 20
-296.33333325925
 10
816.4914196092452
 20
-293.8638888154229
 10
816.4914196092452
 20
-293.8638888154229
 10
816.3277775736959
 20
-293.8638888154229
 10
816.3277775736959
 20
-293.8638888154229
 10
816.3277775736959
 20
-293.8638888154229
 10
816.3277775736959
 20
-275.1089612484971
 10
816.3277775736959
 20
-275.1089612484971
 10
816.3277775736959
 20
-275.1089612484971
 10
816.4032251648229
 20
-275.1674848080527
 10
816.4032251648229
 20
-275.1674848080527
 10
816.4038280565347
 20
-272.9589202198462
 10
818.22568067652
 20
-271.3153943549142
 10
820.4344175195027
 20
-271.3153943549142
 10
822.6431543624816
 20
-271.3153943549142
 10
824.4778399631514
 20
-273.4027777094271
 10
824.4784428548633
 20
-275.5194443755646
 10
824.4784428548633
 20
-275.5194443755646
 10
838.1999997904501
 20
-275.5194443755646
 10
838.1999997904501
 20
-275.5194443755646
 10
838.1999997904501
 20
-275.5194443755646
 10
838.1999997904501
 20
-275.1084444841743
 10
838.1999997904501
 20
-275.1080999746258
 10
838.1999997904501
 20
-272.8989324947093
 10
840.0477767539638
 20
-271.1080857340893
 10
842.2569442338803
 20
-271.1080857340893
 10
844.4661117137967
 20
-271.1080857340893
 10
846.3138886773105
 20
-272.8989324947093
 10
846.3138886773105
 20
-275.1080999746258
 10
846.3138886773105
 20
-275.1084444841743
 10
846.3138886773105
 20
-275.1089612484971
 10
846.3138886773105
 20
-275.1089612484971
 97
        0
 97
        0
 92
        1
 93
        1
 72
     4
 94
        3
 73
     0
 74
     1
 95
       41
 96
       37
 40
0.0
 40
0.0
 40
0.0
 40
0.0
 40
1.0
 40
1.0
 40
1.0
 40
2.0
 40
2.0
 40
2.0
 40
3.0
 40
3.0
 40
3.0
 40
4.0
 40
4.0
 40
4.0
 40
5.0
 40
5.0
 40
5.0
 40
6.0
 40
6.0
 40
6.0
 40
7.0
 40
7.0
 40
7.0
 40
8.0
 40
8.0
 40
8.0
 40
9.0
 40
9.0
 40
9.0
 40
10.0
 40
10.0
 40
10.0
 40
11.0
 40
11.0
 40
11.0
 40
12.0
 40
12.0
 40
12.0
 40
12.0
 10
905.93333310685
 20
-293.6089517495145
 10
905.93333310685
 20
-295.8181192294309
 10
904.4150795265004
 20
-297.9129095392371
 10
902.205912046584
 20
-297.9129095392371
 10
899.9967445666675
 20
-297.9129095392371
 10
898.4784909863179
 20
-296.6861110369396
 10
898.4784909863179
 20
-294.2166665931125
 10
898.4784909863179
 20
-294.2166665931125
 10
884.4784842081339
 20
-294.2166665931125
 10
884.4784842081339
 20
-294.2166665931125
 10
884.4784842081339
 20
-296.6861110369396
 10
882.422020585603
 20
-297.9129095392371
 10
880.2128531056866
 20
-297.9129095392371
 10
878.0037717531553
 20
-297.9129095392371
 10
875.9472220032354
 20
-295.8181192294309
 10
875.9472220032354
 20
-293.6089517495145
 10
875.9472220032354
 20
-293.6089517495145
 10
875.9472220032354
 20
-275.1089612484971
 10
875.9472220032354
 20
-275.1089612484971
 10
875.9472220032354
 20
-272.8998798959677
 10
878.0037717531553
 20
-271.4906635877263
 10
880.2128531056866
 20
-271.4906635877263
 10
882.422020585603
 20
-271.4906635877263
 10
884.4784842081339
 20
-273.7555554871167
 10
884.4784842081339
 20
-275.8722221532542
 10
884.4784842081339
 20
-275.8722221532542
 10
898.4784909863179
 20
-275.8722221532542
 10
898.4784909863179
 20
-275.8722221532542
 10
898.4784909863179
 20
-273.7555554871167
 10
899.9967445666675
 20
-271.4906635877263
 10
902.205912046584
 20
-271.4906635877263
 10
904.4150795265004
 20
-271.4906635877263
 10
905.93333310685
 20
-272.8998798959677
 10
905.93333310685
 20
-275.1089612484971
 10
905.93333310685
 20
-275.1089612484971
 10
905.93333310685
 20
-293.6089517495145
 10
905.93333310685
 20
-293.6089517495145
 97
        0
 97
        0
 75
     2
 76
     1
 98
        0
  0
ENDSEC
  0
SECTION
  2
OBJECTS
  0
DICTIONARY
  5
C
330
0
100
AcDbDictionary
281
     1
  3
ACAD_GROUP
350
D
  3
ACAD_LAYOUT
350
1A
  3
ACAD_MATERIAL
350
3B
  3
ACAD_MLEADERSTYLE
350
92
  3
ACAD_MLINESTYLE
350
17
  3
ACAD_PLOTSETTINGS
350
19
  3
ACAD_PLOTSTYLENAME
350
E
  3
ACAD_TABLESTYLE
350
91
  3
ACAD_VISUALSTYLE
350
2A
  0
SUN
  5
3F
330
29
100
AcDbSun
 90
        1
290
     0
 63
     7
421
 16777215
 40
1.0
291
     1
 91
  2455826
 92
 54000000
292
     0
 70
     2
 71
   256
280
     1
  0
DICTIONARY
  5
D
102
{ACAD_REACTORS
330
C
102
}
330
C
100
AcDbDictionary
281
     1
  0
DICTIONARY
  5
1A
102
{ACAD_REACTORS
330
C
102
}
330
C
100
AcDbDictionary
281
     1
  3
Layout1
350
1E
  3
Layout2
350
26
  3
Model
350
22
  0
DICTIONARY
  5
3B
102
{ACAD_REACTORS
330
C
102
}
330
C
100
AcDbDictionary
281
     1
  3
ByBlock
350
3D
  3
ByLayer
350
3C
  3
Global
350
3E
  0
DICTIONARY
  5
92
102
{ACAD_REACTORS
330
C
102
}
330
C
100
AcDbDictionary
281
     1
  0
DICTIONARY
  5
17
102
{ACAD_REACTORS
330
C
102
}
330
C
100
AcDbDictionary
281
     1
  3
Standard
350
18
  0
DICTIONARY
  5
19
102
{ACAD_REACTORS
330
C
102
}
330
C
100
AcDbDictionary
281
     1
  0
ACDBDICTIONARYWDFLT
  5
E
102
{ACAD_REACTORS
330
C
102
}
330
C
100
AcDbDictionary
281
     1
  3
Normal
350
F
100
AcDbDictionaryWithDefault
340
F
  0
DICTIONARY
  5
91
102
{ACAD_REACTORS
330
C
102
}
330
C
100
AcDbDictionary
281
     1
  0
DICTIONARY
  5
2A
102
{ACAD_REACTORS
330
C
102
}
330
C
100
AcDbDictionary
281
     1
  3
2dWireframe
350
2F
  3
3D Hidden
350
31
  3
3dWireframe
350
30
  3
Basic
350
32
  3
Brighten
350
36
  3
ColorChange
350
3A
  3
Conceptual
350
34
  3
Dim
350
35
  3
Facepattern
350
39
  3
Flat
350
2B
  3
FlatWithEdges
350
2C
  3
Gouraud
350
2D
  3
GouraudWithEdges
350
2E
  3
Linepattern
350
38
  3
Realistic
350
33
  3
Thicken
350
37
  0
LAYOUT
  5
1E
102
{ACAD_REACTORS
330
1A
102
}
330
1A
100
AcDbPlotSettings
  1

  2
none_device
  4

  6

 40
0.0
 41
0.0
 42
0.0
 43
0.0
 44
0.0
 45
0.0
 46
0.0
 47
0.0
 48
0.0
 49
0.0
140
0.0
141
0.0
142
1.0
143
1.0
 70
   688
 72
     0
 73
     0
 74
     5
  7

 75
    16
 76
     0
 77
     2
 78
   300
147
1.0
148
0.0
149
0.0
100
AcDbLayout
  1
Layout1
 70
     1
 71
     1
 10
0.0
 20
0.0
 11
12.0
 21
9.0
 12
0.0
 22
0.0
 32
0.0
 14
1.000000000000000E+20
 24
1.000000000000000E+20
 34
1.000000000000000E+20
 15
-1.000000000000000E+20
 25
-1.000000000000000E+20
 35
-1.000000000000000E+20
146
0.0
 13
0.0
 23
0.0
 33
0.0
 16
1.0
 26
0.0
 36
0.0
 17
0.0
 27
1.0
 37
0.0
 76
     0
330
1B
  0
LAYOUT
  5
26
102
{ACAD_REACTORS
330
1A
102
}
330
1A
100
AcDbPlotSettings
  1

  2
none_device
  4

  6

 40
0.0
 41
0.0
 42
0.0
 43
0.0
 44
0.0
 45
0.0
 46
0.0
 47
0.0
 48
0.0
 49
0.0
140
0.0
141
0.0
142
1.0
143
1.0
 70
   688
 72
     0
 73
     0
 74
     5
  7

 75
    16
 76
     0
 77
     2
 78
   300
147
1.0
148
0.0
149
0.0
100
AcDbLayout
  1
Layout2
 70
     1
 71
     2
 10
0.0
 20
0.0
 11
0.0
 21
0.0
 12
0.0
 22
0.0
 32
0.0
 14
0.0
 24
0.0
 34
0.0
 15
0.0
 25
0.0
 35
0.0
146
0.0
 13
0.0
 23
0.0
 33
0.0
 16
1.0
 26
0.0
 36
0.0
 17
0.0
 27
1.0
 37
0.0
 76
     0
330
23
  0
LAYOUT
  5
22
102
{ACAD_REACTORS
330
1A
102
}
330
1A
100
AcDbPlotSettings
  1

  2
none_device
  4

  6

 40
0.0
 41
0.0
 42
0.0
 43
0.0
 44
0.0
 45
0.0
 46
0.0
 47
0.0
 48
0.0
 49
0.0
140
0.0
141
0.0
142
1.0
143
1.0
 70
  1712
 72
     0
 73
     0
 74
     0
  7

 75
     0
 76
     0
 77
     2
 78
   300
147
1.0
148
0.0
149
0.0
100
AcDbLayout
  1
Model
 70
     1
 71
     0
 10
0.0
 20
0.0
 11
12.0
 21
9.0
 12
0.0
 22
0.0
 32
0.0
 14
1.000000000000000E+20
 24
1.000000000000000E+20
 34
1.000000000000000E+20
 15
-1.000000000000000E+20
 25
-1.000000000000000E+20
 35
-1.000000000000000E+20
146
0.0
 13
0.0
 23
0.0
 33
0.0
 16
1.0
 26
0.0
 36
0.0
 17
0.0
 27
1.0
 37
0.0
 76
     0
330
1F
331
29
  0
MATERIAL
  5
3D
102
{ACAD_REACTORS
330
3B
102
}
330
3B
100
AcDbMaterial
  1
ByBlock
 72
     1
 94
      127
  0
MATERIAL
  5
3C
102
{ACAD_REACTORS
330
3B
102
}
330
3B
100
AcDbMaterial
  1
ByLayer
 72
     1
 94
      127
  0
MATERIAL
  5
3E
102
{ACAD_REACTORS
330
3B
102
}
330
3B
100
AcDbMaterial
  1
Global
 72
     1
 94
      127
  0
MLINESTYLE
  5
18
102
{ACAD_REACTORS
330
17
102
}
330
17
100
AcDbMlineStyle
  2
Standard
 70
     0
  3

 62
   256
 51
90.0
 52
90.0
 71
     2
 49
0.5
 62
   256
  6
BYLAYER
 49
-0.5
 62
   256
  6
BYLAYER
  0
ACDBPLACEHOLDER
  5
F
102
{ACAD_REACTORS
330
E
102
}
330
E
  0
VISUALSTYLE
  5
2F
102
{ACAD_REACTORS
330
2A
102
}
330
2A
100
AcDbVisualStyle
  2
2dWireframe
 70
     4
177
     2
291
     0
 71
     0
176
     1
 72
     2
176
     1
 73
     0
176
     1
 90
        0
176
     1
 40
-0.6
176
     1
 41
-30.0
176
     1
 62
     5
 63
     7
421
 16777215
176
     1
 74
     1
176
     1
 91
        4
176
     1
 64
     7
176
     1
 65
   257
176
     1
 75
     1
176
     1
175
     1
176
     1
 42
1.0
176
     1
 92
        0
176
     1
 66
   257
176
     1
 43
1.0
176
     1
 76
     1
176
     1
 77
     6
176
     1
 78
     2
176
     1
 67
     7
176
     1
 79
     5
176
     1
170
     0
176
     1
171
     0
176
     1
290
     0
176
     1
 93
        1
176
     1
 44
0.0
176
     1
173
     0
176
     1
  0
VISUALSTYLE
  5
31
102
{ACAD_REACTORS
330
2A
102
}
330
2A
100
AcDbVisualStyle
  2
3D Hidden
 70
     6
177
     2
291
     0
 71
     1
176
     1
 72
     2
176
     1
 73
     2
176
     1
 90
        0
176
     1
 40
-0.6
176
     1
 41
-30.0
176
     1
 62
     5
 63
     7
421
 16777215
176
     1
 74
     2
176
     1
 91
        2
176
     1
 64
     7
176
     1
 65
   257
176
     1
 75
     2
176
     1
175
     1
176
     1
 42
40.0
176
     1
 92
        0
176
     1
 66
   257
176
     1
 43
1.0
176
     1
 76
     1
176
     1
 77
     6
176
     1
 78
     2
176
     1
 67
     7
176
     1
 79
     3
176
     1
170
     0
176
     1
171
     0
176
     1
290
     0
176
     1
 93
        1
176
     1
 44
0.0
176
     1
173
     0
176
     1
  0
VISUALSTYLE
  5
30
102
{ACAD_REACTORS
330
2A
102
}
330
2A
100
AcDbVisualStyle
  2
3dWireframe
 70
     5
177
     2
291
     0
 71
     0
176
     1
 72
     2
176
     1
 73
     0
176
     1
 90
        0
176
     1
 40
-0.6
176
     1
 41
-30.0
176
     1
 62
     5
 63
     7
421
 16777215
176
     1
 74
     1
176
     1
 91
        4
176
     1
 64
     7
176
     1
 65
   257
176
     1
 75
     1
176
     1
175
     1
176
     1
 42
1.0
176
     1
 92
        0
176
     1
 66
   257
176
     1
 43
1.0
176
     1
 76
     1
176
     1
 77
     6
176
     1
 78
     2
176
     1
 67
     7
176
     1
 79
     5
176
     1
170
     0
176
     1
171
     0
176
     1
290
     0
176
     1
 93
        1
176
     1
 44
0.0
176
     1
173
     0
176
     1
  0
VISUALSTYLE
  5
32
102
{ACAD_REACTORS
330
2A
102
}
330
2A
100
AcDbVisualStyle
  2
Basic
 70
     7
177
     2
291
     1
 71
     1
176
     1
 72
     0
176
     1
 73
     1
176
     1
 90
        0
176
     1
 40
-0.6
176
     1
 41
-30.0
176
     1
 62
     5
 63
     7
421
 16777215
176
     1
 74
     0
176
     1
 91
        4
176
     1
 64
     7
176
     1
 65
   257
176
     1
 75
     1
176
     1
175
     1
176
     1
 42
1.0
176
     1
 92
        8
176
     1
 66
     7
176
     1
 43
1.0
176
     1
 76
     1
176
     1
 77
     6
176
     1
 78
     2
176
     1
 67
     7
176
     1
 79
     5
176
     1
170
     0
176
     1
171
     0
176
     1
290
     0
176
     1
 93
        1
176
     1
 44
0.0
176
     1
173
     0
176
     1
  0
VISUALSTYLE
  5
36
102
{ACAD_REACTORS
330
2A
102
}
330
2A
100
AcDbVisualStyle
  2
Brighten
 70
    12
177
     2
291
     1
 71
     2
176
     1
 72
     2
176
     1
 73
     0
176
     1
 90
        0
176
     1
 40
-0.6
176
     1
 41
-30.0
176
     1
 62
     5
 63
     7
421
 16777215
176
     1
 74
     1
176
     1
 91
        4
176
     1
 64
     7
176
     1
 65
   257
176
     1
 75
     1
176
     1
175
     1
176
     1
 42
1.0
176
     1
 92
        8
176
     1
 66
     7
176
     1
 43
1.0
176
     1
 76
     1
176
     1
 77
     6
176
     1
 78
     2
176
     1
 67
     7
176
     1
 79
     5
176
     1
170
     0
176
     1
171
     0
176
     1
290
     0
176
     1
 93
        1
176
     1
 44
50.0
176
     1
173
     0
176
     1
  0
VISUALSTYLE
  5
3A
102
{ACAD_REACTORS
330
2A
102
}
330
2A
100
AcDbVisualStyle
  2
ColorChange
 70
    16
177
     2
291
     1
 71
     2
176
     1
 72
     2
176
     1
 73
     3
176
     1
 90
        0
176
     1
 40
-0.6
176
     1
 41
-30.0
176
     1
 62
     5
 63
     8
421
  8421504
176
     1
 74
     1
176
     1
 91
        4
176
     1
 64
     7
176
     1
 65
   257
176
     1
 75
     1
176
     1
175
     1
176
     1
 42
1.0
176
     1
 92
        8
176
     1
 66
     8
424
  8421504
176
     1
 43
1.0
176
     1
 76
     1
176
     1
 77
     6
176
     1
 78
     2
176
     1
 67
     7
176
     1
 79
     5
176
     1
170
     0
176
     1
171
     0
176
     1
290
     0
176
     1
 93
        1
176
     1
 44
0.0
176
     1
173
     0
176
     1
  0
VISUALSTYLE
  5
34
102
{ACAD_REACTORS
330
2A
102
}
330
2A
100
AcDbVisualStyle
  2
Conceptual
 70
     9
177
     2
291
     0
 71
     3
176
     1
 72
     2
176
     1
 73
     0
176
     1
 90
        0
176
     1
 40
-0.6
176
     1
 41
-30.0
176
     1
 62
     5
 63
     7
421
 16777215
176
     1
 74
     2
176
     1
 91
        2
176
     1
 64
     7
176
     1
 65
   257
176
     1
 75
     1
176
     1
175
     1
176
     1
 42
40.0
176
     1
 92
        8
176
     1
 66
     7
176
     1
 43
1.0
176
     1
 76
     1
176
     1
 77
     6
176
     1
 78
     2
176
     1
 67
     7
176
     1
 79
     3
176
     1
170
     0
176
     1
171
     0
176
     1
290
     0
176
     1
 93
        1
176
     1
 44
0.0
176
     1
173
     0
176
     1
  0
VISUALSTYLE
  5
35
102
{ACAD_REACTORS
330
2A
102
}
330
2A
100
AcDbVisualStyle
  2
Dim
 70
    11
177
     2
291
     1
 71
     2
176
     1
 72
     2
176
     1
 73
     0
176
     1
 90
        0
176
     1
 40
-0.6
176
     1
 41
-30.0
176
     1
 62
     5
 63
     7
421
 16777215
176
     1
 74
     1
176
     1
 91
        4
176
     1
 64
     7
176
     1
 65
   257
176
     1
 75
     1
176
     1
175
     1
176
     1
 42
1.0
176
     1
 92
        8
176
     1
 66
     7
176
     1
 43
1.0
176
     1
 76
     1
176
     1
 77
     6
176
     1
 78
     2
176
     1
 67
     7
176
     1
 79
     5
176
     1
170
     0
176
     1
171
     0
176
     1
290
     0
176
     1
 93
        1
176
     1
 44
-50.0
176
     1
173
     0
176
     1
  0
VISUALSTYLE
  5
39
102
{ACAD_REACTORS
330
2A
102
}
330
2A
100
AcDbVisualStyle
  2
Facepattern
 70
    15
177
     2
291
     1
 71
     2
176
     1
 72
     2
176
     1
 73
     0
176
     1
 90
        0
176
     1
 40
-0.6
176
     1
 41
-30.0
176
     1
 62
     5
 63
     7
421
 16777215
176
     1
 74
     1
176
     1
 91
        4
176
     1
 64
     7
176
     1
 65
   257
176
     1
 75
     1
176
     1
175
     1
176
     1
 42
1.0
176
     1
 92
        8
176
     1
 66
     7
176
     1
 43
1.0
176
     1
 76
     1
176
     1
 77
     6
176
     1
 78
     2
176
     1
 67
     7
176
     1
 79
     5
176
     1
170
     0
176
     1
171
     0
176
     1
290
     0
176
     1
 93
        1
176
     1
 44
0.0
176
     1
173
     0
176
     1
  0
VISUALSTYLE
  5
2B
102
{ACAD_REACTORS
330
2A
102
}
330
2A
100
AcDbVisualStyle
  2
Flat
 70
     0
177
     2
291
     1
 71
     2
176
     1
 72
     1
176
     1
 73
     1
176
     1
 90
        2
176
     1
 40
-0.6
176
     1
 41
30.0
176
     1
 62
     5
 63
     7
421
 16777215
176
     1
 74
     0
176
     1
 91
        4
176
     1
 64
     7
176
     1
 65
   257
176
     1
 75
     1
176
     1
175
     1
176
     1
 42
1.0
176
     1
 92
        8
176
     1
 66
     7
176
     1
 43
1.0
176
     1
 76
     1
176
     1
 77
     6
176
     1
 78
     2
176
     1
 67
     7
176
     1
 79
     5
176
     1
170
     0
176
     1
171
     0
176
     1
290
     0
176
     1
 93
       13
176
     1
 44
0.0
176
     1
173
     0
176
     1
  0
VISUALSTYLE
  5
2C
102
{ACAD_REACTORS
330
2A
102
}
330
2A
100
AcDbVisualStyle
  2
FlatWithEdges
 70
     1
177
     2
291
     1
 71
     2
176
     1
 72
     1
176
     1
 73
     1
176
     1
 90
        2
176
     1
 40
-0.6
176
     1
 41
30.0
176
     1
 62
     5
 63
     7
421
 16777215
176
     1
 74
     1
176
     1
 91
        4
176
     1
 64
     7
176
     1
 65
   257
176
     1
 75
     1
176
     1
175
     1
176
     1
 42
1.0
176
     1
 92
        0
176
     1
 66
   257
176
     1
 43
1.0
176
     1
 76
     1
176
     1
 77
     6
176
     1
 78
     2
176
     1
 67
     7
176
     1
 79
     5
176
     1
170
     0
176
     1
171
     0
176
     1
290
     0
176
     1
 93
       13
176
     1
 44
0.0
176
     1
173
     0
176
     1
  0
VISUALSTYLE
  5
2D
102
{ACAD_REACTORS
330
2A
102
}
330
2A
100
AcDbVisualStyle
  2
Gouraud
 70
     2
177
     2
291
     1
 71
     2
176
     1
 72
     2
176
     1
 73
     1
176
     1
 90
        2
176
     1
 40
-0.6
176
     1
 41
30.0
176
     1
 62
     5
 63
     7
421
 16777215
176
     1
 74
     0
176
     1
 91
        4
176
     1
 64
     7
176
     1
 65
   257
176
     1
 75
     1
176
     1
175
     1
176
     1
 42
1.0
176
     1
 92
        0
176
     1
 66
     7
176
     1
 43
1.0
176
     1
 76
     1
176
     1
 77
     6
176
     1
 78
     2
176
     1
 67
     7
176
     1
 79
     5
176
     1
170
     0
176
     1
171
     0
176
     1
290
     0
176
     1
 93
       13
176
     1
 44
0.0
176
     1
173
     0
176
     1
  0
VISUALSTYLE
  5
2E
102
{ACAD_REACTORS
330
2A
102
}
330
2A
100
AcDbVisualStyle
  2
GouraudWithEdges
 70
     3
177
     2
291
     1
 71
     2
176
     1
 72
     2
176
     1
 73
     1
176
     1
 90
        2
176
     1
 40
-0.6
176
     1
 41
30.0
176
     1
 62
     5
 63
     7
421
 16777215
176
     1
 74
     1
176
     1
 91
        4
176
     1
 64
     7
176
     1
 65
   257
176
     1
 75
     1
176
     1
175
     1
176
     1
 42
1.0
176
     1
 92
        0
176
     1
 66
   257
176
     1
 43
1.0
176
     1
 76
     1
176
     1
 77
     6
176
     1
 78
     2
176
     1
 67
     7
176
     1
 79
     5
176
     1
170
     0
176
     1
171
     0
176
     1
290
     0
176
     1
 93
       13
176
     1
 44
0.0
176
     1
173
     0
176
     1
  0
VISUALSTYLE
  5
38
102
{ACAD_REACTORS
330
2A
102
}
330
2A
100
AcDbVisualStyle
  2
Linepattern
 70
    14
177
     2
291
     1
 71
     2
176
     1
 72
     2
176
     1
 73
     0
176
     1
 90
        0
176
     1
 40
-0.6
176
     1
 41
-30.0
176
     1
 62
     5
 63
     7
421
 16777215
176
     1
 74
     1
176
     1
 91
        4
176
     1
 64
     7
176
     1
 65
   257
176
     1
 75
     7
176
     1
175
     7
176
     1
 42
1.0
176
     1
 92
        8
176
     1
 66
     7
176
     1
 43
1.0
176
     1
 76
     1
176
     1
 77
     6
176
     1
 78
     2
176
     1
 67
     7
176
     1
 79
     5
176
     1
170
     0
176
     1
171
     0
176
     1
290
     0
176
     1
 93
        1
176
     1
 44
0.0
176
     1
173
     0
176
     1
  0
VISUALSTYLE
  5
33
102
{ACAD_REACTORS
330
2A
102
}
330
2A
100
AcDbVisualStyle
  2
Realistic
 70
     8
177
     2
291
     0
 71
     2
176
     1
 72
     2
176
     1
 73
     0
176
     1
 90
        0
176
     1
 40
-0.6
176
     1
 41
-30.0
176
     1
 62
     5
 63
     7
421
 16777215
176
     1
 74
     1
176
     1
 91
        0
176
     1
 64
     7
176
     1
 65
   257
176
     1
 75
     1
176
     1
175
     1
176
     1
 42
1.0
176
     1
 92
        8
176
     1
 66
     8
424
  7895160
176
     1
 43
1.0
176
     1
 76
     1
176
     1
 77
     6
176
     1
 78
     2
176
     1
 67
     7
176
     1
 79
     5
176
     1
170
     0
176
     1
171
     0
176
     1
290
     0
176
     1
 93
       13
176
     1
 44
0.0
176
     1
173
     0
176
     1
  0
VISUALSTYLE
  5
37
102
{ACAD_REACTORS
330
2A
102
}
330
2A
100
AcDbVisualStyle
  2
Thicken
 70
    13
177
     2
291
     1
 71
     2
176
     1
 72
     2
176
     1
 73
     0
176
     1
 90
        0
176
     1
 40
-0.6
176
     1
 41
-30.0
176
     1
 62
     5
 63
     7
421
 16777215
176
     1
 74
     1
176
     1
 91
        4
176
     1
 64
     7
176
     1
 65
   257
176
     1
 75
     1
176
     1
175
     1
176
     1
 42
1.0
176
     1
 92
       12
176
     1
 66
     7
176
     1
 43
1.0
176
     1
 76
     1
176
     1
 77
     6
176
     1
 78
     2
176
     1
 67
     7
176
     1
 79
     5
176
     1
170
     0
176
     1
171
     0
176
     1
290
     0
176
     1
 93
        1
176
     1
 44
0.0
176
     1
173
     0
176
     1
  0
ENDSEC
  0
EOF
