  0
SECTION
  2
HEADER
  9
$ACADVER
  1
AC1018
  9
$ACADMAINTVER
 70
     0
  9
$DWGCODEPAGE
  3
UNDEFINED
  9
$INSBASE
 10
0.0
 20
0.0
 30
0.0
  9
$EXTMIN
 10
-20.0
 20
-12.81796372484798
 30
0.0
  9
$EXTMAX
 10
20.0
 20
12.86480248207641
 30
0.0
  9
$LIMMIN
 10
0.0
 20
0.0
  9
$LIMMAX
 10
12.0
 20
9.0
  9
$ORTHOMODE
 70
     0
  9
$REGENMODE
 70
     1
  9
$FILLMODE
 70
     1
  9
$QTEXTMODE
 70
     0
  9
$MIRRTEXT
 70
     1
  9
$LTSCALE
 40
1.0
  9
$ATTMODE
 70
     1
  9
$TEXTSIZE
 40
0.2
  9
$TRACEWID
 40
0.05
  9
$TEXTSTYLE
  7
Standard
  9
$CLAYER
  8
Default
  9
$CELTYPE
  6
ByLayer
  9
$CECOLOR
 62
   256
  9
$CELTSCALE
 40
1.0
  9
$DISPSILH
 70
     0
  9
$DIMSCALE
 40
1.0
  9
$DIMASZ
 40
0.18
  9
$DIMEXO
 40
0.0625
  9
$DIMDLI
 40
0.38
  9
$DIMRND
 40
0.0
  9
$DIMDLE
 40
0.0
  9
$DIMEXE
 40
0.18
  9
$DIMTP
 40
0.0
  9
$DIMTM
 40
0.0
  9
$DIMTXT
 40
0.18
  9
$DIMCEN
 40
0.09
  9
$DIMTSZ
 40
0.0
  9
$DIMTOL
 70
     0
  9
$DIMLIM
 70
     0
  9
$DIMTIH
 70
     1
  9
$DIMTOH
 70
     1
  9
$DIMSE1
 70
     0
  9
$DIMSE2
 70
     0
  9
$DIMTAD
 70
     0
  9
$DIMZIN
 70
     0
  9
$DIMBLK
  1

  9
$DIMASO
 70
     1
  9
$DIMSHO
 70
     1
  9
$DIMPOST
  1

  9
$DIMAPOST
  1

  9
$DIMALT
 70
     0
  9
$DIMALTD
 70
     2
  9
$DIMALTF
 40
25.4
  9
$DIMLFAC
 40
1.0
  9
$DIMTOFL
 70
     0
  9
$DIMTVP
 40
0.0
  9
$DIMTIX
 70
     0
  9
$DIMSOXD
 70
     0
  9
$DIMSAH
 70
     0
  9
$DIMBLK1
  1

  9
$DIMBLK2
  1

  9
$DIMSTYLE
  2
STANDARD_ACAD
  9
$DIMCLRD
 70
     0
  9
$DIMCLRE
 70
     0
  9
$DIMCLRT
 70
     0
  9
$DIMTFAC
 40
1.0
  9
$DIMGAP
 40
0.09
  9
$DIMJUST
 70
     0
  9
$DIMSD1
 70
     0
  9
$DIMSD2
 70
     0
  9
$DIMTOLJ
 70
     1
  9
$DIMTZIN
 70
     0
  9
$DIMALTZ
 70
     0
  9
$DIMALTTZ
 70
     0
  9
$DIMUPT
 70
     0
  9
$DIMDEC
 70
     4
  9
$DIMTDEC
 70
     4
  9
$DIMALTU
 70
     2
  9
$DIMALTTD
 70
     2
  9
$DIMTXSTY
  7
Standard
  9
$DIMAUNIT
 70
     0
  9
$DIMADEC
 70
     0
  9
$DIMALTRND
 40
0.0
  9
$DIMAZIN
 70
     0
  9
$DIMDSEP
 70
    46
  9
$DIMATFIT
 70
     3
  9
$DIMFRAC
 70
     0
  9
$DIMLDRBLK
  1

  9
$DIMLUNIT
 70
     2
  9
$DIMLWD
 70
    -2
  9
$DIMLWE
 70
    -2
  9
$DIMTMOVE
 70
     2
  9
$LUNITS
 70
     2
  9
$LUPREC
 70
     3
  9
$SKETCHINC
 40
0.1
  9
$FILLETRAD
 40
0.5
  9
$AUNITS
 70
     0
  9
$AUPREC
 70
     0
  9
$MENU
  1
.
  9
$ELEVATION
 40
0.0
  9
$PELEVATION
 40
0.0
  9
$THICKNESS
 40
0.0
  9
$LIMCHECK
 70
     0
  9
$CHAMFERA
 40
0.0
  9
$CHAMFERB
 40
0.0
  9
$CHAMFERC
 40
0.0
  9
$CHAMFERD
 40
0.0
  9
$SKPOLY
 70
     0
  9
$TDCREATE
 40
2458156.981875
  9
$TDUCREATE
 40
2458156.981875
  9
$TDUPDATE
 40
2458156.981921296
  9
$TDUUPDATE
 40
2458156.981921296
  9
$TDINDWG
 40
0.0000000116
  9
$TDUSRTIMER
 40
0.0000000116
  9
$USRTIMER
 70
     1
  9
$ANGBASE
 50
0.0
  9
$ANGDIR
 70
     0
  9
$PDMODE
 70
     0
  9
$PDSIZE
 40
0.0
  9
$PLINEWID
 40
0.0
  9
$SPLFRAME
 70
     0
  9
$SPLINETYPE
 70
     6
  9
$SPLINESEGS
 70
     8
  9
$HANDSEED
  5
397
  9
$SURFTAB1
 70
     6
  9
$SURFTAB2
 70
     6
  9
$SURFTYPE
 70
     6
  9
$SURFU
 70
     6
  9
$SURFV
 70
     6
  9
$UCSBASE
  2

  9
$UCSNAME
  2

  9
$UCSORG
 10
0.0
 20
0.0
 30
0.0
  9
$UCSXDIR
 10
1.0
 20
0.0
 30
0.0
  9
$UCSYDIR
 10
0.0
 20
1.0
 30
0.0
  9
$UCSORTHOREF
  2

  9
$UCSORTHOVIEW
 70
     0
  9
$UCSORGTOP
 10
0.0
 20
0.0
 30
0.0
  9
$UCSORGBOTTOM
 10
0.0
 20
0.0
 30
0.0
  9
$UCSORGLEFT
 10
0.0
 20
0.0
 30
0.0
  9
$UCSORGRIGHT
 10
0.0
 20
0.0
 30
0.0
  9
$UCSORGFRONT
 10
0.0
 20
0.0
 30
0.0
  9
$UCSORGBACK
 10
0.0
 20
0.0
 30
0.0
  9
$PUCSBASE
  2

  9
$PUCSNAME
  2

  9
$PUCSORG
 10
0.0
 20
0.0
 30
0.0
  9
$PUCSXDIR
 10
1.0
 20
0.0
 30
0.0
  9
$PUCSYDIR
 10
0.0
 20
1.0
 30
0.0
  9
$PUCSORTHOREF
  2

  9
$PUCSORTHOVIEW
 70
     0
  9
$PUCSORGTOP
 10
0.0
 20
0.0
 30
0.0
  9
$PUCSORGBOTTOM
 10
0.0
 20
0.0
 30
0.0
  9
$PUCSORGLEFT
 10
0.0
 20
0.0
 30
0.0
  9
$PUCSORGRIGHT
 10
0.0
 20
0.0
 30
0.0
  9
$PUCSORGFRONT
 10
0.0
 20
0.0
 30
0.0
  9
$PUCSORGBACK
 10
0.0
 20
0.0
 30
0.0
  9
$USERI1
 70
     0
  9
$USERI2
 70
     0
  9
$USERI3
 70
     0
  9
$USERI4
 70
     0
  9
$USERI5
 70
     0
  9
$USERR1
 40
0.0
  9
$USERR2
 40
0.0
  9
$USERR3
 40
0.0
  9
$USERR4
 40
0.0
  9
$USERR5
 40
0.0
  9
$WORLDVIEW
 70
     1
  9
$SHADEDGE
 70
     3
  9
$SHADEDIF
 70
    70
  9
$TILEMODE
 70
     1
  9
$MAXACTVP
 70
    64
  9
$PINSBASE
 10
0.0
 20
0.0
 30
0.0
  9
$PLIMCHECK
 70
     0
  9
$PEXTMIN
 10
1.000000000000000E+20
 20
1.000000000000000E+20
 30
1.000000000000000E+20
  9
$PEXTMAX
 10
-1.000000000000000E+20
 20
-1.000000000000000E+20
 30
-1.000000000000000E+20
  9
$PLIMMIN
 10
0.0
 20
0.0
  9
$PLIMMAX
 10
12.0
 20
9.0
  9
$UNITMODE
 70
     0
  9
$VISRETAIN
 70
     1
  9
$PLINEGEN
 70
     0
  9
$PSLTSCALE
 70
     1
  9
$TREEDEPTH
 70
  3020
  9
$CMLSTYLE
  2
Standard
  9
$CMLJUST
 70
     0
  9
$CMLSCALE
 40
1.0
  9
$PROXYGRAPHICS
 70
     1
  9
$MEASUREMENT
 70
     0
  9
$CELWEIGHT
370
    -1
  9
$ENDCAPS
280
     0
  9
$JOINSTYLE
280
     0
  9
$LWDISPLAY
290
     0
  9
$INSUNITS
 70
     4
  9
$HYPERLINKBASE
  1

  9
$STYLESHEET
  1

  9
$XEDIT
290
     1
  9
$CEPSNTYPE
380
     0
  9
$PSTYLEMODE
290
     1
  9
$FINGERPRINTGUID
  2
{81226B7E-CABC-42D8-8409-A042F3B8A509}
  9
$VERSIONGUID
  2
{FAEB1C32-E019-11D5-929B-00C0DF256EC4}
  9
$EXTNAMES
290
     1
  9
$PSVPSCALE
 40
0.0
  9
$OLESTARTUP
290
     0
  9
$SORTENTS
280
   127
  9
$INDEXCTL
280
     0
  9
$HIDETEXT
280
     1
  9
$XCLIPFRAME
290
     0
  9
$HALOGAP
280
     0
  9
$OBSCOLOR
 70
   257
  9
$OBSLTYPE
280
     0
  9
$INTERSECTIONDISPLAY
280
     0
  9
$INTERSECTIONCOLOR
 70
   257
  9
$DIMASSOC
280
     2
  9
$PROJECTNAME
  1

  0
ENDSEC
  0
SECTION
  2
CLASSES
  0
CLASS
  1
ACDBDICTIONARYWDFLT
  2
AcDbDictionaryWithDefault
  3
ObjectDBX Classes
 90
        0
 91
        4
280
     0
281
     0
  0
CLASS
  1
VISUALSTYLE
  2
AcDbVisualStyle
  3
ObjectDBX Classes
 90
     4095
 91
        4
280
     0
281
     0
  0
CLASS
  1
MATERIAL
  2
AcDbMaterial
  3
ObjectDBX Classes
 90
     1153
 91
        4
280
     0
281
     0
  0
CLASS
  1
SCALE
  2
AcDbScale
  3
ObjectDBX Classes
 90
     1153
 91
        4
280
     0
281
     0
  0
CLASS
  1
TABLESTYLE
  2
AcDbTableStyle
  3
ObjectDBX Classes
 90
     4095
 91
        4
280
     0
281
     0
  0
CLASS
  1
MLEADERSTYLE
  2
AcDbMLeaderStyle
  3
ACDB_MLEADERSTYLE_CLASS
 90
     4095
 91
        4
280
     0
281
     0
  0
CLASS
  1
SUN
  2
AcDbSun
  3
SCENEOE
 90
     1153
 91
        4
280
     0
281
     0
  0
CLASS
  1
DICTIONARYVAR
  2
AcDbDictionaryVar
  3
ObjectDBX Classes
 90
        0
 91
        4
280
     0
281
     0
  0
CLASS
  1
CELLSTYLEMAP
  2
AcDbCellStyleMap
  3
ObjectDBX Classes
 90
     1152
 91
        4
280
     0
281
     0
  0
ENDSEC
  0
SECTION
  2
TABLES
  0
TABLE
  2
VPORT
  5
8
102
{ACAD_XDICTIONARY
360
350
102
}
330
0
100
AcDbSymbolTable
 70
     1
  0
VPORT
  5
29
330
8
100
AcDbSymbolTableRecord
100
AcDbViewportTableRecord
  2
*Active
 70
     0
 10
0.0
 20
0.0
 11
1.0
 21
1.0
 12
-0.0000000000000036
 22
0.0234193786142143
 13
0.0
 23
0.0
 14
0.5
 24
0.5
 15
0.5
 25
0.5
 16
0.0
 26
0.0
 36
1.0
 17
0.0
 27
0.0
 37
0.0
 40
26.19642153106288
 41
1.557464631252046
 42
50.0
 43
0.0
 44
0.0
 50
0.0
 51
0.0
 71
     0
 72
   100
 73
     1
 74
     3
 75
     0
 76
     0
 77
     0
 78
     0
281
     0
 65
     1
110
0.0
120
0.0
130
0.0
111
1.0
121
0.0
131
0.0
112
0.0
122
1.0
132
0.0
 79
     0
146
0.0
  0
ENDTAB
  0
TABLE
  2
LTYPE
  5
5
330
0
100
AcDbSymbolTable
 70
     1
  0
LTYPE
  5
14
330
5
100
AcDbSymbolTableRecord
100
AcDbLinetypeTableRecord
  2
ByBlock
 70
     0
  3

 72
    65
 73
     0
 40
0.0
  0
LTYPE
  5
15
330
5
100
AcDbSymbolTableRecord
100
AcDbLinetypeTableRecord
  2
ByLayer
 70
     0
  3

 72
    65
 73
     0
 40
0.0
  0
LTYPE
  5
16
330
5
100
AcDbSymbolTableRecord
100
AcDbLinetypeTableRecord
  2
Continuous
 70
     0
  3
Solid line
 72
    65
 73
     0
 40
0.0
  0
ENDTAB
  0
TABLE
  2
LAYER
  5
2
330
0
100
AcDbSymbolTable
 70
     2
  0
LAYER
  5
10
330
2
100
AcDbSymbolTableRecord
100
AcDbLayerTableRecord
  2
0
 70
     0
 62
     7
  6
Continuous
370
    -3
390
F
  0
LAYER
  5
6E
330
2
100
AcDbSymbolTableRecord
100
AcDbLayerTableRecord
  2
Default
 70
     0
 62
   178
420
        0
  6
Continuous
370
    -3
390
F
  0
ENDTAB
  0
TABLE
  2
STYLE
  5
3
330
0
100
AcDbSymbolTable
 70
     1
  0
STYLE
  5
11
330
3
100
AcDbSymbolTableRecord
100
AcDbTextStyleTableRecord
  2
Standard
 70
     0
 40
0.0
 41
1.0
 50
0.0
 71
     0
 42
0.2
  3
txt
  4

  0
ENDTAB
  0
TABLE
  2
VIEW
  5
6
330
0
100
AcDbSymbolTable
 70
     0
  0
ENDTAB
  0
TABLE
  2
UCS
  5
7
330
0
100
AcDbSymbolTable
 70
     0
  0
ENDTAB
  0
TABLE
  2
APPID
  5
9
330
0
100
AcDbSymbolTable
 70
     2
  0
APPID
  5
12
330
9
100
AcDbSymbolTableRecord
100
AcDbRegAppTableRecord
  2
ACAD
 70
     0
  0
APPID
  5
38F
330
9
100
AcDbSymbolTableRecord
100
AcDbRegAppTableRecord
  2
ACAD_MLEADERVER
 70
     0
  0
ENDTAB
  0
TABLE
  2
DIMSTYLE
  5
A
330
0
100
AcDbSymbolTable
 70
     1
100
AcDbDimStyleTable
  0
DIMSTYLE
105
27
330
A
100
AcDbSymbolTableRecord
100
AcDbDimStyleTableRecord
  2
STANDARD_ACAD
 70
     0
178
     0
340
11
  0
ENDTAB
  0
TABLE
  2
BLOCK_RECORD
  5
1
330
0
100
AcDbSymbolTable
 70
     1
  0
BLOCK_RECORD
  5
1F
330
1
100
AcDbSymbolTableRecord
100
AcDbBlockTableRecord
  2
*Model_Space
340
22
  0
BLOCK_RECORD
  5
1B
330
1
100
AcDbSymbolTableRecord
100
AcDbBlockTableRecord
  2
*Paper_Space
340
1E
  0
BLOCK_RECORD
  5
23
330
1
100
AcDbSymbolTableRecord
100
AcDbBlockTableRecord
  2
*Paper_Space0
340
26
  0
ENDTAB
  0
ENDSEC
  0
SECTION
  2
BLOCKS
  0
BLOCK
  5
20
330
1F
100
AcDbEntity
  8
0
100
AcDbBlockBegin
  2
*Model_Space
 70
     0
 10
0.0
 20
0.0
 30
0.0
  3
*Model_Space
  1

  0
ENDBLK
  5
21
330
1F
100
AcDbEntity
  8
0
100
AcDbBlockEnd
  0
BLOCK
  5
1C
330
1B
100
AcDbEntity
 67
     1
  8
0
100
AcDbBlockBegin
  2
*Paper_Space
 70
     0
 10
0.0
 20
0.0
 30
0.0
  3
*Paper_Space
  1

  0
ENDBLK
  5
1D
330
1B
100
AcDbEntity
 67
     1
  8
0
100
AcDbBlockEnd
  0
BLOCK
  5
24
330
23
100
AcDbEntity
  8
0
100
AcDbBlockBegin
  2
*Paper_Space0
 70
     0
 10
0.0
 20
0.0
 30
0.0
  3
*Paper_Space0
  1

  0
ENDBLK
  5
25
330
23
100
AcDbEntity
  8
0
100
AcDbBlockEnd
  0
ENDSEC
  0
SECTION
  2
ENTITIES
  0
POLYLINE
  5
6F
330
1F
100
AcDbEntity
  8
Default
 62
   178
420
        0
100
AcDb2dPolyline
 66
     1
 10
0.0
 20
0.0
 30
0.0
  0
VERTEX
  5
70
330
6F
100
AcDbEntity
  8
Default
 62
   178
420
        0
100
AcDbVertex
100
AcDb2dVertex
 10
-3.257896703930814
 20
7.073760776060587
 30
0.0
  0
VERTEX
  5
71
330
6F
100
AcDbEntity
  8
Default
 62
   178
420
        0
100
AcDbVertex
100
AcDb2dVertex
 10
-3.416815212217887
 20
7.22454111880231
 30
0.0
  0
SEQEND
  5
72
330
6F
100
AcDbEntity
  8
Default
 62
   178
420
        0
  0
POLYLINE
  5
73
330
1F
100
AcDbEntity
  8
Default
 62
   178
420
        0
100
AcDb2dPolyline
 66
     1
 10
0.0
 20
0.0
 30
0.0
  0
VERTEX
  5
74
330
73
100
AcDbEntity
  8
Default
 62
   178
420
        0
100
AcDbVertex
100
AcDb2dVertex
 10
3.099670260115308
 20
7.073760776060587
 30
0.0
  0
VERTEX
  5
75
330
73
100
AcDbEntity
  8
Default
 62
   178
420
        0
100
AcDbVertex
100
AcDb2dVertex
 10
3.258588768402388
 20
7.22454111880231
 30
0.0
  0
SEQEND
  5
76
330
73
100
AcDbEntity
  8
Default
 62
   178
420
        0
  0
POLYLINE
  5
77
330
1F
100
AcDbEntity
  8
Default
 62
   178
420
        0
100
AcDb2dPolyline
 66
     1
 10
0.0
 20
0.0
 30
0.0
  0
VERTEX
  5
78
330
77
100
AcDbEntity
  8
Default
 62
   178
420
        0
100
AcDbVertex
100
AcDb2dVertex
 10
3.099670260115315
 20
-8.002697129037823
 30
0.0
  0
VERTEX
  5
79
330
77
100
AcDbEntity
  8
Default
 62
   178
420
        0
100
AcDbVertex
100
AcDb2dVertex
 10
3.258588768402388
 20
-8.15347747177955
 30
0.0
  0
SEQEND
  5
7A
330
77
100
AcDbEntity
  8
Default
 62
   178
420
        0
  0
POLYLINE
  5
7B
330
1F
100
AcDbEntity
  8
Default
 62
   178
420
        0
100
AcDb2dPolyline
 66
     1
 10
0.0
 20
0.0
 30
0.0
  0
VERTEX
  5
7C
330
7B
100
AcDbEntity
  8
Default
 62
   178
420
        0
100
AcDbVertex
100
AcDb2dVertex
 10
-3.257896703930807
 20
-8.00269712903782
 30
0.0
  0
VERTEX
  5
7D
330
7B
100
AcDbEntity
  8
Default
 62
   178
420
        0
100
AcDbVertex
100
AcDb2dVertex
 10
-3.416815212217887
 20
-8.15347747177955
 30
0.0
  0
SEQEND
  5
7E
330
7B
100
AcDbEntity
  8
Default
 62
   178
420
        0
  0
SPLINE
  5
7F
330
1F
100
AcDbEntity
  8
Default
 62
   178
420
        0
100
AcDbSpline
210
0.0
220
0.0
230
1.0
 70
     8
 71
     3
 72
     8
 73
     4
 74
     0
 42
0.000000001
 43
0.0000000001
 40
1.0
 40
1.0
 40
1.0
 40
1.0
 40
2.0
 40
2.0
 40
2.0
 40
2.0
 10
5.790596349712353
 20
11.64484020279411
 30
0.0
 10
5.790596349712353
 20
11.29374564355828
 30
0.0
 10
5.505952795756235
 20
11.00910208960216
 30
0.0
 10
5.1548582365204
 20
11.00910208960216
 30
0.0
  0
SPLINE
  5
80
330
1F
100
AcDbEntity
  8
Default
 62
   178
420
        0
100
AcDbSpline
210
0.0
220
0.0
230
1.0
 70
     8
 71
     3
 72
     8
 73
     4
 74
     0
 42
0.000000001
 43
0.0000000001
 40
2.0
 40
2.0
 40
2.0
 40
2.0
 40
3.0
 40
3.0
 40
3.0
 40
3.0
 10
5.1548582365204
 20
11.00910208960216
 30
0.0
 10
4.803763677284572
 20
11.00910208960216
 30
0.0
 10
4.519056043284791
 20
11.29374564355828
 30
0.0
 10
4.519056043284791
 20
11.64484020279411
 30
0.0
  0
SPLINE
  5
81
330
1F
100
AcDbEntity
  8
Default
 62
   178
420
        0
100
AcDbSpline
210
0.0
220
0.0
230
1.0
 70
     8
 71
     3
 72
     8
 73
     4
 74
     0
 42
0.000000001
 43
0.0000000001
 40
3.0
 40
3.0
 40
3.0
 40
3.0
 40
4.0
 40
4.0
 40
4.0
 40
4.0
 10
4.519056043284791
 20
11.64484020279411
 30
0.0
 10
4.519056043284791
 20
11.99593476202995
 30
0.0
 10
4.803763677284572
 20
12.28057831598607
 30
0.0
 10
5.1548582365204
 20
12.28057831598607
 30
0.0
  0
SPLINE
  5
82
330
1F
100
AcDbEntity
  8
Default
 62
   178
420
        0
100
AcDbSpline
210
0.0
220
0.0
230
1.0
 70
     8
 71
     3
 72
     8
 73
     4
 74
     0
 42
0.000000001
 43
0.0000000001
 40
4.0
 40
4.0
 40
4.0
 40
4.0
 40
5.0
 40
5.0
 40
5.0
 40
5.0
 10
5.1548582365204
 20
12.28057831598607
 30
0.0
 10
5.505952795756235
 20
12.28057831598607
 30
0.0
 10
5.790596349712353
 20
11.99593476202995
 30
0.0
 10
5.790596349712353
 20
11.64484020279411
 30
0.0
  0
SPLINE
  5
83
330
1F
100
AcDbEntity
  8
Default
 62
   178
420
        0
100
AcDbSpline
210
0.0
220
0.0
230
1.0
 70
     8
 71
     3
 72
     8
 73
     4
 74
     0
 42
0.000000001
 43
0.0000000001
 40
1.0
 40
1.0
 40
1.0
 40
1.0
 40
2.0
 40
2.0
 40
2.0
 40
2.0
 10
2.064066266454752
 20
-11.32960483599274
 30
0.0
 10
2.064066266454752
 20
-11.68076347527223
 30
0.0
 10
1.779422712498633
 20
-11.96534294918469
 30
0.0
 10
1.428264073219136
 20
-11.96534294918469
 30
0.0
  0
SPLINE
  5
84
330
1F
100
AcDbEntity
  8
Default
 62
   178
420
        0
100
AcDbSpline
210
0.0
220
0.0
230
1.0
 70
     8
 71
     3
 72
     8
 73
     4
 74
     0
 42
0.000000001
 43
0.0000000001
 40
2.0
 40
2.0
 40
2.0
 40
2.0
 40
3.0
 40
3.0
 40
3.0
 40
3.0
 10
1.428264073219136
 20
-11.96534294918469
 30
0.0
 10
1.07723359402697
 20
-11.96534294918469
 30
0.0
 10
0.7925259600271893
 20
-11.68076347527223
 30
0.0
 10
0.7925259600271893
 20
-11.32960483599274
 30
0.0
  0
SPLINE
  5
85
330
1F
100
AcDbEntity
  8
Default
 62
   178
420
        0
100
AcDbSpline
210
0.0
220
0.0
230
1.0
 70
     8
 71
     3
 72
     8
 73
     4
 74
     0
 42
0.000000001
 43
0.0000000001
 40
3.0
 40
3.0
 40
3.0
 40
3.0
 40
4.0
 40
4.0
 40
4.0
 40
4.0
 10
0.7925259600271893
 20
-11.32960483599274
 30
0.0
 10
0.7925259600271893
 20
-10.9785102767569
 30
0.0
 10
1.07723359402697
 20
-10.69380264275712
 30
0.0
 10
1.428264073219136
 20
-10.69380264275712
 30
0.0
  0
SPLINE
  5
86
330
1F
100
AcDbEntity
  8
Default
 62
   178
420
        0
100
AcDbSpline
210
0.0
220
0.0
230
1.0
 70
     8
 71
     3
 72
     8
 73
     4
 74
     0
 42
0.000000001
 43
0.0000000001
 40
4.0
 40
4.0
 40
4.0
 40
4.0
 40
5.0
 40
5.0
 40
5.0
 40
5.0
 10
1.428264073219136
 20
-10.69380264275712
 30
0.0
 10
1.779422712498633
 20
-10.69380264275712
 30
0.0
 10
2.064066266454752
 20
-10.9785102767569
 30
0.0
 10
2.064066266454752
 20
-11.32960483599274
 30
0.0
  0
SPLINE
  5
87
330
1F
100
AcDbEntity
  8
Default
 62
   178
420
        0
100
AcDbSpline
210
0.0
220
0.0
230
1.0
 70
     8
 71
     3
 72
     8
 73
     4
 74
     0
 42
0.000000001
 43
0.0000000001
 40
1.0
 40
1.0
 40
1.0
 40
1.0
 40
2.0
 40
2.0
 40
2.0
 40
2.0
 10
-1.044443835684035
 20
-11.32960483599274
 30
0.0
 10
-1.044443835684035
 20
-11.68076347527223
 30
0.0
 10
-1.32902330959649
 20
-11.96534294918469
 30
0.0
 10
-1.680181948875988
 20
-11.96534294918469
 30
0.0
  0
SPLINE
  5
88
330
1F
100
AcDbEntity
  8
Default
 62
   178
420
        0
100
AcDbSpline
210
0.0
220
0.0
230
1.0
 70
     8
 71
     3
 72
     8
 73
     4
 74
     0
 42
0.000000001
 43
0.0000000001
 40
2.0
 40
2.0
 40
2.0
 40
2.0
 40
3.0
 40
3.0
 40
3.0
 40
3.0
 10
-1.680181948875988
 20
-11.96534294918469
 30
0.0
 10
-2.031276508111816
 20
-11.96534294918469
 30
0.0
 10
-2.315920062067935
 20
-11.68076347527223
 30
0.0
 10
-2.315920062067935
 20
-11.32960483599274
 30
0.0
  0
SPLINE
  5
89
330
1F
100
AcDbEntity
  8
Default
 62
   178
420
        0
100
AcDbSpline
210
0.0
220
0.0
230
1.0
 70
     8
 71
     3
 72
     8
 73
     4
 74
     0
 42
0.000000001
 43
0.0000000001
 40
3.0
 40
3.0
 40
3.0
 40
3.0
 40
4.0
 40
4.0
 40
4.0
 40
4.0
 10
-2.315920062067935
 20
-11.32960483599274
 30
0.0
 10
-2.315920062067935
 20
-10.9785102767569
 30
0.0
 10
-2.031276508111816
 20
-10.69380264275712
 30
0.0
 10
-1.680181948875988
 20
-10.69380264275712
 30
0.0
  0
SPLINE
  5
8A
330
1F
100
AcDbEntity
  8
Default
 62
   178
420
        0
100
AcDbSpline
210
0.0
220
0.0
230
1.0
 70
     8
 71
     3
 72
     8
 73
     4
 74
     0
 42
0.000000001
 43
0.0000000001
 40
4.0
 40
4.0
 40
4.0
 40
4.0
 40
5.0
 40
5.0
 40
5.0
 40
5.0
 10
-1.680181948875988
 20
-10.69380264275712
 30
0.0
 10
-1.32902330959649
 20
-10.69380264275712
 30
0.0
 10
-1.044443835684035
 20
-10.9785102767569
 30
0.0
 10
-1.044443835684035
 20
-11.32960483599274
 30
0.0
  0
SPLINE
  5
8B
330
1F
100
AcDbEntity
  8
Default
 62
   178
420
        0
100
AcDbSpline
210
0.0
220
0.0
230
1.0
 70
     8
 71
     3
 72
     8
 73
     4
 74
     0
 42
0.000000001
 43
0.0000000001
 40
1.0
 40
1.0
 40
1.0
 40
1.0
 40
2.0
 40
2.0
 40
2.0
 40
2.0
 10
-4.519030411267324
 20
11.64484020279411
 30
0.0
 10
-4.519030411267324
 20
11.29374564355828
 30
0.0
 10
-4.803673965223442
 20
11.00910208960216
 30
0.0
 10
-5.154768524459278
 20
11.00910208960216
 30
0.0
  0
SPLINE
  5
8C
330
1F
100
AcDbEntity
  8
Default
 62
   178
420
        0
100
AcDbSpline
210
0.0
220
0.0
230
1.0
 70
     8
 71
     3
 72
     8
 73
     4
 74
     0
 42
0.000000001
 43
0.0000000001
 40
2.0
 40
2.0
 40
2.0
 40
2.0
 40
3.0
 40
3.0
 40
3.0
 40
3.0
 10
-5.154768524459278
 20
11.00910208960216
 30
0.0
 10
-5.505927163738768
 20
11.00910208960216
 30
0.0
 10
-5.790570717694886
 20
11.29374564355828
 30
0.0
 10
-5.790570717694886
 20
11.64484020279411
 30
0.0
  0
SPLINE
  5
8D
330
1F
100
AcDbEntity
  8
Default
 62
   178
420
        0
100
AcDbSpline
210
0.0
220
0.0
230
1.0
 70
     8
 71
     3
 72
     8
 73
     4
 74
     0
 42
0.000000001
 43
0.0000000001
 40
3.0
 40
3.0
 40
3.0
 40
3.0
 40
4.0
 40
4.0
 40
4.0
 40
4.0
 10
-5.790570717694886
 20
11.64484020279411
 30
0.0
 10
-5.790570717694886
 20
11.99593476202995
 30
0.0
 10
-5.505927163738768
 20
12.28057831598607
 30
0.0
 10
-5.154768524459278
 20
12.28057831598607
 30
0.0
  0
SPLINE
  5
8E
330
1F
100
AcDbEntity
  8
Default
 62
   178
420
        0
100
AcDbSpline
210
0.0
220
0.0
230
1.0
 70
     8
 71
     3
 72
     8
 73
     4
 74
     0
 42
0.000000001
 43
0.0000000001
 40
4.0
 40
4.0
 40
4.0
 40
4.0
 40
5.0
 40
5.0
 40
5.0
 40
5.0
 10
-5.154768524459278
 20
12.28057831598607
 30
0.0
 10
-4.803673965223442
 20
12.28057831598607
 30
0.0
 10
-4.519030411267324
 20
11.99593476202995
 30
0.0
 10
-4.519030411267324
 20
11.64484020279411
 30
0.0
  0
POLYLINE
  5
8F
330
1F
100
AcDbEntity
  8
Default
 62
   178
420
        0
100
AcDb2dPolyline
 66
     1
 10
0.0
 20
0.0
 30
0.0
  0
VERTEX
  5
90
330
8F
100
AcDbEntity
  8
Default
 62
   178
420
        0
100
AcDbVertex
100
AcDb2dVertex
 10
-10.98886561181303
 20
-1.735995666907447
 30
0.0
  0
VERTEX
  5
91
330
8F
100
AcDbEntity
  8
Default
 62
   178
420
        0
100
AcDbVertex
100
AcDb2dVertex
 10
-12.44200876198478
 20
-1.735995666907447
 30
0.0
  0
SEQEND
  5
92
330
8F
100
AcDbEntity
  8
Default
 62
   178
420
        0
  0
POLYLINE
  5
93
330
1F
100
AcDbEntity
  8
Default
 62
   178
420
        0
100
AcDb2dPolyline
 66
     1
 10
0.0
 20
0.0
 30
0.0
  0
VERTEX
  5
94
330
93
100
AcDbEntity
  8
Default
 62
   178
420
        0
100
AcDbVertex
100
AcDb2dVertex
 10
-11.71546281891637
 20
-2.462592874010782
 30
0.0
  0
VERTEX
  5
95
330
93
100
AcDbEntity
  8
Default
 62
   178
420
        0
100
AcDbVertex
100
AcDb2dVertex
 10
-11.71546281891637
 20
-1.009385643795376
 30
0.0
  0
SEQEND
  5
96
330
93
100
AcDbEntity
  8
Default
 62
   178
420
        0
  0
POLYLINE
  5
97
330
1F
100
AcDbEntity
  8
Default
 62
   178
420
        0
100
AcDb2dPolyline
 66
     1
 10
0.0
 20
0.0
 30
0.0
  0
VERTEX
  5
98
330
97
100
AcDbEntity
  8
Default
 62
   178
420
        0
100
AcDbVertex
100
AcDb2dVertex
 10
-11.71546281891637
 20
-1.009398459804109
 30
0.0
  0
VERTEX
  5
99
330
97
100
AcDbEntity
  8
Default
 62
   178
420
        0
100
AcDbVertex
100
AcDb2dVertex
 10
-11.71546281891637
 20
-2.462605690019515
 30
0.0
  0
SEQEND
  5
9A
330
97
100
AcDbEntity
  8
Default
 62
   178
420
        0
  0
POLYLINE
  5
9B
330
1F
100
AcDbEntity
  8
Default
 62
   178
420
        0
100
AcDb2dPolyline
 66
     1
 10
0.0
 20
0.0
 30
0.0
  0
VERTEX
  5
9C
330
9B
100
AcDbEntity
  8
Default
 62
   178
420
        0
100
AcDbVertex
100
AcDb2dVertex
 10
-10.98886561181303
 20
5.802265325663592
 30
0.0
  0
VERTEX
  5
9D
330
9B
100
AcDbEntity
  8
Default
 62
   178
420
        0
100
AcDbVertex
100
AcDb2dVertex
 10
-12.44200876198478
 20
5.802265325663592
 30
0.0
  0
SEQEND
  5
9E
330
9B
100
AcDbEntity
  8
Default
 62
   178
420
        0
  0
POLYLINE
  5
9F
330
1F
100
AcDbEntity
  8
Default
 62
   178
420
        0
100
AcDb2dPolyline
 66
     1
 10
0.0
 20
0.0
 30
0.0
  0
VERTEX
  5
A0
330
9F
100
AcDbEntity
  8
Default
 62
   178
420
        0
100
AcDbVertex
100
AcDb2dVertex
 10
-11.71546281891637
 20
5.075668118560258
 30
0.0
  0
VERTEX
  5
A1
330
9F
100
AcDbEntity
  8
Default
 62
   178
420
        0
100
AcDbVertex
100
AcDb2dVertex
 10
-11.71546281891637
 20
6.528811268732002
 30
0.0
  0
SEQEND
  5
A2
330
9F
100
AcDbEntity
  8
Default
 62
   178
420
        0
  0
POLYLINE
  5
A3
330
1F
100
AcDbEntity
  8
Default
 62
   178
420
        0
100
AcDb2dPolyline
 66
     1
 10
0.0
 20
0.0
 30
0.0
  0
VERTEX
  5
A4
330
A3
100
AcDbEntity
  8
Default
 62
   178
420
        0
100
AcDbVertex
100
AcDb2dVertex
 10
-11.71546281891637
 20
6.528824084740731
 30
0.0
  0
VERTEX
  5
A5
330
A3
100
AcDbEntity
  8
Default
 62
   178
420
        0
100
AcDbVertex
100
AcDb2dVertex
 10
-11.71546281891637
 20
5.075680934568988
 30
0.0
  0
SEQEND
  5
A6
330
A3
100
AcDbEntity
  8
Default
 62
   178
420
        0
  0
POLYLINE
  5
A7
330
1F
100
AcDbEntity
  8
Default
 62
   178
420
        0
100
AcDb2dPolyline
 66
     1
 10
0.0
 20
0.0
 30
0.0
  0
VERTEX
  5
A8
330
A7
100
AcDbEntity
  8
Default
 62
   178
420
        0
100
AcDbVertex
100
AcDb2dVertex
 10
-13.99700073355631
 20
5.802265325663592
 30
0.0
  0
VERTEX
  5
A9
330
A7
100
AcDbEntity
  8
Default
 62
   178
420
        0
100
AcDbVertex
100
AcDb2dVertex
 10
-15.45014388372805
 20
5.802265325663592
 30
0.0
  0
SEQEND
  5
AA
330
A7
100
AcDbEntity
  8
Default
 62
   178
420
        0
  0
POLYLINE
  5
AB
330
1F
100
AcDbEntity
  8
Default
 62
   178
420
        0
100
AcDb2dPolyline
 66
     1
 10
0.0
 20
0.0
 30
0.0
  0
VERTEX
  5
AC
330
AB
100
AcDbEntity
  8
Default
 62
   178
420
        0
100
AcDbVertex
100
AcDb2dVertex
 10
-14.72359153265528
 20
5.075668118560258
 30
0.0
  0
VERTEX
  5
AD
330
AB
100
AcDbEntity
  8
Default
 62
   178
420
        0
100
AcDbVertex
100
AcDb2dVertex
 10
-14.72359153265528
 20
6.528811268732002
 30
0.0
  0
SEQEND
  5
AE
330
AB
100
AcDbEntity
  8
Default
 62
   178
420
        0
  0
POLYLINE
  5
AF
330
1F
100
AcDbEntity
  8
Default
 62
   178
420
        0
100
AcDb2dPolyline
 66
     1
 10
0.0
 20
0.0
 30
0.0
  0
VERTEX
  5
B0
330
AF
100
AcDbEntity
  8
Default
 62
   178
420
        0
100
AcDbVertex
100
AcDb2dVertex
 10
-14.72359153265528
 20
6.528824084740731
 30
0.0
  0
VERTEX
  5
B1
330
AF
100
AcDbEntity
  8
Default
 62
   178
420
        0
100
AcDbVertex
100
AcDb2dVertex
 10
-14.72359153265528
 20
5.075680934568988
 30
0.0
  0
SEQEND
  5
B2
330
AF
100
AcDbEntity
  8
Default
 62
   178
420
        0
  0
POLYLINE
  5
B3
330
1F
100
AcDbEntity
  8
Default
 62
   178
420
        0
100
AcDb2dPolyline
 66
     1
 10
0.0
 20
0.0
 30
0.0
  0
VERTEX
  5
B4
330
B3
100
AcDbEntity
  8
Default
 62
   178
420
        0
100
AcDbVertex
100
AcDb2dVertex
 10
-13.99700073355631
 20
-1.735995666907447
 30
0.0
  0
VERTEX
  5
B5
330
B3
100
AcDbEntity
  8
Default
 62
   178
420
        0
100
AcDbVertex
100
AcDb2dVertex
 10
-15.45014388372805
 20
-1.735995666907447
 30
0.0
  0
SEQEND
  5
B6
330
B3
100
AcDbEntity
  8
Default
 62
   178
420
        0
  0
POLYLINE
  5
B7
330
1F
100
AcDbEntity
  8
Default
 62
   178
420
        0
100
AcDb2dPolyline
 66
     1
 10
0.0
 20
0.0
 30
0.0
  0
VERTEX
  5
B8
330
B7
100
AcDbEntity
  8
Default
 62
   178
420
        0
100
AcDbVertex
100
AcDb2dVertex
 10
-14.72359153265528
 20
-2.462592874010782
 30
0.0
  0
VERTEX
  5
B9
330
B7
100
AcDbEntity
  8
Default
 62
   178
420
        0
100
AcDbVertex
100
AcDb2dVertex
 10
-14.72359153265528
 20
-1.009385643795376
 30
0.0
  0
SEQEND
  5
BA
330
B7
100
AcDbEntity
  8
Default
 62
   178
420
        0
  0
POLYLINE
  5
BB
330
1F
100
AcDbEntity
  8
Default
 62
   178
420
        0
100
AcDb2dPolyline
 66
     1
 10
0.0
 20
0.0
 30
0.0
  0
VERTEX
  5
BC
330
BB
100
AcDbEntity
  8
Default
 62
   178
420
        0
100
AcDbVertex
100
AcDb2dVertex
 10
-14.72359153265528
 20
-1.009398459804109
 30
0.0
  0
VERTEX
  5
BD
330
BB
100
AcDbEntity
  8
Default
 62
   178
420
        0
100
AcDbVertex
100
AcDb2dVertex
 10
-14.72359153265528
 20
-2.462605690019515
 30
0.0
  0
SEQEND
  5
BE
330
BB
100
AcDbEntity
  8
Default
 62
   178
420
        0
  0
POLYLINE
  5
BF
330
1F
100
AcDbEntity
  8
Default
 62
   178
420
        0
100
AcDb2dPolyline
 66
     1
 10
0.0
 20
0.0
 30
0.0
  0
VERTEX
  5
C0
330
BF
100
AcDbEntity
  8
Default
 62
   178
420
        0
100
AcDbVertex
100
AcDb2dVertex
 10
-16.96755290969056
 20
-1.735995666907447
 30
0.0
  0
VERTEX
  5
C1
330
BF
100
AcDbEntity
  8
Default
 62
   178
420
        0
100
AcDbVertex
100
AcDb2dVertex
 10
-18.4206960598623
 20
-1.735995666907447
 30
0.0
  0
SEQEND
  5
C2
330
BF
100
AcDbEntity
  8
Default
 62
   178
420
        0
  0
POLYLINE
  5
C3
330
1F
100
AcDbEntity
  8
Default
 62
   178
420
        0
100
AcDb2dPolyline
 66
     1
 10
0.0
 20
0.0
 30
0.0
  0
VERTEX
  5
C4
330
C3
100
AcDbEntity
  8
Default
 62
   178
420
        0
100
AcDbVertex
100
AcDb2dVertex
 10
-17.69415011679389
 20
-2.462592874010782
 30
0.0
  0
VERTEX
  5
C5
330
C3
100
AcDbEntity
  8
Default
 62
   178
420
        0
100
AcDbVertex
100
AcDb2dVertex
 10
-17.69415011679389
 20
-1.009385643795376
 30
0.0
  0
SEQEND
  5
C6
330
C3
100
AcDbEntity
  8
Default
 62
   178
420
        0
  0
POLYLINE
  5
C7
330
1F
100
AcDbEntity
  8
Default
 62
   178
420
        0
100
AcDb2dPolyline
 66
     1
 10
0.0
 20
0.0
 30
0.0
  0
VERTEX
  5
C8
330
C7
100
AcDbEntity
  8
Default
 62
   178
420
        0
100
AcDbVertex
100
AcDb2dVertex
 10
-17.69415011679389
 20
-1.009398459804109
 30
0.0
  0
VERTEX
  5
C9
330
C7
100
AcDbEntity
  8
Default
 62
   178
420
        0
100
AcDbVertex
100
AcDb2dVertex
 10
-17.69415011679389
 20
-2.462605690019515
 30
0.0
  0
SEQEND
  5
CA
330
C7
100
AcDbEntity
  8
Default
 62
   178
420
        0
  0
POLYLINE
  5
CB
330
1F
100
AcDbEntity
  8
Default
 62
   178
420
        0
100
AcDb2dPolyline
 66
     1
 10
0.0
 20
0.0
 30
0.0
  0
VERTEX
  5
CC
330
CB
100
AcDbEntity
  8
Default
 62
   178
420
        0
100
AcDbVertex
100
AcDb2dVertex
 10
-16.96755290969056
 20
5.802265325663592
 30
0.0
  0
VERTEX
  5
CD
330
CB
100
AcDbEntity
  8
Default
 62
   178
420
        0
100
AcDbVertex
100
AcDb2dVertex
 10
-18.4206960598623
 20
5.802265325663592
 30
0.0
  0
SEQEND
  5
CE
330
CB
100
AcDbEntity
  8
Default
 62
   178
420
        0
  0
POLYLINE
  5
CF
330
1F
100
AcDbEntity
  8
Default
 62
   178
420
        0
100
AcDb2dPolyline
 66
     1
 10
0.0
 20
0.0
 30
0.0
  0
VERTEX
  5
D0
330
CF
100
AcDbEntity
  8
Default
 62
   178
420
        0
100
AcDbVertex
100
AcDb2dVertex
 10
-17.69415011679389
 20
5.075668118560258
 30
0.0
  0
VERTEX
  5
D1
330
CF
100
AcDbEntity
  8
Default
 62
   178
420
        0
100
AcDbVertex
100
AcDb2dVertex
 10
-17.69415011679389
 20
6.528811268732002
 30
0.0
  0
SEQEND
  5
D2
330
CF
100
AcDbEntity
  8
Default
 62
   178
420
        0
  0
POLYLINE
  5
D3
330
1F
100
AcDbEntity
  8
Default
 62
   178
420
        0
100
AcDb2dPolyline
 66
     1
 10
0.0
 20
0.0
 30
0.0
  0
VERTEX
  5
D4
330
D3
100
AcDbEntity
  8
Default
 62
   178
420
        0
100
AcDbVertex
100
AcDb2dVertex
 10
-17.69415011679389
 20
6.528824084740731
 30
0.0
  0
VERTEX
  5
D5
330
D3
100
AcDbEntity
  8
Default
 62
   178
420
        0
100
AcDbVertex
100
AcDb2dVertex
 10
-17.69415011679389
 20
5.075680934568988
 30
0.0
  0
SEQEND
  5
D6
330
D3
100
AcDbEntity
  8
Default
 62
   178
420
        0
  0
POLYLINE
  5
D7
330
1F
100
AcDbEntity
  8
Default
 62
   178
420
        0
100
AcDb2dPolyline
 66
     1
 10
0.0
 20
0.0
 30
0.0
  0
VERTEX
  5
D8
330
D7
100
AcDbEntity
  8
Default
 62
   178
420
        0
100
AcDbVertex
100
AcDb2dVertex
 10
-5.15151325824114
 20
11.63936776706521
 30
0.0
  0
VERTEX
  5
D9
330
D7
100
AcDbEntity
  8
Default
 62
   178
420
        0
100
AcDbVertex
100
AcDb2dVertex
 10
-4.663095165433055
 20
11.63597152475101
 30
0.0
  0
SEQEND
  5
DA
330
D7
100
AcDbEntity
  8
Default
 62
   178
420
        0
  0
POLYLINE
  5
DB
330
1F
100
AcDbEntity
  8
Default
 62
   178
420
        0
100
AcDb2dPolyline
 66
     1
 10
0.0
 20
0.0
 30
0.0
  0
VERTEX
  5
DC
330
DB
100
AcDbEntity
  8
Default
 62
   178
420
        0
100
AcDbVertex
100
AcDb2dVertex
 10
-5.643404489415825
 20
11.64280886540995
 30
0.0
  0
VERTEX
  5
DD
330
DB
100
AcDbEntity
  8
Default
 62
   178
420
        0
100
AcDbVertex
100
AcDb2dVertex
 10
-5.154922316564062
 20
11.63941262309575
 30
0.0
  0
SEQEND
  5
DE
330
DB
100
AcDbEntity
  8
Default
 62
   178
420
        0
  0
POLYLINE
  5
DF
330
1F
100
AcDbEntity
  8
Default
 62
   178
420
        0
100
AcDb2dPolyline
 66
     1
 10
0.0
 20
0.0
 30
0.0
  0
VERTEX
  5
E0
330
DF
100
AcDbEntity
  8
Default
 62
   178
420
        0
100
AcDbVertex
100
AcDb2dVertex
 10
-5.090432160620478
 20
12.14481192747485
 30
0.0
  0
VERTEX
  5
E1
330
DF
100
AcDbEntity
  8
Default
 62
   178
420
        0
100
AcDbVertex
100
AcDb2dVertex
 10
-5.218271847730441
 20
11.16297749845287
 30
0.0
  0
SEQEND
  5
E2
330
DF
100
AcDbEntity
  8
Default
 62
   178
420
        0
  0
POLYLINE
  5
E3
330
1F
100
AcDbEntity
  8
Default
 62
   178
420
        0
100
AcDb2dPolyline
 66
     1
 10
0.0
 20
0.0
 30
0.0
  0
VERTEX
  5
E4
330
E3
100
AcDbEntity
  8
Default
 62
   178
420
        0
100
AcDbVertex
100
AcDb2dVertex
 10
5.158119910742902
 20
11.63936776706521
 30
0.0
  0
VERTEX
  5
E5
330
E3
100
AcDbEntity
  8
Default
 62
   178
420
        0
100
AcDbVertex
100
AcDb2dVertex
 10
5.646538003550988
 20
11.63597152475101
 30
0.0
  0
SEQEND
  5
E6
330
E3
100
AcDbEntity
  8
Default
 62
   178
420
        0
  0
POLYLINE
  5
E7
330
1F
100
AcDbEntity
  8
Default
 62
   178
420
        0
100
AcDb2dPolyline
 66
     1
 10
0.0
 20
0.0
 30
0.0
  0
VERTEX
  5
E8
330
E7
100
AcDbEntity
  8
Default
 62
   178
420
        0
100
AcDbVertex
100
AcDb2dVertex
 10
4.666254311585698
 20
11.64280886540997
 30
0.0
  0
VERTEX
  5
E9
330
E7
100
AcDbEntity
  8
Default
 62
   178
420
        0
100
AcDbVertex
100
AcDb2dVertex
 10
5.154672404393784
 20
11.63941262309577
 30
0.0
  0
SEQEND
  5
EA
330
E7
100
AcDbEntity
  8
Default
 62
   178
420
        0
  0
POLYLINE
  5
EB
330
1F
100
AcDbEntity
  8
Default
 62
   178
420
        0
100
AcDb2dPolyline
 66
     1
 10
0.0
 20
0.0
 30
0.0
  0
VERTEX
  5
EC
330
EB
100
AcDbEntity
  8
Default
 62
   178
420
        0
100
AcDbVertex
100
AcDb2dVertex
 10
5.219258680402862
 20
12.14481192747484
 30
0.0
  0
VERTEX
  5
ED
330
EB
100
AcDbEntity
  8
Default
 62
   178
420
        0
100
AcDbVertex
100
AcDb2dVertex
 10
5.091354913249236
 20
11.16297749845287
 30
0.0
  0
SEQEND
  5
EE
330
EB
100
AcDbEntity
  8
Default
 62
   178
420
        0
  0
POLYLINE
  5
EF
330
1F
100
AcDbEntity
  8
Default
 62
   178
420
        0
100
AcDb2dPolyline
 66
     1
 10
0.0
 20
0.0
 30
0.0
  0
VERTEX
  5
F0
330
EF
100
AcDbEntity
  8
Default
 62
   178
420
        0
100
AcDbVertex
100
AcDb2dVertex
 10
1.431589827485307
 20
-11.33505163970418
 30
0.0
  0
VERTEX
  5
F1
330
EF
100
AcDbEntity
  8
Default
 62
   178
420
        0
100
AcDbVertex
100
AcDb2dVertex
 10
1.920007920293386
 20
-11.33851196206204
 30
0.0
  0
SEQEND
  5
F2
330
EF
100
AcDbEntity
  8
Default
 62
   178
420
        0
  0
POLYLINE
  5
F3
330
1F
100
AcDbEntity
  8
Default
 62
   178
420
        0
100
AcDb2dPolyline
 66
     1
 10
0.0
 20
0.0
 30
0.0
  0
VERTEX
  5
F4
330
F3
100
AcDbEntity
  8
Default
 62
   178
420
        0
100
AcDbVertex
100
AcDb2dVertex
 10
0.9396601482844195
 20
-11.33161054135942
 30
0.0
  0
VERTEX
  5
F5
330
F3
100
AcDbEntity
  8
Default
 62
   178
420
        0
100
AcDbVertex
100
AcDb2dVertex
 10
1.428142321136182
 20
-11.33507086371728
 30
0.0
  0
SEQEND
  5
F6
330
F3
100
AcDbEntity
  8
Default
 62
   178
420
        0
  0
POLYLINE
  5
F7
330
1F
100
AcDbEntity
  8
Default
 62
   178
420
        0
100
AcDb2dPolyline
 66
     1
 10
0.0
 20
0.0
 30
0.0
  0
VERTEX
  5
F8
330
F7
100
AcDbEntity
  8
Default
 62
   178
420
        0
100
AcDbVertex
100
AcDb2dVertex
 10
1.492664517101605
 20
-10.82960747929454
 30
0.0
  0
VERTEX
  5
F9
330
F7
100
AcDbEntity
  8
Default
 62
   178
420
        0
100
AcDbVertex
100
AcDb2dVertex
 10
1.364824829991642
 20
-11.81150598836018
 30
0.0
  0
SEQEND
  5
FA
330
F7
100
AcDbEntity
  8
Default
 62
   178
420
        0
  0
POLYLINE
  5
FB
330
1F
100
AcDbEntity
  8
Default
 62
   178
420
        0
100
AcDb2dPolyline
 66
     1
 10
0.0
 20
0.0
 30
0.0
  0
VERTEX
  5
FC
330
FB
100
AcDbEntity
  8
Default
 62
   178
420
        0
100
AcDbVertex
100
AcDb2dVertex
 10
-1.665219258680423
 20
-11.33335992655146
 30
0.0
  0
VERTEX
  5
FD
330
FB
100
AcDbEntity
  8
Default
 62
   178
420
        0
100
AcDbVertex
100
AcDb2dVertex
 10
-1.661823016366223
 20
-10.8448777536997
 30
0.0
  0
SEQEND
  5
FE
330
FB
100
AcDbEntity
  8
Default
 62
   178
420
        0
  0
POLYLINE
  5
FF
330
1F
100
AcDbEntity
  8
Default
 62
   178
420
        0
100
AcDb2dPolyline
 66
     1
 10
0.0
 20
0.0
 30
0.0
  0
VERTEX
  5
100
330
FF
100
AcDbEntity
  8
Default
 62
   178
420
        0
100
AcDbVertex
100
AcDb2dVertex
 10
-1.668660357025176
 20
-11.82522552570867
 30
0.0
  0
VERTEX
  5
101
330
FF
100
AcDbEntity
  8
Default
 62
   178
420
        0
100
AcDbVertex
100
AcDb2dVertex
 10
-1.665200034667314
 20
-11.33680743290058
 30
0.0
  0
SEQEND
  5
102
330
FF
100
AcDbEntity
  8
Default
 62
   178
420
        0
  0
POLYLINE
  5
103
330
1F
100
AcDbEntity
  8
Default
 62
   178
420
        0
100
AcDb2dPolyline
 66
     1
 10
0.0
 20
0.0
 30
0.0
  0
VERTEX
  5
104
330
103
100
AcDbEntity
  8
Default
 62
   178
420
        0
100
AcDbVertex
100
AcDb2dVertex
 10
-2.170663419090066
 20
-11.2722211568915
 30
0.0
  0
VERTEX
  5
105
330
103
100
AcDbEntity
  8
Default
 62
   178
420
        0
100
AcDbVertex
100
AcDb2dVertex
 10
-1.188828990068086
 20
-11.40012492404512
 30
0.0
  0
SEQEND
  5
106
330
103
100
AcDbEntity
  8
Default
 62
   178
420
        0
  0
POLYLINE
  5
107
330
1F
100
AcDbEntity
  8
Default
 62
   178
420
        0
100
AcDb2dPolyline
 66
     1
 10
0.0
 20
0.0
 30
0.0
  0
VERTEX
  5
108
330
107
100
AcDbEntity
  8
Default
 62
   178
420
        0
100
AcDbVertex
100
AcDb2dVertex
 10
17.53876882691707
 20
-1.735995666907447
 30
0.0
  0
VERTEX
  5
109
330
107
100
AcDbEntity
  8
Default
 62
   178
420
        0
100
AcDbVertex
100
AcDb2dVertex
 10
18.06159790317281
 20
-2.454268876338816
 30
0.0
  0
SEQEND
  5
10A
330
107
100
AcDbEntity
  8
Default
 62
   178
420
        0
  0
POLYLINE
  5
10B
330
1F
100
AcDbEntity
  8
Default
 62
   178
420
        0
100
AcDb2dPolyline
 66
     1
 10
0.0
 20
0.0
 30
0.0
  0
VERTEX
  5
10C
330
10B
100
AcDbEntity
  8
Default
 62
   178
420
        0
100
AcDbVertex
100
AcDb2dVertex
 10
17.01230000418122
 20
-1.012621686000411
 30
0.0
  0
VERTEX
  5
10D
330
10B
100
AcDbEntity
  8
Default
 62
   178
420
        0
100
AcDbVertex
100
AcDb2dVertex
 10
17.5350650003933
 20
-1.73089489543178
 30
0.0
  0
SEQEND
  5
10E
330
10B
100
AcDbEntity
  8
Default
 62
   178
420
        0
  0
POLYLINE
  5
10F
330
1F
100
AcDbEntity
  8
Default
 62
   178
420
        0
100
AcDb2dPolyline
 66
     1
 10
0.0
 20
0.0
 30
0.0
  0
VERTEX
  5
110
330
10F
100
AcDbEntity
  8
Default
 62
   178
420
        0
100
AcDbVertex
100
AcDb2dVertex
 10
18.14947086704943
 20
-1.087095512746886
 30
0.0
  0
VERTEX
  5
111
330
10F
100
AcDbEntity
  8
Default
 62
   178
420
        0
100
AcDbVertex
100
AcDb2dVertex
 10
16.9532886919709
 20
-2.33422132253842
 30
0.0
  0
SEQEND
  5
112
330
10F
100
AcDbEntity
  8
Default
 62
   178
420
        0
  0
POLYLINE
  5
113
330
1F
100
AcDbEntity
  8
Default
 62
   178
420
        0
100
AcDb2dPolyline
 66
     1
 10
0.0
 20
0.0
 30
0.0
  0
VERTEX
  5
114
330
113
100
AcDbEntity
  8
Default
 62
   178
420
        0
100
AcDbVertex
100
AcDb2dVertex
 10
17.53876882691708
 20
5.802265325663592
 30
0.0
  0
VERTEX
  5
115
330
113
100
AcDbEntity
  8
Default
 62
   178
420
        0
100
AcDbVertex
100
AcDb2dVertex
 10
18.06159790317281
 20
5.083992116232238
 30
0.0
  0
SEQEND
  5
116
330
113
100
AcDbEntity
  8
Default
 62
   178
420
        0
  0
POLYLINE
  5
117
330
1F
100
AcDbEntity
  8
Default
 62
   178
420
        0
100
AcDb2dPolyline
 66
     1
 10
0.0
 20
0.0
 30
0.0
  0
VERTEX
  5
118
330
117
100
AcDbEntity
  8
Default
 62
   178
420
        0
100
AcDbVertex
100
AcDb2dVertex
 10
17.01230000418121
 20
6.52563289856625
 30
0.0
  0
VERTEX
  5
119
330
117
100
AcDbEntity
  8
Default
 62
   178
420
        0
100
AcDbVertex
100
AcDb2dVertex
 10
17.53506500039328
 20
5.807359689134888
 30
0.0
  0
SEQEND
  5
11A
330
117
100
AcDbEntity
  8
Default
 62
   178
420
        0
  0
POLYLINE
  5
11B
330
1F
100
AcDbEntity
  8
Default
 62
   178
420
        0
100
AcDb2dPolyline
 66
     1
 10
0.0
 20
0.0
 30
0.0
  0
VERTEX
  5
11C
330
11B
100
AcDbEntity
  8
Default
 62
   178
420
        0
100
AcDbVertex
100
AcDb2dVertex
 10
18.14947086704943
 20
6.451133439802319
 30
0.0
  0
VERTEX
  5
11D
330
11B
100
AcDbEntity
  8
Default
 62
   178
420
        0
100
AcDbVertex
100
AcDb2dVertex
 10
16.95328869197089
 20
5.204007630010785
 30
0.0
  0
SEQEND
  5
11E
330
11B
100
AcDbEntity
  8
Default
 62
   178
420
        0
  0
SPLINE
  5
11F
330
1F
100
AcDbEntity
  8
Default
 62
   178
420
        0
100
AcDbSpline
210
0.0
220
0.0
230
1.0
 70
     8
 71
     3
 72
     8
 73
     4
 74
     0
 42
0.000000001
 43
0.0000000001
 40
1.0
 40
1.0
 40
1.0
 40
1.0
 40
2.0
 40
2.0
 40
2.0
 40
2.0
 10
-10.80723072804702
 20
5.802265325663592
 30
0.0
 10
-10.80723072804702
 20
5.300646743860693
 30
0.0
 10
-11.213818605096
 20
4.894058866811712
 30
0.0
 10
-11.7154371868989
 20
4.894058866811712
 30
0.0
  0
SPLINE
  5
120
330
1F
100
AcDbEntity
  8
Default
 62
   178
420
        0
100
AcDbSpline
210
0.0
220
0.0
230
1.0
 70
     8
 71
     3
 72
     8
 73
     4
 74
     0
 42
0.000000001
 43
0.0000000001
 40
2.0
 40
2.0
 40
2.0
 40
2.0
 40
3.0
 40
3.0
 40
3.0
 40
3.0
 10
-11.7154371868989
 20
4.894058866811712
 30
0.0
 10
-12.2170557687018
 20
4.894058866811712
 30
0.0
 10
-12.62364364575078
 20
5.300646743860693
 30
0.0
 10
-12.62364364575078
 20
5.802265325663592
 30
0.0
  0
SPLINE
  5
121
330
1F
100
AcDbEntity
  8
Default
 62
   178
420
        0
100
AcDbSpline
210
0.0
220
0.0
230
1.0
 70
     8
 71
     3
 72
     8
 73
     4
 74
     0
 42
0.000000001
 43
0.0000000001
 40
3.0
 40
3.0
 40
3.0
 40
3.0
 40
4.0
 40
4.0
 40
4.0
 40
4.0
 10
-12.62364364575078
 20
5.802265325663592
 30
0.0
 10
-12.62364364575078
 20
6.303883907466493
 30
0.0
 10
-12.2170557687018
 20
6.710471784515474
 30
0.0
 10
-11.7154371868989
 20
6.710471784515474
 30
0.0
  0
SPLINE
  5
122
330
1F
100
AcDbEntity
  8
Default
 62
   178
420
        0
100
AcDbSpline
210
0.0
220
0.0
230
1.0
 70
     8
 71
     3
 72
     8
 73
     4
 74
     0
 42
0.000000001
 43
0.0000000001
 40
4.0
 40
4.0
 40
4.0
 40
4.0
 40
5.0
 40
5.0
 40
5.0
 40
5.0
 10
-11.7154371868989
 20
6.710471784515474
 30
0.0
 10
-11.213818605096
 20
6.710471784515474
 30
0.0
 10
-10.80723072804702
 20
6.303883907466493
 30
0.0
 10
-10.80723072804702
 20
5.802265325663592
 30
0.0
  0
SPLINE
  5
123
330
1F
100
AcDbEntity
  8
Default
 62
   178
420
        0
100
AcDbSpline
210
0.0
220
0.0
230
1.0
 70
     8
 71
     3
 72
     8
 73
     4
 74
     0
 42
0.000000001
 43
0.0000000001
 40
1.0
 40
1.0
 40
1.0
 40
1.0
 40
2.0
 40
2.0
 40
2.0
 40
2.0
 10
-10.80723072804702
 20
-1.735995666907447
 30
0.0
 10
-10.80723072804702
 20
-2.237550168666685
 30
0.0
 10
-11.213818605096
 20
-2.644202125759329
 30
0.0
 10
-11.7154371868989
 20
-2.644202125759329
 30
0.0
  0
SPLINE
  5
124
330
1F
100
AcDbEntity
  8
Default
 62
   178
420
        0
100
AcDbSpline
210
0.0
220
0.0
230
1.0
 70
     8
 71
     3
 72
     8
 73
     4
 74
     0
 42
0.000000001
 43
0.0000000001
 40
2.0
 40
2.0
 40
2.0
 40
2.0
 40
3.0
 40
3.0
 40
3.0
 40
3.0
 10
-11.7154371868989
 20
-2.644202125759329
 30
0.0
 10
-12.2170557687018
 20
-2.644202125759329
 30
0.0
 10
-12.62364364575078
 20
-2.237550168666685
 30
0.0
 10
-12.62364364575078
 20
-1.735995666907447
 30
0.0
  0
SPLINE
  5
125
330
1F
100
AcDbEntity
  8
Default
 62
   178
420
        0
100
AcDbSpline
210
0.0
220
0.0
230
1.0
 70
     8
 71
     3
 72
     8
 73
     4
 74
     0
 42
0.000000001
 43
0.0000000001
 40
3.0
 40
3.0
 40
3.0
 40
3.0
 40
4.0
 40
4.0
 40
4.0
 40
4.0
 10
-12.62364364575078
 20
-1.735995666907447
 30
0.0
 10
-12.62364364575078
 20
-1.234377085104547
 30
0.0
 10
-12.2170557687018
 20
-0.827789208055566
 30
0.0
 10
-11.7154371868989
 20
-0.827789208055566
 30
0.0
  0
SPLINE
  5
126
330
1F
100
AcDbEntity
  8
Default
 62
   178
420
        0
100
AcDbSpline
210
0.0
220
0.0
230
1.0
 70
     8
 71
     3
 72
     8
 73
     4
 74
     0
 42
0.000000001
 43
0.0000000001
 40
4.0
 40
4.0
 40
4.0
 40
4.0
 40
5.0
 40
5.0
 40
5.0
 40
5.0
 10
-11.7154371868989
 20
-0.827789208055566
 30
0.0
 10
-11.213818605096
 20
-0.827789208055566
 30
0.0
 10
-10.80723072804702
 20
-1.234377085104547
 30
0.0
 10
-10.80723072804702
 20
-1.735995666907447
 30
0.0
  0
SPLINE
  5
127
330
1F
100
AcDbEntity
  8
Default
 62
   178
420
        0
100
AcDbSpline
210
0.0
220
0.0
230
1.0
 70
     8
 71
     3
 72
     8
 73
     4
 74
     0
 42
0.000000001
 43
0.0000000001
 40
1.0
 40
1.0
 40
1.0
 40
1.0
 40
2.0
 40
2.0
 40
2.0
 40
2.0
 10
-13.81536584979029
 20
-1.735995666907447
 30
0.0
 10
-13.81536584979029
 20
-2.237550168666685
 30
0.0
 10
-14.22201780688294
 20
-2.644202125759329
 30
0.0
 10
-14.72357230864217
 20
-2.644202125759329
 30
0.0
  0
SPLINE
  5
128
330
1F
100
AcDbEntity
  8
Default
 62
   178
420
        0
100
AcDbSpline
210
0.0
220
0.0
230
1.0
 70
     8
 71
     3
 72
     8
 73
     4
 74
     0
 42
0.000000001
 43
0.0000000001
 40
2.0
 40
2.0
 40
2.0
 40
2.0
 40
3.0
 40
3.0
 40
3.0
 40
3.0
 10
-14.72357230864217
 20
-2.644202125759329
 30
0.0
 10
-15.22519089044507
 20
-2.644202125759329
 30
0.0
 10
-15.63184284753772
 20
-2.237550168666685
 30
0.0
 10
-15.63184284753772
 20
-1.735995666907447
 30
0.0
  0
SPLINE
  5
129
330
1F
100
AcDbEntity
  8
Default
 62
   178
420
        0
100
AcDbSpline
210
0.0
220
0.0
230
1.0
 70
     8
 71
     3
 72
     8
 73
     4
 74
     0
 42
0.000000001
 43
0.0000000001
 40
3.0
 40
3.0
 40
3.0
 40
3.0
 40
4.0
 40
4.0
 40
4.0
 40
4.0
 10
-15.63184284753772
 20
-1.735995666907447
 30
0.0
 10
-15.63184284753772
 20
-1.234377085104547
 30
0.0
 10
-15.22519089044507
 20
-0.827789208055566
 30
0.0
 10
-14.72357230864217
 20
-0.827789208055566
 30
0.0
  0
SPLINE
  5
12A
330
1F
100
AcDbEntity
  8
Default
 62
   178
420
        0
100
AcDbSpline
210
0.0
220
0.0
230
1.0
 70
     8
 71
     3
 72
     8
 73
     4
 74
     0
 42
0.000000001
 43
0.0000000001
 40
4.0
 40
4.0
 40
4.0
 40
4.0
 40
5.0
 40
5.0
 40
5.0
 40
5.0
 10
-14.72357230864217
 20
-0.827789208055566
 30
0.0
 10
-14.22201780688294
 20
-0.827789208055566
 30
0.0
 10
-13.81536584979029
 20
-1.234377085104547
 30
0.0
 10
-13.81536584979029
 20
-1.735995666907447
 30
0.0
  0
SPLINE
  5
12B
330
1F
100
AcDbEntity
  8
Default
 62
   178
420
        0
100
AcDbSpline
210
0.0
220
0.0
230
1.0
 70
     8
 71
     3
 72
     8
 73
     4
 74
     0
 42
0.000000001
 43
0.0000000001
 40
1.0
 40
1.0
 40
1.0
 40
1.0
 40
2.0
 40
2.0
 40
2.0
 40
2.0
 10
-16.78591802592454
 20
-1.735995666907447
 30
0.0
 10
-16.78591802592454
 20
-2.237550168666685
 30
0.0
 10
-17.19256998301719
 20
-2.644202125759329
 30
0.0
 10
-17.69412448477643
 20
-2.644202125759329
 30
0.0
  0
SPLINE
  5
12C
330
1F
100
AcDbEntity
  8
Default
 62
   178
420
        0
100
AcDbSpline
210
0.0
220
0.0
230
1.0
 70
     8
 71
     3
 72
     8
 73
     4
 74
     0
 42
0.000000001
 43
0.0000000001
 40
2.0
 40
2.0
 40
2.0
 40
2.0
 40
3.0
 40
3.0
 40
3.0
 40
3.0
 10
-17.69412448477643
 20
-2.644202125759329
 30
0.0
 10
-18.19574306657933
 20
-2.644202125759329
 30
0.0
 10
-18.60233094362831
 20
-2.237550168666685
 30
0.0
 10
-18.60233094362831
 20
-1.735995666907447
 30
0.0
  0
SPLINE
  5
12D
330
1F
100
AcDbEntity
  8
Default
 62
   178
420
        0
100
AcDbSpline
210
0.0
220
0.0
230
1.0
 70
     8
 71
     3
 72
     8
 73
     4
 74
     0
 42
0.000000001
 43
0.0000000001
 40
3.0
 40
3.0
 40
3.0
 40
3.0
 40
4.0
 40
4.0
 40
4.0
 40
4.0
 10
-18.60233094362831
 20
-1.735995666907447
 30
0.0
 10
-18.60233094362831
 20
-1.234377085104547
 30
0.0
 10
-18.19574306657933
 20
-0.827789208055566
 30
0.0
 10
-17.69412448477643
 20
-0.827789208055566
 30
0.0
  0
SPLINE
  5
12E
330
1F
100
AcDbEntity
  8
Default
 62
   178
420
        0
100
AcDbSpline
210
0.0
220
0.0
230
1.0
 70
     8
 71
     3
 72
     8
 73
     4
 74
     0
 42
0.000000001
 43
0.0000000001
 40
4.0
 40
4.0
 40
4.0
 40
4.0
 40
5.0
 40
5.0
 40
5.0
 40
5.0
 10
-17.69412448477643
 20
-0.827789208055566
 30
0.0
 10
-17.19256998301719
 20
-0.827789208055566
 30
0.0
 10
-16.78591802592454
 20
-1.234377085104547
 30
0.0
 10
-16.78591802592454
 20
-1.735995666907447
 30
0.0
  0
SPLINE
  5
12F
330
1F
100
AcDbEntity
  8
Default
 62
   178
420
        0
100
AcDbSpline
210
0.0
220
0.0
230
1.0
 70
     8
 71
     3
 72
     8
 73
     4
 74
     0
 42
0.000000001
 43
0.0000000001
 40
1.0
 40
1.0
 40
1.0
 40
1.0
 40
2.0
 40
2.0
 40
2.0
 40
2.0
 10
-13.81536584979029
 20
5.802265325663592
 30
0.0
 10
-13.81536584979029
 20
5.300646743860693
 30
0.0
 10
-14.22201780688294
 20
4.894058866811712
 30
0.0
 10
-14.72357230864217
 20
4.894058866811712
 30
0.0
  0
SPLINE
  5
130
330
1F
100
AcDbEntity
  8
Default
 62
   178
420
        0
100
AcDbSpline
210
0.0
220
0.0
230
1.0
 70
     8
 71
     3
 72
     8
 73
     4
 74
     0
 42
0.000000001
 43
0.0000000001
 40
2.0
 40
2.0
 40
2.0
 40
2.0
 40
3.0
 40
3.0
 40
3.0
 40
3.0
 10
-14.72357230864217
 20
4.894058866811712
 30
0.0
 10
-15.22519089044507
 20
4.894058866811712
 30
0.0
 10
-15.63184284753772
 20
5.300646743860693
 30
0.0
 10
-15.63184284753772
 20
5.802265325663592
 30
0.0
  0
SPLINE
  5
131
330
1F
100
AcDbEntity
  8
Default
 62
   178
420
        0
100
AcDbSpline
210
0.0
220
0.0
230
1.0
 70
     8
 71
     3
 72
     8
 73
     4
 74
     0
 42
0.000000001
 43
0.0000000001
 40
3.0
 40
3.0
 40
3.0
 40
3.0
 40
4.0
 40
4.0
 40
4.0
 40
4.0
 10
-15.63184284753772
 20
5.802265325663592
 30
0.0
 10
-15.63184284753772
 20
6.303883907466493
 30
0.0
 10
-15.22519089044507
 20
6.710471784515474
 30
0.0
 10
-14.72357230864217
 20
6.710471784515474
 30
0.0
  0
SPLINE
  5
132
330
1F
100
AcDbEntity
  8
Default
 62
   178
420
        0
100
AcDbSpline
210
0.0
220
0.0
230
1.0
 70
     8
 71
     3
 72
     8
 73
     4
 74
     0
 42
0.000000001
 43
0.0000000001
 40
4.0
 40
4.0
 40
4.0
 40
4.0
 40
5.0
 40
5.0
 40
5.0
 40
5.0
 10
-14.72357230864217
 20
6.710471784515474
 30
0.0
 10
-14.22201780688294
 20
6.710471784515474
 30
0.0
 10
-13.81536584979029
 20
6.303883907466493
 30
0.0
 10
-13.81536584979029
 20
5.802265325663592
 30
0.0
  0
SPLINE
  5
133
330
1F
100
AcDbEntity
  8
Default
 62
   178
420
        0
100
AcDbSpline
210
0.0
220
0.0
230
1.0
 70
     8
 71
     3
 72
     8
 73
     4
 74
     0
 42
0.000000001
 43
0.0000000001
 40
1.0
 40
1.0
 40
1.0
 40
1.0
 40
2.0
 40
2.0
 40
2.0
 40
2.0
 10
-16.78591802592454
 20
5.802265325663592
 30
0.0
 10
-16.78591802592454
 20
5.300646743860693
 30
0.0
 10
-17.19256998301719
 20
4.894058866811712
 30
0.0
 10
-17.69412448477643
 20
4.894058866811712
 30
0.0
  0
SPLINE
  5
134
330
1F
100
AcDbEntity
  8
Default
 62
   178
420
        0
100
AcDbSpline
210
0.0
220
0.0
230
1.0
 70
     8
 71
     3
 72
     8
 73
     4
 74
     0
 42
0.000000001
 43
0.0000000001
 40
2.0
 40
2.0
 40
2.0
 40
2.0
 40
3.0
 40
3.0
 40
3.0
 40
3.0
 10
-17.69412448477643
 20
4.894058866811712
 30
0.0
 10
-18.19574306657933
 20
4.894058866811712
 30
0.0
 10
-18.60233094362831
 20
5.300646743860693
 30
0.0
 10
-18.60233094362831
 20
5.802265325663592
 30
0.0
  0
SPLINE
  5
135
330
1F
100
AcDbEntity
  8
Default
 62
   178
420
        0
100
AcDbSpline
210
0.0
220
0.0
230
1.0
 70
     8
 71
     3
 72
     8
 73
     4
 74
     0
 42
0.000000001
 43
0.0000000001
 40
3.0
 40
3.0
 40
3.0
 40
3.0
 40
4.0
 40
4.0
 40
4.0
 40
4.0
 10
-18.60233094362831
 20
5.802265325663592
 30
0.0
 10
-18.60233094362831
 20
6.303883907466493
 30
0.0
 10
-18.19574306657933
 20
6.710471784515474
 30
0.0
 10
-17.69412448477643
 20
6.710471784515474
 30
0.0
  0
SPLINE
  5
136
330
1F
100
AcDbEntity
  8
Default
 62
   178
420
        0
100
AcDbSpline
210
0.0
220
0.0
230
1.0
 70
     8
 71
     3
 72
     8
 73
     4
 74
     0
 42
0.000000001
 43
0.0000000001
 40
4.0
 40
4.0
 40
4.0
 40
4.0
 40
5.0
 40
5.0
 40
5.0
 40
5.0
 10
-17.69412448477643
 20
6.710471784515474
 30
0.0
 10
-17.19256998301719
 20
6.710471784515474
 30
0.0
 10
-16.78591802592454
 20
6.303883907466493
 30
0.0
 10
-16.78591802592454
 20
5.802265325663592
 30
0.0
  0
SPLINE
  5
137
330
1F
100
AcDbEntity
  8
Default
 62
   178
420
        0
100
AcDbSpline
210
0.0
220
0.0
230
1.0
 70
     8
 71
     3
 72
     8
 73
     4
 74
     0
 42
0.000000001
 43
0.0000000001
 40
1.0
 40
1.0
 40
1.0
 40
1.0
 40
2.0
 40
2.0
 40
2.0
 40
2.0
 10
18.81029631733591
 20
-1.735995666907447
 30
0.0
 10
18.81029631733591
 20
-2.438248865422777
 30
0.0
 10
18.24100920942367
 20
-3.007535973335013
 30
0.0
 10
17.53875601090835
 20
-3.007535973335013
 30
0.0
  0
SPLINE
  5
138
330
1F
100
AcDbEntity
  8
Default
 62
   178
420
        0
100
AcDbSpline
210
0.0
220
0.0
230
1.0
 70
     8
 71
     3
 72
     8
 73
     4
 74
     0
 42
0.000000001
 43
0.0000000001
 40
2.0
 40
2.0
 40
2.0
 40
2.0
 40
3.0
 40
3.0
 40
3.0
 40
3.0
 10
17.53875601090835
 20
-3.007535973335013
 30
0.0
 10
16.83656689243668
 20
-3.007535973335013
 30
0.0
 10
16.26727978452445
 20
-2.438248865422777
 30
0.0
 10
16.26727978452445
 20
-1.735995666907447
 30
0.0
  0
SPLINE
  5
139
330
1F
100
AcDbEntity
  8
Default
 62
   178
420
        0
100
AcDbSpline
210
0.0
220
0.0
230
1.0
 70
     8
 71
     3
 72
     8
 73
     4
 74
     0
 42
0.000000001
 43
0.0000000001
 40
3.0
 40
3.0
 40
3.0
 40
3.0
 40
4.0
 40
4.0
 40
4.0
 40
4.0
 10
16.26727978452445
 20
-1.735995666907447
 30
0.0
 10
16.26727978452445
 20
-1.033742468392117
 30
0.0
 10
16.83656689243668
 20
-0.4644553604798813
 30
0.0
 10
17.53875601090835
 20
-0.4644553604798813
 30
0.0
  0
SPLINE
  5
13A
330
1F
100
AcDbEntity
  8
Default
 62
   178
420
        0
100
AcDbSpline
210
0.0
220
0.0
230
1.0
 70
     8
 71
     3
 72
     8
 73
     4
 74
     0
 42
0.000000001
 43
0.0000000001
 40
4.0
 40
4.0
 40
4.0
 40
4.0
 40
5.0
 40
5.0
 40
5.0
 40
5.0
 10
17.53875601090835
 20
-0.4644553604798813
 30
0.0
 10
18.24100920942367
 20
-0.4644553604798813
 30
0.0
 10
18.81029631733591
 20
-1.033742468392117
 30
0.0
 10
18.81029631733591
 20
-1.735995666907447
 30
0.0
  0
SPLINE
  5
13B
330
1F
100
AcDbEntity
  8
Default
 62
   178
420
        0
100
AcDbSpline
210
0.0
220
0.0
230
1.0
 70
     8
 71
     3
 72
     8
 73
     4
 74
     0
 42
0.000000001
 43
0.0000000001
 40
1.0
 40
1.0
 40
1.0
 40
1.0
 40
2.0
 40
2.0
 40
2.0
 40
2.0
 10
18.81029631733591
 20
5.802265325663592
 30
0.0
 10
18.81029631733591
 20
5.100012127148267
 30
0.0
 10
18.24100920942367
 20
4.530725019236026
 30
0.0
 10
17.53875601090835
 20
4.530725019236026
 30
0.0
  0
SPLINE
  5
13C
330
1F
100
AcDbEntity
  8
Default
 62
   178
420
        0
100
AcDbSpline
210
0.0
220
0.0
230
1.0
 70
     8
 71
     3
 72
     8
 73
     4
 74
     0
 42
0.000000001
 43
0.0000000001
 40
2.0
 40
2.0
 40
2.0
 40
2.0
 40
3.0
 40
3.0
 40
3.0
 40
3.0
 10
17.53875601090835
 20
4.530725019236026
 30
0.0
 10
16.83656689243668
 20
4.530725019236026
 30
0.0
 10
16.26727978452445
 20
5.100012127148267
 30
0.0
 10
16.26727978452445
 20
5.802265325663592
 30
0.0
  0
SPLINE
  5
13D
330
1F
100
AcDbEntity
  8
Default
 62
   178
420
        0
100
AcDbSpline
210
0.0
220
0.0
230
1.0
 70
     8
 71
     3
 72
     8
 73
     4
 74
     0
 42
0.000000001
 43
0.0000000001
 40
3.0
 40
3.0
 40
3.0
 40
3.0
 40
4.0
 40
4.0
 40
4.0
 40
4.0
 10
16.26727978452445
 20
5.802265325663592
 30
0.0
 10
16.26727978452445
 20
6.504454444135257
 30
0.0
 10
16.83656689243668
 20
7.073741552047492
 30
0.0
 10
17.53875601090835
 20
7.073741552047492
 30
0.0
  0
SPLINE
  5
13E
330
1F
100
AcDbEntity
  8
Default
 62
   178
420
        0
100
AcDbSpline
210
0.0
220
0.0
230
1.0
 70
     8
 71
     3
 72
     8
 73
     4
 74
     0
 42
0.000000001
 43
0.0000000001
 40
4.0
 40
4.0
 40
4.0
 40
4.0
 40
5.0
 40
5.0
 40
5.0
 40
5.0
 10
17.53875601090835
 20
7.073741552047492
 30
0.0
 10
18.24100920942367
 20
7.073741552047492
 30
0.0
 10
18.81029631733591
 20
6.504454444135257
 30
0.0
 10
18.81029631733591
 20
5.802265325663592
 30
0.0
  0
POLYLINE
  5
13F
330
1F
100
AcDbEntity
  8
Default
 62
   178
420
        0
100
AcDb2dPolyline
 66
     1
 10
0.0
 20
0.0
 30
0.0
  0
VERTEX
  5
140
330
13F
100
AcDbEntity
  8
Default
 62
   178
420
        0
100
AcDbVertex
100
AcDb2dVertex
 10
15.37081278967183
 20
-3.518664033617671
 30
0.0
  0
VERTEX
  5
141
330
13F
100
AcDbEntity
  8
Default
 62
   178
420
        0
100
AcDbVertex
100
AcDb2dVertex
 10
9.013303497665
 20
-3.518664033617671
 30
0.0
  0
SEQEND
  5
142
330
13F
100
AcDbEntity
  8
Default
 62
   178
420
        0
  0
POLYLINE
  5
143
330
1F
100
AcDbEntity
  8
Default
 62
   178
420
        0
100
AcDb2dPolyline
 66
     1
 10
0.0
 20
0.0
 30
0.0
 70
     1
  0
VERTEX
  5
144
330
143
100
AcDbEntity
  8
Default
 62
   178
420
        0
100
AcDbVertex
100
AcDb2dVertex
 10
3.09967666811968
 20
-8.002671497020357
 30
0.0
  0
VERTEX
  5
145
330
143
100
AcDbEntity
  8
Default
 62
   178
420
        0
100
AcDbVertex
100
AcDb2dVertex
 10
-3.257896703930814
 20
-8.002671497020357
 30
0.0
  0
VERTEX
  5
146
330
143
100
AcDbEntity
  8
Default
 62
   178
420
        0
100
AcDbVertex
100
AcDb2dVertex
 10
-3.257896703930814
 20
7.073760776060595
 30
0.0
  0
VERTEX
  5
147
330
143
100
AcDbEntity
  8
Default
 62
   178
420
        0
100
AcDbVertex
100
AcDb2dVertex
 10
3.09967666811968
 20
7.073760776060595
 30
0.0
  0
SEQEND
  5
148
330
143
100
AcDbEntity
  8
Default
 62
   178
420
        0
  0
SPLINE
  5
149
330
1F
100
AcDbEntity
  8
Default
 62
   178
420
        0
100
AcDbSpline
210
0.0
220
0.0
230
1.0
 70
     8
 71
     3
 72
     8
 73
     4
 74
     0
 42
0.000000001
 43
0.0000000001
 40
0.0
 40
0.0
 40
0.0
 40
0.0
 40
1.0
 40
1.0
 40
1.0
 40
1.0
 10
8.567562713937228
 20
-3.956144899717135
 30
0.0
 10
7.570733554697838
 20
-4.884921052585204
 30
0.0
 10
7.015223656173394
 20
-5.768456694626391
 30
0.0
 10
6.696105038725967
 20
-6.385291194937421
 30
0.0
  0
SPLINE
  5
14A
330
1F
100
AcDbEntity
  8
Default
 62
   178
420
        0
100
AcDbSpline
210
0.0
220
0.0
230
1.0
 70
     8
 71
     3
 72
     8
 73
     4
 74
     0
 42
0.000000001
 43
0.0000000001
 40
1.0
 40
1.0
 40
1.0
 40
1.0
 40
2.0
 40
2.0
 40
2.0
 40
2.0
 10
6.696105038725967
 20
-6.385291194937421
 30
0.0
 10
5.937141001567875
 20
-7.852275634540617
 30
0.0
 10
6.076771416712038
 20
-8.657697703355216
 30
0.0
 10
5.115442601662587
 20
-10.05919233833366
 30
0.0
  0
SPLINE
  5
14B
330
1F
100
AcDbEntity
  8
Default
 62
   178
420
        0
100
AcDbSpline
210
0.0
220
0.0
230
1.0
 70
     8
 71
     3
 72
     8
 73
     4
 74
     0
 42
0.000000001
 43
0.0000000001
 40
2.0
 40
2.0
 40
2.0
 40
2.0
 40
3.0
 40
3.0
 40
3.0
 40
3.0
 10
5.115442601662587
 20
-10.05919233833366
 30
0.0
 10
4.802988308756226
 20
-10.51486552882937
 30
0.0
 10
4.347251038216852
 20
-11.12349778355139
 30
0.0
 10
3.573035950666692
 20
-11.68515936626759
 30
0.0
  0
SPLINE
  5
14C
330
1F
100
AcDbEntity
  8
Default
 62
   178
420
        0
100
AcDbSpline
210
0.0
220
0.0
230
1.0
 70
     8
 71
     3
 72
     8
 73
     4
 74
     0
 42
0.000000001
 43
0.0000000001
 40
3.0
 40
3.0
 40
3.0
 40
3.0
 40
4.0
 40
4.0
 40
4.0
 40
4.0
 10
3.573035950666692
 20
-11.68515936626759
 30
0.0
 10
2.463425914578411
 20
-12.49019695482021
 30
0.0
 10
1.044501507723325
 20
-12.82341318187374
 30
0.0
 10
0.5362186013793518
 20
-12.80989229266061
 30
0.0
  0
SPLINE
  5
14D
330
1F
100
AcDbEntity
  8
Default
 62
   178
420
        0
100
AcDbSpline
210
0.0
220
0.0
230
1.0
 70
     8
 71
     3
 72
     8
 73
     4
 74
     0
 42
0.000000001
 43
0.0000000001
 40
4.0
 40
4.0
 40
4.0
 40
4.0
 40
5.0
 40
5.0
 40
5.0
 40
5.0
 10
0.5362186013793518
 20
-12.80989229266061
 30
0.0
 10
-0.0364647488470838
 20
-12.79476940235587
 30
0.0
 10
0.1117523921480753
 20
-12.81546725645939
 30
0.0
 10
-0.0791420579274056
 20
-12.80989229266061
 30
0.0
  0
SPLINE
  5
14E
330
1F
100
AcDbEntity
  8
Default
 62
   178
420
        0
100
AcDbSpline
210
0.0
220
0.0
230
1.0
 70
     8
 71
     3
 72
     8
 73
     4
 74
     0
 42
0.000000001
 43
0.0000000001
 40
0.0
 40
0.0
 40
0.0
 40
0.0
 40
1.0
 40
1.0
 40
1.0
 40
1.0
 10
-8.725821197774566
 20
-3.967224339266663
 30
0.0
 10
-7.728992038535175
 20
-4.89593641209107
 30
0.0
 10
-7.173482140010731
 20
-5.779536134175919
 30
0.0
 10
-6.854363522563304
 20
-6.39637063448695
 30
0.0
  0
SPLINE
  5
14F
330
1F
100
AcDbEntity
  8
Default
 62
   178
420
        0
100
AcDbSpline
210
0.0
220
0.0
230
1.0
 70
     8
 71
     3
 72
     8
 73
     4
 74
     0
 42
0.000000001
 43
0.0000000001
 40
1.0
 40
1.0
 40
1.0
 40
1.0
 40
2.0
 40
2.0
 40
2.0
 40
2.0
 10
-6.854363522563304
 20
-6.39637063448695
 30
0.0
 10
-6.095399485405212
 20
-7.863290994046483
 30
0.0
 10
-6.234965820505713
 20
-8.668713062861082
 30
0.0
 10
-5.273701085499924
 20
-10.07027177788319
 30
0.0
  0
SPLINE
  5
150
330
1F
100
AcDbEntity
  8
Default
 62
   178
420
        0
100
AcDbSpline
210
0.0
220
0.0
230
1.0
 70
     8
 71
     3
 72
     8
 73
     4
 74
     0
 42
0.000000001
 43
0.0000000001
 40
2.0
 40
2.0
 40
2.0
 40
2.0
 40
3.0
 40
3.0
 40
3.0
 40
3.0
 10
-5.273701085499924
 20
-10.07027177788319
 30
0.0
 10
-4.97457544167571
 20
-10.50640055506134
 30
0.0
 10
-4.52204217331954
 20
-11.1537371561565
 30
0.0
 10
-3.731230354460366
 20
-11.69623880581712
 30
0.0
  0
SPLINE
  5
151
330
1F
100
AcDbEntity
  8
Default
 62
   178
420
        0
100
AcDbSpline
210
0.0
220
0.0
230
1.0
 70
     8
 71
     3
 72
     8
 73
     4
 74
     0
 42
0.000000001
 43
0.0000000001
 40
3.0
 40
3.0
 40
3.0
 40
3.0
 40
4.0
 40
4.0
 40
4.0
 40
4.0
 10
-3.731230354460366
 20
-11.69623880581712
 30
0.0
 10
-2.303655141710615
 20
-12.67544595304887
 30
0.0
 10
-0.7465100806719732
 20
-12.86480248207641
 30
0.0
 10
-0.0791164259099318
 20
-12.80988588465624
 30
0.0
  0
SPLINE
  5
152
330
1F
100
AcDbEntity
  8
Default
 62
   178
420
        0
100
AcDbSpline
210
0.0
220
0.0
230
1.0
 70
     8
 71
     3
 72
     8
 73
     4
 74
     0
 42
0.000000001
 43
0.0000000001
 40
0.0
 40
0.0
 40
0.0
 40
0.0
 40
1.0
 40
1.0
 40
1.0
 40
1.0
 10
-9.013239417621344
 20
8.742341033031181
 30
0.0
 10
-8.415116290060249
 20
9.082862385062427
 30
0.0
 10
-8.05735740628334
 20
9.462664803859797
 30
0.0
 10
-7.841279499047857
 20
9.746283077117292
 30
0.0
  0
SPLINE
  5
153
330
1F
100
AcDbEntity
  8
Default
 62
   178
420
        0
100
AcDbSpline
210
0.0
220
0.0
230
1.0
 70
     8
 71
     3
 72
     8
 73
     4
 74
     0
 42
0.000000001
 43
0.0000000001
 40
1.0
 40
1.0
 40
1.0
 40
1.0
 40
2.0
 40
2.0
 40
2.0
 40
2.0
 10
-7.841279499047857
 20
9.746283077117292
 30
0.0
 10
-7.305314013840973
 20
10.4498178765059
 30
0.0
 10
-7.164273837736196
 20
10.79617051251059
 30
0.0
 10
-6.645097323969321
 20
11.88226317257413
 30
0.0
  0
SPLINE
  5
154
330
1F
100
AcDbEntity
  8
Default
 62
   178
420
        0
100
AcDbSpline
210
0.0
220
0.0
230
1.0
 70
     8
 71
     3
 72
     8
 73
     4
 74
     0
 42
0.000000001
 43
0.0000000001
 40
2.0
 40
2.0
 40
2.0
 40
2.0
 40
3.0
 40
3.0
 40
3.0
 40
3.0
 10
-6.645097323969321
 20
11.88226317257413
 30
0.0
 10
-6.529432845155548
 20
12.12435757753726
 30
0.0
 10
-6.269267867879129
 20
12.38631679603627
 30
0.0
 10
-5.790718101795321
 20
12.65122369654383
 30
0.0
  0
SPLINE
  5
155
330
1F
100
AcDbEntity
  8
Default
 62
   178
420
        0
100
AcDbSpline
210
0.0
220
0.0
230
1.0
 70
     8
 71
     3
 72
     8
 73
     4
 74
     0
 42
0.000000001
 43
0.0000000001
 40
3.0
 40
3.0
 40
3.0
 40
3.0
 40
4.0
 40
4.0
 40
4.0
 40
4.0
 10
-5.790718101795321
 20
12.65122369654383
 30
0.0
 10
-5.451670590768344
 20
12.8389141444361
 30
0.0
 10
-5.1143532409203
 20
12.85929159832129
 30
0.0
 10
-4.902889096828636
 20
12.86480248207641
 30
0.0
  0
SPLINE
  5
156
330
1F
100
AcDbEntity
  8
Default
 62
   178
420
        0
100
AcDbSpline
210
0.0
220
0.0
230
1.0
 70
     8
 71
     3
 72
     8
 73
     4
 74
     0
 42
0.000000001
 43
0.0000000001
 40
0.0
 40
0.0
 40
0.0
 40
0.0
 40
1.0
 40
1.0
 40
1.0
 40
1.0
 10
-1.044443835684035
 20
8.742341033031181
 30
0.0
 10
-1.642566963245131
 20
9.082862385062427
 30
0.0
 10
-2.000325847022039
 20
9.462664803859797
 30
0.0
 10
-2.21633967421386
 20
9.746283077117292
 30
0.0
  0
SPLINE
  5
157
330
1F
100
AcDbEntity
  8
Default
 62
   178
420
        0
100
AcDbSpline
210
0.0
220
0.0
230
1.0
 70
     8
 71
     3
 72
     8
 73
     4
 74
     0
 42
0.000000001
 43
0.0000000001
 40
1.0
 40
1.0
 40
1.0
 40
1.0
 40
2.0
 40
2.0
 40
2.0
 40
2.0
 10
-2.21633967421386
 20
9.746283077117292
 30
0.0
 10
-2.752369239464406
 20
10.4498178765059
 30
0.0
 10
-2.689442636586221
 20
10.91978091673872
 30
0.0
 10
-3.412521849292396
 20
11.88226317257413
 30
0.0
  0
SPLINE
  5
158
330
1F
100
AcDbEntity
  8
Default
 62
   178
420
        0
100
AcDbSpline
210
0.0
220
0.0
230
1.0
 70
     8
 71
     3
 72
     8
 73
     4
 74
     0
 42
0.000000001
 43
0.0000000001
 40
2.0
 40
2.0
 40
2.0
 40
2.0
 40
3.0
 40
3.0
 40
3.0
 40
3.0
 10
-3.412521849292396
 20
11.88226317257413
 30
0.0
 10
-3.673583947180107
 20
12.22976924936477
 30
0.0
 10
-3.913755950833313
 20
12.47724637799568
 30
0.0
 10
-4.266901071466396
 20
12.65122369654383
 30
0.0
  0
SPLINE
  5
159
330
1F
100
AcDbEntity
  8
Default
 62
   178
420
        0
100
AcDbSpline
210
0.0
220
0.0
230
1.0
 70
     8
 71
     3
 72
     8
 73
     4
 74
     0
 42
0.000000001
 43
0.0000000001
 40
3.0
 40
3.0
 40
3.0
 40
3.0
 40
4.0
 40
4.0
 40
4.0
 40
4.0
 10
-4.266901071466396
 20
12.65122369654383
 30
0.0
 10
-4.614599388388032
 20
12.82250965325808
 30
0.0
 10
-4.943330012385079
 20
12.85929159832129
 30
0.0
 10
-5.154794156476744
 20
12.86480248207641
 30
0.0
  0
SPLINE
  5
15A
330
1F
100
AcDbEntity
  8
Default
 62
   178
420
        0
100
AcDbSpline
210
0.0
220
0.0
230
1.0
 70
     8
 71
     3
 72
     8
 73
     4
 74
     0
 42
0.000000001
 43
0.0000000001
 40
0.0
 40
0.0
 40
0.0
 40
0.0
 40
1.0
 40
1.0
 40
1.0
 40
1.0
 10
1.044475875705859
 20
8.742341033031181
 30
0.0
 10
1.642599003266955
 20
9.082862385062427
 30
0.0
 10
2.000357887043863
 20
9.462664803859797
 30
0.0
 10
2.216371714235684
 20
9.746283077117292
 30
0.0
  0
SPLINE
  5
15B
330
1F
100
AcDbEntity
  8
Default
 62
   178
420
        0
100
AcDbSpline
210
0.0
220
0.0
230
1.0
 70
     8
 71
     3
 72
     8
 73
     4
 74
     0
 42
0.000000001
 43
0.0000000001
 40
1.0
 40
1.0
 40
1.0
 40
1.0
 40
2.0
 40
2.0
 40
2.0
 40
2.0
 10
2.216371714235684
 20
9.746283077117292
 30
0.0
 10
2.75240127948623
 20
10.4498178765059
 30
0.0
 10
2.893441455591008
 20
10.79617051251059
 30
0.0
 10
3.41255388931422
 20
11.88226317257413
 30
0.0
  0
SPLINE
  5
15C
330
1F
100
AcDbEntity
  8
Default
 62
   178
420
        0
100
AcDbSpline
210
0.0
220
0.0
230
1.0
 70
     8
 71
     3
 72
     8
 73
     4
 74
     0
 42
0.000000001
 43
0.0000000001
 40
2.0
 40
2.0
 40
2.0
 40
2.0
 40
3.0
 40
3.0
 40
3.0
 40
3.0
 10
3.41255388931422
 20
11.88226317257413
 30
0.0
 10
3.528282448171655
 20
12.12435757753726
 30
0.0
 10
3.788383345404412
 20
12.38631679603627
 30
0.0
 10
4.26693311148822
 20
12.65122369654383
 30
0.0
  0
SPLINE
  5
15D
330
1F
100
AcDbEntity
  8
Default
 62
   178
420
        0
100
AcDbSpline
210
0.0
220
0.0
230
1.0
 70
     8
 71
     3
 72
     8
 73
     4
 74
     0
 42
0.000000001
 43
0.0000000001
 40
3.0
 40
3.0
 40
3.0
 40
3.0
 40
4.0
 40
4.0
 40
4.0
 40
4.0
 10
4.26693311148822
 20
12.65122369654383
 30
0.0
 10
4.606044702558861
 20
12.8389141444361
 30
0.0
 10
4.943426132450566
 20
12.85929159832129
 30
0.0
 10
5.154890276542231
 20
12.86480248207641
 30
0.0
  0
SPLINE
  5
15E
330
1F
100
AcDbEntity
  8
Default
 62
   178
420
        0
100
AcDbSpline
210
0.0
220
0.0
230
1.0
 70
     8
 71
     3
 72
     8
 73
     4
 74
     0
 42
0.000000001
 43
0.0000000001
 40
0.0
 40
0.0
 40
0.0
 40
0.0
 40
1.0
 40
1.0
 40
1.0
 40
1.0
 10
9.013309905669365
 20
8.742341033031181
 30
0.0
 10
8.4151226980646
 20
9.082862385062427
 30
0.0
 10
8.057363814287697
 20
9.462664803859797
 30
0.0
 10
7.841349987095877
 20
9.746283077117292
 30
0.0
  0
SPLINE
  5
15F
330
1F
100
AcDbEntity
  8
Default
 62
   178
420
        0
100
AcDbSpline
210
0.0
220
0.0
230
1.0
 70
     8
 71
     3
 72
     8
 73
     4
 74
     0
 42
0.000000001
 43
0.0000000001
 40
1.0
 40
1.0
 40
1.0
 40
1.0
 40
2.0
 40
2.0
 40
2.0
 40
2.0
 10
7.841349987095877
 20
9.746283077117292
 30
0.0
 10
7.305384501888994
 20
10.4498178765059
 30
0.0
 10
7.368247024723516
 20
10.91978091673872
 30
0.0
 10
6.645167812017341
 20
11.88226317257413
 30
0.0
  0
SPLINE
  5
160
330
1F
100
AcDbEntity
  8
Default
 62
   178
420
        0
100
AcDbSpline
210
0.0
220
0.0
230
1.0
 70
     8
 71
     3
 72
     8
 73
     4
 74
     0
 42
0.000000001
 43
0.0000000001
 40
2.0
 40
2.0
 40
2.0
 40
2.0
 40
3.0
 40
3.0
 40
3.0
 40
3.0
 10
6.645167812017341
 20
11.88226317257413
 30
0.0
 10
6.38410571412963
 20
12.22976924936477
 30
0.0
 10
6.143933710476424
 20
12.47724637799568
 30
0.0
 10
5.790788589843341
 20
12.65122369654383
 30
0.0
  0
SPLINE
  5
161
330
1F
100
AcDbEntity
  8
Default
 62
   178
420
        0
100
AcDbSpline
210
0.0
220
0.0
230
1.0
 70
     8
 71
     3
 72
     8
 73
     4
 74
     0
 42
0.000000001
 43
0.0000000001
 40
3.0
 40
3.0
 40
3.0
 40
3.0
 40
4.0
 40
4.0
 40
4.0
 40
4.0
 10
5.790788589843341
 20
12.65122369654383
 30
0.0
 10
5.443090272921705
 20
12.82250965325808
 30
0.0
 10
5.114359648924658
 20
12.85929159832129
 30
0.0
 10
4.902895504832993
 20
12.86480248207641
 30
0.0
  0
POLYLINE
  5
162
330
1F
100
AcDbEntity
  8
Default
 62
   178
420
        0
100
AcDb2dPolyline
 66
     1
 10
0.0
 20
0.0
 30
0.0
  0
VERTEX
  5
163
330
162
100
AcDbEntity
  8
Default
 62
   178
420
        0
100
AcDbVertex
100
AcDb2dVertex
 10
-8.725821197774566
 20
-3.967224339266663
 30
0.0
  0
VERTEX
  5
164
330
162
100
AcDbEntity
  8
Default
 62
   178
420
        0
100
AcDbVertex
100
AcDb2dVertex
 10
-20.0
 20
-3.97273522302178
 30
0.0
  0
VERTEX
  5
165
330
162
100
AcDbEntity
  8
Default
 62
   178
420
        0
100
AcDbVertex
100
AcDb2dVertex
 10
-20.0
 20
8.742347441035554
 30
0.0
  0
VERTEX
  5
166
330
162
100
AcDbEntity
  8
Default
 62
   178
420
        0
100
AcDbVertex
100
AcDb2dVertex
 10
-9.013220193608243
 20
8.742347441035554
 30
0.0
  0
SEQEND
  5
167
330
162
100
AcDbEntity
  8
Default
 62
   178
420
        0
  0
POLYLINE
  5
168
330
1F
100
AcDbEntity
  8
Default
 62
   178
420
        0
100
AcDb2dPolyline
 66
     1
 10
0.0
 20
0.0
 30
0.0
  0
VERTEX
  5
169
330
168
100
AcDbEntity
  8
Default
 62
   178
420
        0
100
AcDbVertex
100
AcDb2dVertex
 10
-1.044443835684035
 20
8.742341033031181
 30
0.0
  0
VERTEX
  5
16A
330
168
100
AcDbEntity
  8
Default
 62
   178
420
        0
100
AcDbVertex
100
AcDb2dVertex
 10
1.044501507723325
 20
8.742341033031181
 30
0.0
  0
SEQEND
  5
16B
330
168
100
AcDbEntity
  8
Default
 62
   178
420
        0
  0
POLYLINE
  5
16C
330
1F
100
AcDbEntity
  8
Default
 62
   178
420
        0
100
AcDb2dPolyline
 66
     1
 10
0.0
 20
0.0
 30
0.0
  0
VERTEX
  5
16D
330
16C
100
AcDbEntity
  8
Default
 62
   178
420
        0
100
AcDbVertex
100
AcDb2dVertex
 10
9.013309905669365
 20
8.742341033031181
 30
0.0
  0
VERTEX
  5
16E
330
16C
100
AcDbEntity
  8
Default
 62
   178
420
        0
100
AcDbVertex
100
AcDb2dVertex
 10
19.96170576590631
 20
8.742341033031181
 30
0.0
  0
VERTEX
  5
16F
330
16C
100
AcDbEntity
  8
Default
 62
   178
420
        0
100
AcDbVertex
100
AcDb2dVertex
 10
19.96170576590631
 20
-3.972741631026149
 30
0.0
  0
VERTEX
  5
170
330
16C
100
AcDbEntity
  8
Default
 62
   178
420
        0
100
AcDbVertex
100
AcDb2dVertex
 10
8.567569121941593
 20
-3.972741631026149
 30
0.0
  0
SEQEND
  5
171
330
16C
100
AcDbEntity
  8
Default
 62
   178
420
        0
  0
SPLINE
  5
172
330
1F
100
AcDbEntity
  8
Default
 62
   178
420
        0
100
AcDbSpline
210
0.0
220
0.0
230
1.0
 70
     8
 71
     3
 72
     8
 73
     4
 74
     0
 42
0.000000001
 43
0.0000000001
 40
1.0
 40
1.0
 40
1.0
 40
1.0
 40
2.0
 40
2.0
 40
2.0
 40
2.0
 10
5.82889058380604
 20
11.64484020279411
 30
0.0
 10
5.82889058380604
 20
11.29374564355828
 30
0.0
 10
5.544311109893585
 20
11.00910208960216
 30
0.0
 10
5.193152470614087
 20
11.00910208960216
 30
0.0
  0
SPLINE
  5
173
330
1F
100
AcDbEntity
  8
Default
 62
   178
420
        0
100
AcDbSpline
210
0.0
220
0.0
230
1.0
 70
     8
 71
     3
 72
     8
 73
     4
 74
     0
 42
0.000000001
 43
0.0000000001
 40
2.0
 40
2.0
 40
2.0
 40
2.0
 40
3.0
 40
3.0
 40
3.0
 40
3.0
 10
5.193152470614087
 20
11.00910208960216
 30
0.0
 10
4.842057911378259
 20
11.00910208960216
 30
0.0
 10
4.55741435742214
 20
11.29374564355828
 30
0.0
 10
4.55741435742214
 20
11.64484020279411
 30
0.0
  0
SPLINE
  5
174
330
1F
100
AcDbEntity
  8
Default
 62
   178
420
        0
100
AcDbSpline
210
0.0
220
0.0
230
1.0
 70
     8
 71
     3
 72
     8
 73
     4
 74
     0
 42
0.000000001
 43
0.0000000001
 40
3.0
 40
3.0
 40
3.0
 40
3.0
 40
4.0
 40
4.0
 40
4.0
 40
4.0
 10
4.55741435742214
 20
11.64484020279411
 30
0.0
 10
4.55741435742214
 20
11.99593476202995
 30
0.0
 10
4.842057911378259
 20
12.28057831598607
 30
0.0
 10
5.193152470614087
 20
12.28057831598607
 30
0.0
  0
SPLINE
  5
175
330
1F
100
AcDbEntity
  8
Default
 62
   178
420
        0
100
AcDbSpline
210
0.0
220
0.0
230
1.0
 70
     8
 71
     3
 72
     8
 73
     4
 74
     0
 42
0.000000001
 43
0.0000000001
 40
4.0
 40
4.0
 40
4.0
 40
4.0
 40
5.0
 40
5.0
 40
5.0
 40
5.0
 10
5.193152470614087
 20
12.28057831598607
 30
0.0
 10
5.544311109893585
 20
12.28057831598607
 30
0.0
 10
5.82889058380604
 20
11.99593476202995
 30
0.0
 10
5.82889058380604
 20
11.64484020279411
 30
0.0
  0
SPLINE
  5
176
330
1F
100
AcDbEntity
  8
Default
 62
   178
420
        0
100
AcDbSpline
210
0.0
220
0.0
230
1.0
 70
     8
 71
     3
 72
     8
 73
     4
 74
     0
 42
0.000000001
 43
0.0000000001
 40
1.0
 40
1.0
 40
1.0
 40
1.0
 40
2.0
 40
2.0
 40
2.0
 40
2.0
 10
2.102360500548439
 20
-11.32960483599274
 30
0.0
 10
2.102360500548439
 20
-11.68076347527223
 30
0.0
 10
1.817781026635984
 20
-11.96534294918469
 30
0.0
 10
1.466622387356486
 20
-11.96534294918469
 30
0.0
  0
SPLINE
  5
177
330
1F
100
AcDbEntity
  8
Default
 62
   178
420
        0
100
AcDbSpline
210
0.0
220
0.0
230
1.0
 70
     8
 71
     3
 72
     8
 73
     4
 74
     0
 42
0.000000001
 43
0.0000000001
 40
2.0
 40
2.0
 40
2.0
 40
2.0
 40
3.0
 40
3.0
 40
3.0
 40
3.0
 10
1.466622387356486
 20
-11.96534294918469
 30
0.0
 10
1.115527828120658
 20
-11.96534294918469
 30
0.0
 10
0.8308201941208767
 20
-11.68076347527223
 30
0.0
 10
0.8308201941208767
 20
-11.32960483599274
 30
0.0
  0
SPLINE
  5
178
330
1F
100
AcDbEntity
  8
Default
 62
   178
420
        0
100
AcDbSpline
210
0.0
220
0.0
230
1.0
 70
     8
 71
     3
 72
     8
 73
     4
 74
     0
 42
0.000000001
 43
0.0000000001
 40
3.0
 40
3.0
 40
3.0
 40
3.0
 40
4.0
 40
4.0
 40
4.0
 40
4.0
 10
0.8308201941208767
 20
-11.32960483599274
 30
0.0
 10
0.8308201941208767
 20
-10.9785102767569
 30
0.0
 10
1.115527828120658
 20
-10.69380264275712
 30
0.0
 10
1.466622387356486
 20
-10.69380264275712
 30
0.0
  0
SPLINE
  5
179
330
1F
100
AcDbEntity
  8
Default
 62
   178
420
        0
100
AcDbSpline
210
0.0
220
0.0
230
1.0
 70
     8
 71
     3
 72
     8
 73
     4
 74
     0
 42
0.000000001
 43
0.0000000001
 40
4.0
 40
4.0
 40
4.0
 40
4.0
 40
5.0
 40
5.0
 40
5.0
 40
5.0
 10
1.466622387356486
 20
-10.69380264275712
 30
0.0
 10
1.817781026635984
 20
-10.69380264275712
 30
0.0
 10
2.102360500548439
 20
-10.9785102767569
 30
0.0
 10
2.102360500548439
 20
-11.32960483599274
 30
0.0
  0
SPLINE
  5
17A
330
1F
100
AcDbEntity
  8
Default
 62
   178
420
        0
100
AcDbSpline
210
0.0
220
0.0
230
1.0
 70
     8
 71
     3
 72
     8
 73
     4
 74
     0
 42
0.000000001
 43
0.0000000001
 40
1.0
 40
1.0
 40
1.0
 40
1.0
 40
2.0
 40
2.0
 40
2.0
 40
2.0
 10
-1.006085521546678
 20
-11.32960483599274
 30
0.0
 10
-1.006085521546678
 20
-11.68076347527223
 30
0.0
 10
-1.290729075502796
 20
-11.96534294918469
 30
0.0
 10
-1.641887714782294
 20
-11.96534294918469
 30
0.0
  0
SPLINE
  5
17B
330
1F
100
AcDbEntity
  8
Default
 62
   178
420
        0
100
AcDbSpline
210
0.0
220
0.0
230
1.0
 70
     8
 71
     3
 72
     8
 73
     4
 74
     0
 42
0.000000001
 43
0.0000000001
 40
2.0
 40
2.0
 40
2.0
 40
2.0
 40
3.0
 40
3.0
 40
3.0
 40
3.0
 10
-1.641887714782294
 20
-11.96534294918469
 30
0.0
 10
-1.992918193974459
 20
-11.96534294918469
 30
0.0
 10
-2.27762582797424
 20
-11.68076347527223
 30
0.0
 10
-2.27762582797424
 20
-11.32960483599274
 30
0.0
  0
SPLINE
  5
17C
330
1F
100
AcDbEntity
  8
Default
 62
   178
420
        0
100
AcDbSpline
210
0.0
220
0.0
230
1.0
 70
     8
 71
     3
 72
     8
 73
     4
 74
     0
 42
0.000000001
 43
0.0000000001
 40
3.0
 40
3.0
 40
3.0
 40
3.0
 40
4.0
 40
4.0
 40
4.0
 40
4.0
 10
-2.27762582797424
 20
-11.32960483599274
 30
0.0
 10
-2.27762582797424
 20
-10.9785102767569
 30
0.0
 10
-1.992918193974459
 20
-10.69380264275712
 30
0.0
 10
-1.641887714782294
 20
-10.69380264275712
 30
0.0
  0
SPLINE
  5
17D
330
1F
100
AcDbEntity
  8
Default
 62
   178
420
        0
100
AcDbSpline
210
0.0
220
0.0
230
1.0
 70
     8
 71
     3
 72
     8
 73
     4
 74
     0
 42
0.000000001
 43
0.0000000001
 40
4.0
 40
4.0
 40
4.0
 40
4.0
 40
5.0
 40
5.0
 40
5.0
 40
5.0
 10
-1.641887714782294
 20
-10.69380264275712
 30
0.0
 10
-1.290729075502796
 20
-10.69380264275712
 30
0.0
 10
-1.006085521546678
 20
-10.9785102767569
 30
0.0
 10
-1.006085521546678
 20
-11.32960483599274
 30
0.0
  0
SPLINE
  5
17E
330
1F
100
AcDbEntity
  8
Default
 62
   178
420
        0
100
AcDbSpline
210
0.0
220
0.0
230
1.0
 70
     8
 71
     3
 72
     8
 73
     4
 74
     0
 42
0.000000001
 43
0.0000000001
 40
1.0
 40
1.0
 40
1.0
 40
1.0
 40
2.0
 40
2.0
 40
2.0
 40
2.0
 10
-4.480736177173637
 20
11.64484020279411
 30
0.0
 10
-4.480736177173637
 20
11.29374564355828
 30
0.0
 10
-4.765315651086092
 20
11.00910208960216
 30
0.0
 10
-5.11647429036559
 20
11.00910208960216
 30
0.0
  0
SPLINE
  5
17F
330
1F
100
AcDbEntity
  8
Default
 62
   178
420
        0
100
AcDbSpline
210
0.0
220
0.0
230
1.0
 70
     8
 71
     3
 72
     8
 73
     4
 74
     0
 42
0.000000001
 43
0.0000000001
 40
2.0
 40
2.0
 40
2.0
 40
2.0
 40
3.0
 40
3.0
 40
3.0
 40
3.0
 10
-5.11647429036559
 20
11.00910208960216
 30
0.0
 10
-5.467568849601419
 20
11.00910208960216
 30
0.0
 10
-5.752212403557537
 20
11.29374564355828
 30
0.0
 10
-5.752212403557537
 20
11.64484020279411
 30
0.0
  0
SPLINE
  5
180
330
1F
100
AcDbEntity
  8
Default
 62
   178
420
        0
100
AcDbSpline
210
0.0
220
0.0
230
1.0
 70
     8
 71
     3
 72
     8
 73
     4
 74
     0
 42
0.000000001
 43
0.0000000001
 40
3.0
 40
3.0
 40
3.0
 40
3.0
 40
4.0
 40
4.0
 40
4.0
 40
4.0
 10
-5.752212403557537
 20
11.64484020279411
 30
0.0
 10
-5.752212403557537
 20
11.99593476202995
 30
0.0
 10
-5.467568849601419
 20
12.28057831598607
 30
0.0
 10
-5.11647429036559
 20
12.28057831598607
 30
0.0
  0
SPLINE
  5
181
330
1F
100
AcDbEntity
  8
Default
 62
   178
420
        0
100
AcDbSpline
210
0.0
220
0.0
230
1.0
 70
     8
 71
     3
 72
     8
 73
     4
 74
     0
 42
0.000000001
 43
0.0000000001
 40
4.0
 40
4.0
 40
4.0
 40
4.0
 40
5.0
 40
5.0
 40
5.0
 40
5.0
 10
-5.11647429036559
 20
12.28057831598607
 30
0.0
 10
-4.765315651086092
 20
12.28057831598607
 30
0.0
 10
-4.480736177173637
 20
11.99593476202995
 30
0.0
 10
-4.480736177173637
 20
11.64484020279411
 30
0.0
  0
POLYLINE
  5
182
330
1F
100
AcDbEntity
  8
Default
 62
   178
420
        0
100
AcDb2dPolyline
 66
     1
 10
0.0
 20
0.0
 30
0.0
  0
VERTEX
  5
183
330
182
100
AcDbEntity
  8
Default
 62
   178
420
        0
100
AcDbVertex
100
AcDb2dVertex
 10
-10.95053292969314
 20
-1.735995666907447
 30
0.0
  0
VERTEX
  5
184
330
182
100
AcDbEntity
  8
Default
 62
   178
420
        0
100
AcDbVertex
100
AcDb2dVertex
 10
-12.40367607986489
 20
-1.735995666907447
 30
0.0
  0
SEQEND
  5
185
330
182
100
AcDbEntity
  8
Default
 62
   178
420
        0
  0
POLYLINE
  5
186
330
1F
100
AcDbEntity
  8
Default
 62
   178
420
        0
100
AcDb2dPolyline
 66
     1
 10
0.0
 20
0.0
 30
0.0
  0
VERTEX
  5
187
330
186
100
AcDbEntity
  8
Default
 62
   178
420
        0
100
AcDbVertex
100
AcDb2dVertex
 10
-11.67713013679648
 20
-2.462592874010782
 30
0.0
  0
VERTEX
  5
188
330
186
100
AcDbEntity
  8
Default
 62
   178
420
        0
100
AcDbVertex
100
AcDb2dVertex
 10
-11.67713013679648
 20
-1.009385643795376
 30
0.0
  0
SEQEND
  5
189
330
186
100
AcDbEntity
  8
Default
 62
   178
420
        0
  0
POLYLINE
  5
18A
330
1F
100
AcDbEntity
  8
Default
 62
   178
420
        0
100
AcDb2dPolyline
 66
     1
 10
0.0
 20
0.0
 30
0.0
  0
VERTEX
  5
18B
330
18A
100
AcDbEntity
  8
Default
 62
   178
420
        0
100
AcDbVertex
100
AcDb2dVertex
 10
-11.67713013679648
 20
-1.009398459804109
 30
0.0
  0
VERTEX
  5
18C
330
18A
100
AcDbEntity
  8
Default
 62
   178
420
        0
100
AcDbVertex
100
AcDb2dVertex
 10
-11.67713013679648
 20
-2.462605690019515
 30
0.0
  0
SEQEND
  5
18D
330
18A
100
AcDbEntity
  8
Default
 62
   178
420
        0
  0
POLYLINE
  5
18E
330
1F
100
AcDbEntity
  8
Default
 62
   178
420
        0
100
AcDb2dPolyline
 66
     1
 10
0.0
 20
0.0
 30
0.0
  0
VERTEX
  5
18F
330
18E
100
AcDbEntity
  8
Default
 62
   178
420
        0
100
AcDbVertex
100
AcDb2dVertex
 10
-10.95053292969314
 20
5.802265325663592
 30
0.0
  0
VERTEX
  5
190
330
18E
100
AcDbEntity
  8
Default
 62
   178
420
        0
100
AcDbVertex
100
AcDb2dVertex
 10
-12.40367607986489
 20
5.802265325663592
 30
0.0
  0
SEQEND
  5
191
330
18E
100
AcDbEntity
  8
Default
 62
   178
420
        0
  0
POLYLINE
  5
192
330
1F
100
AcDbEntity
  8
Default
 62
   178
420
        0
100
AcDb2dPolyline
 66
     1
 10
0.0
 20
0.0
 30
0.0
  0
VERTEX
  5
193
330
192
100
AcDbEntity
  8
Default
 62
   178
420
        0
100
AcDbVertex
100
AcDb2dVertex
 10
-11.67713013679648
 20
5.075668118560258
 30
0.0
  0
VERTEX
  5
194
330
192
100
AcDbEntity
  8
Default
 62
   178
420
        0
100
AcDbVertex
100
AcDb2dVertex
 10
-11.67713013679648
 20
6.528811268732002
 30
0.0
  0
SEQEND
  5
195
330
192
100
AcDbEntity
  8
Default
 62
   178
420
        0
  0
POLYLINE
  5
196
330
1F
100
AcDbEntity
  8
Default
 62
   178
420
        0
100
AcDb2dPolyline
 66
     1
 10
0.0
 20
0.0
 30
0.0
  0
VERTEX
  5
197
330
196
100
AcDbEntity
  8
Default
 62
   178
420
        0
100
AcDbVertex
100
AcDb2dVertex
 10
-11.67713013679648
 20
6.528824084740731
 30
0.0
  0
VERTEX
  5
198
330
196
100
AcDbEntity
  8
Default
 62
   178
420
        0
100
AcDbVertex
100
AcDb2dVertex
 10
-11.67713013679648
 20
5.075680934568988
 30
0.0
  0
SEQEND
  5
199
330
196
100
AcDbEntity
  8
Default
 62
   178
420
        0
  0
POLYLINE
  5
19A
330
1F
100
AcDbEntity
  8
Default
 62
   178
420
        0
100
AcDb2dPolyline
 66
     1
 10
0.0
 20
0.0
 30
0.0
  0
VERTEX
  5
19B
330
19A
100
AcDbEntity
  8
Default
 62
   178
420
        0
100
AcDbVertex
100
AcDb2dVertex
 10
-13.95870009145825
 20
5.802265325663592
 30
0.0
  0
VERTEX
  5
19C
330
19A
100
AcDbEntity
  8
Default
 62
   178
420
        0
100
AcDbVertex
100
AcDb2dVertex
 10
-15.41184324162999
 20
5.802265325663592
 30
0.0
  0
SEQEND
  5
19D
330
19A
100
AcDbEntity
  8
Default
 62
   178
420
        0
  0
POLYLINE
  5
19E
330
1F
100
AcDbEntity
  8
Default
 62
   178
420
        0
100
AcDb2dPolyline
 66
     1
 10
0.0
 20
0.0
 30
0.0
  0
VERTEX
  5
19F
330
19E
100
AcDbEntity
  8
Default
 62
   178
420
        0
100
AcDbVertex
100
AcDb2dVertex
 10
-14.68526525853975
 20
5.075668118560258
 30
0.0
  0
VERTEX
  5
1A0
330
19E
100
AcDbEntity
  8
Default
 62
   178
420
        0
100
AcDbVertex
100
AcDb2dVertex
 10
-14.68526525853975
 20
6.528811268732002
 30
0.0
  0
SEQEND
  5
1A1
330
19E
100
AcDbEntity
  8
Default
 62
   178
420
        0
  0
POLYLINE
  5
1A2
330
1F
100
AcDbEntity
  8
Default
 62
   178
420
        0
100
AcDb2dPolyline
 66
     1
 10
0.0
 20
0.0
 30
0.0
  0
VERTEX
  5
1A3
330
1A2
100
AcDbEntity
  8
Default
 62
   178
420
        0
100
AcDbVertex
100
AcDb2dVertex
 10
-14.68526525853975
 20
6.528824084740731
 30
0.0
  0
VERTEX
  5
1A4
330
1A2
100
AcDbEntity
  8
Default
 62
   178
420
        0
100
AcDbVertex
100
AcDb2dVertex
 10
-14.68526525853975
 20
5.075680934568988
 30
0.0
  0
SEQEND
  5
1A5
330
1A2
100
AcDbEntity
  8
Default
 62
   178
420
        0
  0
POLYLINE
  5
1A6
330
1F
100
AcDbEntity
  8
Default
 62
   178
420
        0
100
AcDb2dPolyline
 66
     1
 10
0.0
 20
0.0
 30
0.0
  0
VERTEX
  5
1A7
330
1A6
100
AcDbEntity
  8
Default
 62
   178
420
        0
100
AcDbVertex
100
AcDb2dVertex
 10
-13.95870009145825
 20
-1.735995666907447
 30
0.0
  0
VERTEX
  5
1A8
330
1A6
100
AcDbEntity
  8
Default
 62
   178
420
        0
100
AcDbVertex
100
AcDb2dVertex
 10
-15.41184324162999
 20
-1.735995666907447
 30
0.0
  0
SEQEND
  5
1A9
330
1A6
100
AcDbEntity
  8
Default
 62
   178
420
        0
  0
POLYLINE
  5
1AA
330
1F
100
AcDbEntity
  8
Default
 62
   178
420
        0
100
AcDb2dPolyline
 66
     1
 10
0.0
 20
0.0
 30
0.0
  0
VERTEX
  5
1AB
330
1AA
100
AcDbEntity
  8
Default
 62
   178
420
        0
100
AcDbVertex
100
AcDb2dVertex
 10
-14.68526525853975
 20
-2.462592874010782
 30
0.0
  0
VERTEX
  5
1AC
330
1AA
100
AcDbEntity
  8
Default
 62
   178
420
        0
100
AcDbVertex
100
AcDb2dVertex
 10
-14.68526525853975
 20
-1.009385643795376
 30
0.0
  0
SEQEND
  5
1AD
330
1AA
100
AcDbEntity
  8
Default
 62
   178
420
        0
  0
POLYLINE
  5
1AE
330
1F
100
AcDbEntity
  8
Default
 62
   178
420
        0
100
AcDb2dPolyline
 66
     1
 10
0.0
 20
0.0
 30
0.0
  0
VERTEX
  5
1AF
330
1AE
100
AcDbEntity
  8
Default
 62
   178
420
        0
100
AcDbVertex
100
AcDb2dVertex
 10
-14.68526525853975
 20
-1.009398459804109
 30
0.0
  0
VERTEX
  5
1B0
330
1AE
100
AcDbEntity
  8
Default
 62
   178
420
        0
100
AcDbVertex
100
AcDb2dVertex
 10
-14.68526525853975
 20
-2.462605690019515
 30
0.0
  0
SEQEND
  5
1B1
330
1AE
100
AcDbEntity
  8
Default
 62
   178
420
        0
  0
POLYLINE
  5
1B2
330
1F
100
AcDbEntity
  8
Default
 62
   178
420
        0
100
AcDb2dPolyline
 66
     1
 10
0.0
 20
0.0
 30
0.0
  0
VERTEX
  5
1B3
330
1B2
100
AcDbEntity
  8
Default
 62
   178
420
        0
100
AcDbVertex
100
AcDb2dVertex
 10
-16.92922022757067
 20
-1.735995666907447
 30
0.0
  0
VERTEX
  5
1B4
330
1B2
100
AcDbEntity
  8
Default
 62
   178
420
        0
100
AcDbVertex
100
AcDb2dVertex
 10
-18.38236337774241
 20
-1.735995666907447
 30
0.0
  0
SEQEND
  5
1B5
330
1B2
100
AcDbEntity
  8
Default
 62
   178
420
        0
  0
POLYLINE
  5
1B6
330
1F
100
AcDbEntity
  8
Default
 62
   178
420
        0
100
AcDb2dPolyline
 66
     1
 10
0.0
 20
0.0
 30
0.0
  0
VERTEX
  5
1B7
330
1B6
100
AcDbEntity
  8
Default
 62
   178
420
        0
100
AcDbVertex
100
AcDb2dVertex
 10
-17.65581743467401
 20
-2.462592874010782
 30
0.0
  0
VERTEX
  5
1B8
330
1B6
100
AcDbEntity
  8
Default
 62
   178
420
        0
100
AcDbVertex
100
AcDb2dVertex
 10
-17.65581743467401
 20
-1.009385643795376
 30
0.0
  0
SEQEND
  5
1B9
330
1B6
100
AcDbEntity
  8
Default
 62
   178
420
        0
  0
POLYLINE
  5
1BA
330
1F
100
AcDbEntity
  8
Default
 62
   178
420
        0
100
AcDb2dPolyline
 66
     1
 10
0.0
 20
0.0
 30
0.0
  0
VERTEX
  5
1BB
330
1BA
100
AcDbEntity
  8
Default
 62
   178
420
        0
100
AcDbVertex
100
AcDb2dVertex
 10
-17.65581743467401
 20
-1.009398459804109
 30
0.0
  0
VERTEX
  5
1BC
330
1BA
100
AcDbEntity
  8
Default
 62
   178
420
        0
100
AcDbVertex
100
AcDb2dVertex
 10
-17.65581743467401
 20
-2.462605690019515
 30
0.0
  0
SEQEND
  5
1BD
330
1BA
100
AcDbEntity
  8
Default
 62
   178
420
        0
  0
POLYLINE
  5
1BE
330
1F
100
AcDbEntity
  8
Default
 62
   178
420
        0
100
AcDb2dPolyline
 66
     1
 10
0.0
 20
0.0
 30
0.0
  0
VERTEX
  5
1BF
330
1BE
100
AcDbEntity
  8
Default
 62
   178
420
        0
100
AcDbVertex
100
AcDb2dVertex
 10
-16.92922022757067
 20
5.802265325663592
 30
0.0
  0
VERTEX
  5
1C0
330
1BE
100
AcDbEntity
  8
Default
 62
   178
420
        0
100
AcDbVertex
100
AcDb2dVertex
 10
-18.38236337774241
 20
5.802265325663592
 30
0.0
  0
SEQEND
  5
1C1
330
1BE
100
AcDbEntity
  8
Default
 62
   178
420
        0
  0
POLYLINE
  5
1C2
330
1F
100
AcDbEntity
  8
Default
 62
   178
420
        0
100
AcDb2dPolyline
 66
     1
 10
0.0
 20
0.0
 30
0.0
  0
VERTEX
  5
1C3
330
1C2
100
AcDbEntity
  8
Default
 62
   178
420
        0
100
AcDbVertex
100
AcDb2dVertex
 10
-17.65581743467401
 20
5.075668118560258
 30
0.0
  0
VERTEX
  5
1C4
330
1C2
100
AcDbEntity
  8
Default
 62
   178
420
        0
100
AcDbVertex
100
AcDb2dVertex
 10
-17.65581743467401
 20
6.528811268732002
 30
0.0
  0
SEQEND
  5
1C5
330
1C2
100
AcDbEntity
  8
Default
 62
   178
420
        0
  0
POLYLINE
  5
1C6
330
1F
100
AcDbEntity
  8
Default
 62
   178
420
        0
100
AcDb2dPolyline
 66
     1
 10
0.0
 20
0.0
 30
0.0
  0
VERTEX
  5
1C7
330
1C6
100
AcDbEntity
  8
Default
 62
   178
420
        0
100
AcDbVertex
100
AcDb2dVertex
 10
-17.65581743467401
 20
6.528824084740731
 30
0.0
  0
VERTEX
  5
1C8
330
1C6
100
AcDbEntity
  8
Default
 62
   178
420
        0
100
AcDbVertex
100
AcDb2dVertex
 10
-17.65581743467401
 20
5.075680934568988
 30
0.0
  0
SEQEND
  5
1C9
330
1C6
100
AcDbEntity
  8
Default
 62
   178
420
        0
  0
POLYLINE
  5
1CA
330
1F
100
AcDbEntity
  8
Default
 62
   178
420
        0
100
AcDb2dPolyline
 66
     1
 10
0.0
 20
0.0
 30
0.0
  0
VERTEX
  5
1CB
330
1CA
100
AcDbEntity
  8
Default
 62
   178
420
        0
100
AcDbVertex
100
AcDb2dVertex
 10
-5.113148536099418
 20
11.63936776706521
 30
0.0
  0
VERTEX
  5
1CC
330
1CA
100
AcDbEntity
  8
Default
 62
   178
420
        0
100
AcDbVertex
100
AcDb2dVertex
 10
-4.624730443291332
 20
11.63597152475101
 30
0.0
  0
SEQEND
  5
1CD
330
1CA
100
AcDbEntity
  8
Default
 62
   178
420
        0
  0
POLYLINE
  5
1CE
330
1F
100
AcDbEntity
  8
Default
 62
   178
420
        0
100
AcDb2dPolyline
 66
     1
 10
0.0
 20
0.0
 30
0.0
  0
VERTEX
  5
1CF
330
1CE
100
AcDbEntity
  8
Default
 62
   178
420
        0
100
AcDbVertex
100
AcDb2dVertex
 10
-5.605078215300292
 20
11.64280886540996
 30
0.0
  0
VERTEX
  5
1D0
330
1CE
100
AcDbEntity
  8
Default
 62
   178
420
        0
100
AcDbVertex
100
AcDb2dVertex
 10
-5.116660122492206
 20
11.63941262309576
 30
0.0
  0
SEQEND
  5
1D1
330
1CE
100
AcDbEntity
  8
Default
 62
   178
420
        0
  0
POLYLINE
  5
1D2
330
1F
100
AcDbEntity
  8
Default
 62
   178
420
        0
100
AcDb2dPolyline
 66
     1
 10
0.0
 20
0.0
 30
0.0
  0
VERTEX
  5
1D3
330
1D2
100
AcDbEntity
  8
Default
 62
   178
420
        0
100
AcDbVertex
100
AcDb2dVertex
 10
-5.052073846483121
 20
12.14481192747484
 30
0.0
  0
VERTEX
  5
1D4
330
1D2
100
AcDbEntity
  8
Default
 62
   178
420
        0
100
AcDbVertex
100
AcDb2dVertex
 10
-5.179977613636747
 20
11.16297749845287
 30
0.0
  0
SEQEND
  5
1D5
330
1D2
100
AcDbEntity
  8
Default
 62
   178
420
        0
  0
POLYLINE
  5
1D6
330
1F
100
AcDbEntity
  8
Default
 62
   178
420
        0
100
AcDb2dPolyline
 66
     1
 10
0.0
 20
0.0
 30
0.0
  0
VERTEX
  5
1D7
330
1D6
100
AcDbEntity
  8
Default
 62
   178
420
        0
100
AcDbVertex
100
AcDb2dVertex
 10
5.196478224880259
 20
11.6393677670652
 30
0.0
  0
VERTEX
  5
1D8
330
1D6
100
AcDbEntity
  8
Default
 62
   178
420
        0
100
AcDbVertex
100
AcDb2dVertex
 10
5.684896317688344
 20
11.635971524751
 30
0.0
  0
SEQEND
  5
1D9
330
1D6
100
AcDbEntity
  8
Default
 62
   178
420
        0
  0
POLYLINE
  5
1DA
330
1F
100
AcDbEntity
  8
Default
 62
   178
420
        0
100
AcDb2dPolyline
 66
     1
 10
0.0
 20
0.0
 30
0.0
  0
VERTEX
  5
1DB
330
1DA
100
AcDbEntity
  8
Default
 62
   178
420
        0
100
AcDbVertex
100
AcDb2dVertex
 10
4.704548545679385
 20
11.64280886540997
 30
0.0
  0
VERTEX
  5
1DC
330
1DA
100
AcDbEntity
  8
Default
 62
   178
420
        0
100
AcDbVertex
100
AcDb2dVertex
 10
5.192966638487471
 20
11.63941262309577
 30
0.0
  0
SEQEND
  5
1DD
330
1DA
100
AcDbEntity
  8
Default
 62
   178
420
        0
  0
POLYLINE
  5
1DE
330
1F
100
AcDbEntity
  8
Default
 62
   178
420
        0
100
AcDb2dPolyline
 66
     1
 10
0.0
 20
0.0
 30
0.0
  0
VERTEX
  5
1DF
330
1DE
100
AcDbEntity
  8
Default
 62
   178
420
        0
100
AcDbVertex
100
AcDb2dVertex
 10
5.257552914496556
 20
12.14481192747484
 30
0.0
  0
VERTEX
  5
1E0
330
1DE
100
AcDbEntity
  8
Default
 62
   178
420
        0
100
AcDbVertex
100
AcDb2dVertex
 10
5.12964914734293
 20
11.16297749845287
 30
0.0
  0
SEQEND
  5
1E1
330
1DE
100
AcDbEntity
  8
Default
 62
   178
420
        0
  0
POLYLINE
  5
1E2
330
1F
100
AcDbEntity
  8
Default
 62
   178
420
        0
100
AcDb2dPolyline
 66
     1
 10
0.0
 20
0.0
 30
0.0
  0
VERTEX
  5
1E3
330
1E2
100
AcDbEntity
  8
Default
 62
   178
420
        0
100
AcDbVertex
100
AcDb2dVertex
 10
1.469884061578995
 20
-11.33505163970419
 30
0.0
  0
VERTEX
  5
1E4
330
1E2
100
AcDbEntity
  8
Default
 62
   178
420
        0
100
AcDbVertex
100
AcDb2dVertex
 10
1.958366234430751
 20
-11.33851196206205
 30
0.0
  0
SEQEND
  5
1E5
330
1E2
100
AcDbEntity
  8
Default
 62
   178
420
        0
  0
POLYLINE
  5
1E6
330
1F
100
AcDbEntity
  8
Default
 62
   178
420
        0
100
AcDb2dPolyline
 66
     1
 10
0.0
 20
0.0
 30
0.0
  0
VERTEX
  5
1E7
330
1E6
100
AcDbEntity
  8
Default
 62
   178
420
        0
100
AcDbVertex
100
AcDb2dVertex
 10
0.9780184624217768
 20
-11.33161054135942
 30
0.0
  0
VERTEX
  5
1E8
330
1E6
100
AcDbEntity
  8
Default
 62
   178
420
        0
100
AcDbVertex
100
AcDb2dVertex
 10
1.46643655522987
 20
-11.33507086371728
 30
0.0
  0
SEQEND
  5
1E9
330
1E6
100
AcDbEntity
  8
Default
 62
   178
420
        0
  0
POLYLINE
  5
1EA
330
1F
100
AcDbEntity
  8
Default
 62
   178
420
        0
100
AcDb2dPolyline
 66
     1
 10
0.0
 20
0.0
 30
0.0
  0
VERTEX
  5
1EB
330
1EA
100
AcDbEntity
  8
Default
 62
   178
420
        0
100
AcDbVertex
100
AcDb2dVertex
 10
1.531022831238962
 20
-10.82960747929453
 30
0.0
  0
VERTEX
  5
1EC
330
1EA
100
AcDbEntity
  8
Default
 62
   178
420
        0
100
AcDbVertex
100
AcDb2dVertex
 10
1.403119064085337
 20
-11.81150598836018
 30
0.0
  0
SEQEND
  5
1ED
330
1EA
100
AcDbEntity
  8
Default
 62
   178
420
        0
  0
POLYLINE
  5
1EE
330
1F
100
AcDbEntity
  8
Default
 62
   178
420
        0
100
AcDb2dPolyline
 66
     1
 10
0.0
 20
0.0
 30
0.0
  0
VERTEX
  5
1EF
330
1EE
100
AcDbEntity
  8
Default
 62
   178
420
        0
100
AcDbVertex
100
AcDb2dVertex
 10
-1.626918616582356
 20
-11.33335992655146
 30
0.0
  0
VERTEX
  5
1F0
330
1EE
100
AcDbEntity
  8
Default
 62
   178
420
        0
100
AcDbVertex
100
AcDb2dVertex
 10
-1.623458294224494
 20
-10.8448777536997
 30
0.0
  0
SEQEND
  5
1F1
330
1EE
100
AcDbEntity
  8
Default
 62
   178
420
        0
  0
POLYLINE
  5
1F2
330
1F
100
AcDbEntity
  8
Default
 62
   178
420
        0
100
AcDb2dPolyline
 66
     1
 10
0.0
 20
0.0
 30
0.0
  0
VERTEX
  5
1F3
330
1F2
100
AcDbEntity
  8
Default
 62
   178
420
        0
100
AcDbVertex
100
AcDb2dVertex
 10
-1.630302042887811
 20
-11.82522552570867
 30
0.0
  0
VERTEX
  5
1F4
330
1F2
100
AcDbEntity
  8
Default
 62
   178
420
        0
100
AcDbVertex
100
AcDb2dVertex
 10
-1.626905800573612
 20
-11.33680743290058
 30
0.0
  0
SEQEND
  5
1F5
330
1F2
100
AcDbEntity
  8
Default
 62
   178
420
        0
  0
POLYLINE
  5
1F6
330
1F
100
AcDbEntity
  8
Default
 62
   178
420
        0
100
AcDb2dPolyline
 66
     1
 10
0.0
 20
0.0
 30
0.0
  0
VERTEX
  5
1F7
330
1F6
100
AcDbEntity
  8
Default
 62
   178
420
        0
100
AcDbVertex
100
AcDb2dVertex
 10
-2.132305104952709
 20
-11.2722211568915
 30
0.0
  0
VERTEX
  5
1F8
330
1F6
100
AcDbEntity
  8
Default
 62
   178
420
        0
100
AcDbVertex
100
AcDb2dVertex
 10
-1.150470675930728
 20
-11.40012492404512
 30
0.0
  0
SEQEND
  5
1F9
330
1F6
100
AcDbEntity
  8
Default
 62
   178
420
        0
  0
POLYLINE
  5
1FA
330
1F
100
AcDbEntity
  8
Default
 62
   178
420
        0
100
AcDb2dPolyline
 66
     1
 10
0.0
 20
0.0
 30
0.0
  0
VERTEX
  5
1FB
330
1FA
100
AcDbEntity
  8
Default
 62
   178
420
        0
100
AcDbVertex
100
AcDb2dVertex
 10
17.57712714105443
 20
-1.735995666907451
 30
0.0
  0
VERTEX
  5
1FC
330
1FA
100
AcDbEntity
  8
Default
 62
   178
420
        0
100
AcDbVertex
100
AcDb2dVertex
 10
18.0998921372665
 20
-2.454268876338816
 30
0.0
  0
SEQEND
  5
1FD
330
1FA
100
AcDbEntity
  8
Default
 62
   178
420
        0
  0
POLYLINE
  5
1FE
330
1F
100
AcDbEntity
  8
Default
 62
   178
420
        0
100
AcDb2dPolyline
 66
     1
 10
0.0
 20
0.0
 30
0.0
  0
VERTEX
  5
1FF
330
1FE
100
AcDbEntity
  8
Default
 62
   178
420
        0
100
AcDbVertex
100
AcDb2dVertex
 10
17.05059423827491
 20
-1.012621686000415
 30
0.0
  0
VERTEX
  5
200
330
1FE
100
AcDbEntity
  8
Default
 62
   178
420
        0
100
AcDbVertex
100
AcDb2dVertex
 10
17.57342331453064
 20
-1.730894895431784
 30
0.0
  0
SEQEND
  5
201
330
1FE
100
AcDbEntity
  8
Default
 62
   178
420
        0
  0
POLYLINE
  5
202
330
1F
100
AcDbEntity
  8
Default
 62
   178
420
        0
100
AcDb2dPolyline
 66
     1
 10
0.0
 20
0.0
 30
0.0
  0
VERTEX
  5
203
330
202
100
AcDbEntity
  8
Default
 62
   178
420
        0
100
AcDbVertex
100
AcDb2dVertex
 10
18.18776510114314
 20
-1.087095512746886
 30
0.0
  0
VERTEX
  5
204
330
202
100
AcDbEntity
  8
Default
 62
   178
420
        0
100
AcDbVertex
100
AcDb2dVertex
 10
16.9915829260646
 20
-2.334221322538413
 30
0.0
  0
SEQEND
  5
205
330
202
100
AcDbEntity
  8
Default
 62
   178
420
        0
  0
POLYLINE
  5
206
330
1F
100
AcDbEntity
  8
Default
 62
   178
420
        0
100
AcDb2dPolyline
 66
     1
 10
0.0
 20
0.0
 30
0.0
  0
VERTEX
  5
207
330
206
100
AcDbEntity
  8
Default
 62
   178
420
        0
100
AcDbVertex
100
AcDb2dVertex
 10
17.57712714105443
 20
5.802265325663585
 30
0.0
  0
VERTEX
  5
208
330
206
100
AcDbEntity
  8
Default
 62
   178
420
        0
100
AcDbVertex
100
AcDb2dVertex
 10
18.09989213726649
 20
5.083992116232224
 30
0.0
  0
SEQEND
  5
209
330
206
100
AcDbEntity
  8
Default
 62
   178
420
        0
  0
POLYLINE
  5
20A
330
1F
100
AcDbEntity
  8
Default
 62
   178
420
        0
100
AcDb2dPolyline
 66
     1
 10
0.0
 20
0.0
 30
0.0
  0
VERTEX
  5
20B
330
20A
100
AcDbEntity
  8
Default
 62
   178
420
        0
100
AcDbVertex
100
AcDb2dVertex
 10
17.05059423827493
 20
6.525632898566271
 30
0.0
  0
VERTEX
  5
20C
330
20A
100
AcDbEntity
  8
Default
 62
   178
420
        0
100
AcDbVertex
100
AcDb2dVertex
 10
17.57342331453066
 20
5.80735968913491
 30
0.0
  0
SEQEND
  5
20D
330
20A
100
AcDbEntity
  8
Default
 62
   178
420
        0
  0
POLYLINE
  5
20E
330
1F
100
AcDbEntity
  8
Default
 62
   178
420
        0
100
AcDb2dPolyline
 66
     1
 10
0.0
 20
0.0
 30
0.0
  0
VERTEX
  5
20F
330
20E
100
AcDbEntity
  8
Default
 62
   178
420
        0
100
AcDbVertex
100
AcDb2dVertex
 10
18.18776510114312
 20
6.451133439802319
 30
0.0
  0
VERTEX
  5
210
330
20E
100
AcDbEntity
  8
Default
 62
   178
420
        0
100
AcDbVertex
100
AcDb2dVertex
 10
16.9915829260646
 20
5.204007630010793
 30
0.0
  0
SEQEND
  5
211
330
20E
100
AcDbEntity
  8
Default
 62
   178
420
        0
  0
SPLINE
  5
212
330
1F
100
AcDbEntity
  8
Default
 62
   178
420
        0
100
AcDbSpline
210
0.0
220
0.0
230
1.0
 70
     8
 71
     3
 72
     8
 73
     4
 74
     0
 42
0.000000001
 43
0.0000000001
 40
1.0
 40
1.0
 40
1.0
 40
1.0
 40
2.0
 40
2.0
 40
2.0
 40
2.0
 10
-10.7689044539315
 20
5.802265325663592
 30
0.0
 10
-10.7689044539315
 20
5.300646743860693
 30
0.0
 10
-11.17555641102414
 20
4.894058866811712
 30
0.0
 10
-11.67711091278338
 20
4.894058866811712
 30
0.0
  0
SPLINE
  5
213
330
1F
100
AcDbEntity
  8
Default
 62
   178
420
        0
100
AcDbSpline
210
0.0
220
0.0
230
1.0
 70
     8
 71
     3
 72
     8
 73
     4
 74
     0
 42
0.000000001
 43
0.0000000001
 40
2.0
 40
2.0
 40
2.0
 40
2.0
 40
3.0
 40
3.0
 40
3.0
 40
3.0
 10
-11.67711091278338
 20
4.894058866811712
 30
0.0
 10
-12.17872949458628
 20
4.894058866811712
 30
0.0
 10
-12.58531737163526
 20
5.300646743860693
 30
0.0
 10
-12.58531737163526
 20
5.802265325663592
 30
0.0
  0
SPLINE
  5
214
330
1F
100
AcDbEntity
  8
Default
 62
   178
420
        0
100
AcDbSpline
210
0.0
220
0.0
230
1.0
 70
     8
 71
     3
 72
     8
 73
     4
 74
     0
 42
0.000000001
 43
0.0000000001
 40
3.0
 40
3.0
 40
3.0
 40
3.0
 40
4.0
 40
4.0
 40
4.0
 40
4.0
 10
-12.58531737163526
 20
5.802265325663592
 30
0.0
 10
-12.58531737163526
 20
6.303883907466493
 30
0.0
 10
-12.17872949458628
 20
6.710471784515474
 30
0.0
 10
-11.67711091278338
 20
6.710471784515474
 30
0.0
  0
SPLINE
  5
215
330
1F
100
AcDbEntity
  8
Default
 62
   178
420
        0
100
AcDbSpline
210
0.0
220
0.0
230
1.0
 70
     8
 71
     3
 72
     8
 73
     4
 74
     0
 42
0.000000001
 43
0.0000000001
 40
4.0
 40
4.0
 40
4.0
 40
4.0
 40
5.0
 40
5.0
 40
5.0
 40
5.0
 10
-11.67711091278338
 20
6.710471784515474
 30
0.0
 10
-11.17555641102414
 20
6.710471784515474
 30
0.0
 10
-10.7689044539315
 20
6.303883907466493
 30
0.0
 10
-10.7689044539315
 20
5.802265325663592
 30
0.0
  0
SPLINE
  5
216
330
1F
100
AcDbEntity
  8
Default
 62
   178
420
        0
100
AcDbSpline
210
0.0
220
0.0
230
1.0
 70
     8
 71
     3
 72
     8
 73
     4
 74
     0
 42
0.000000001
 43
0.0000000001
 40
1.0
 40
1.0
 40
1.0
 40
1.0
 40
2.0
 40
2.0
 40
2.0
 40
2.0
 10
-10.7689044539315
 20
-1.735995666907447
 30
0.0
 10
-10.7689044539315
 20
-2.237550168666685
 30
0.0
 10
-11.17555641102414
 20
-2.644202125759329
 30
0.0
 10
-11.67711091278338
 20
-2.644202125759329
 30
0.0
  0
SPLINE
  5
217
330
1F
100
AcDbEntity
  8
Default
 62
   178
420
        0
100
AcDbSpline
210
0.0
220
0.0
230
1.0
 70
     8
 71
     3
 72
     8
 73
     4
 74
     0
 42
0.000000001
 43
0.0000000001
 40
2.0
 40
2.0
 40
2.0
 40
2.0
 40
3.0
 40
3.0
 40
3.0
 40
3.0
 10
-11.67711091278338
 20
-2.644202125759329
 30
0.0
 10
-12.17872949458628
 20
-2.644202125759329
 30
0.0
 10
-12.58531737163526
 20
-2.237550168666685
 30
0.0
 10
-12.58531737163526
 20
-1.735995666907447
 30
0.0
  0
SPLINE
  5
218
330
1F
100
AcDbEntity
  8
Default
 62
   178
420
        0
100
AcDbSpline
210
0.0
220
0.0
230
1.0
 70
     8
 71
     3
 72
     8
 73
     4
 74
     0
 42
0.000000001
 43
0.0000000001
 40
3.0
 40
3.0
 40
3.0
 40
3.0
 40
4.0
 40
4.0
 40
4.0
 40
4.0
 10
-12.58531737163526
 20
-1.735995666907447
 30
0.0
 10
-12.58531737163526
 20
-1.234377085104547
 30
0.0
 10
-12.17872949458628
 20
-0.827789208055566
 30
0.0
 10
-11.67711091278338
 20
-0.827789208055566
 30
0.0
  0
SPLINE
  5
219
330
1F
100
AcDbEntity
  8
Default
 62
   178
420
        0
100
AcDbSpline
210
0.0
220
0.0
230
1.0
 70
     8
 71
     3
 72
     8
 73
     4
 74
     0
 42
0.000000001
 43
0.0000000001
 40
4.0
 40
4.0
 40
4.0
 40
4.0
 40
5.0
 40
5.0
 40
5.0
 40
5.0
 10
-11.67711091278338
 20
-0.827789208055566
 30
0.0
 10
-11.17555641102414
 20
-0.827789208055566
 30
0.0
 10
-10.7689044539315
 20
-1.234377085104547
 30
0.0
 10
-10.7689044539315
 20
-1.735995666907447
 30
0.0
  0
SPLINE
  5
21A
330
1F
100
AcDbEntity
  8
Default
 62
   178
420
        0
100
AcDbSpline
210
0.0
220
0.0
230
1.0
 70
     8
 71
     3
 72
     8
 73
     4
 74
     0
 42
0.000000001
 43
0.0000000001
 40
1.0
 40
1.0
 40
1.0
 40
1.0
 40
2.0
 40
2.0
 40
2.0
 40
2.0
 10
-13.77703316767041
 20
-1.735995666907447
 30
0.0
 10
-13.77703316767041
 20
-2.237550168666685
 30
0.0
 10
-14.18368512476305
 20
-2.644202125759329
 30
0.0
 10
-14.68523962652229
 20
-2.644202125759329
 30
0.0
  0
SPLINE
  5
21B
330
1F
100
AcDbEntity
  8
Default
 62
   178
420
        0
100
AcDbSpline
210
0.0
220
0.0
230
1.0
 70
     8
 71
     3
 72
     8
 73
     4
 74
     0
 42
0.000000001
 43
0.0000000001
 40
2.0
 40
2.0
 40
2.0
 40
2.0
 40
3.0
 40
3.0
 40
3.0
 40
3.0
 10
-14.68523962652229
 20
-2.644202125759329
 30
0.0
 10
-15.18685820832519
 20
-2.644202125759329
 30
0.0
 10
-15.59351016541783
 20
-2.237550168666685
 30
0.0
 10
-15.59351016541783
 20
-1.735995666907447
 30
0.0
  0
SPLINE
  5
21C
330
1F
100
AcDbEntity
  8
Default
 62
   178
420
        0
100
AcDbSpline
210
0.0
220
0.0
230
1.0
 70
     8
 71
     3
 72
     8
 73
     4
 74
     0
 42
0.000000001
 43
0.0000000001
 40
3.0
 40
3.0
 40
3.0
 40
3.0
 40
4.0
 40
4.0
 40
4.0
 40
4.0
 10
-15.59351016541783
 20
-1.735995666907447
 30
0.0
 10
-15.59351016541783
 20
-1.234377085104547
 30
0.0
 10
-15.18685820832519
 20
-0.827789208055566
 30
0.0
 10
-14.68523962652229
 20
-0.827789208055566
 30
0.0
  0
SPLINE
  5
21D
330
1F
100
AcDbEntity
  8
Default
 62
   178
420
        0
100
AcDbSpline
210
0.0
220
0.0
230
1.0
 70
     8
 71
     3
 72
     8
 73
     4
 74
     0
 42
0.000000001
 43
0.0000000001
 40
4.0
 40
4.0
 40
4.0
 40
4.0
 40
5.0
 40
5.0
 40
5.0
 40
5.0
 10
-14.68523962652229
 20
-0.827789208055566
 30
0.0
 10
-14.18368512476305
 20
-0.827789208055566
 30
0.0
 10
-13.77703316767041
 20
-1.234377085104547
 30
0.0
 10
-13.77703316767041
 20
-1.735995666907447
 30
0.0
  0
SPLINE
  5
21E
330
1F
100
AcDbEntity
  8
Default
 62
   178
420
        0
100
AcDbSpline
210
0.0
220
0.0
230
1.0
 70
     8
 71
     3
 72
     8
 73
     4
 74
     0
 42
0.000000001
 43
0.0000000001
 40
1.0
 40
1.0
 40
1.0
 40
1.0
 40
2.0
 40
2.0
 40
2.0
 40
2.0
 10
-16.74759175180902
 20
-1.735995666907447
 30
0.0
 10
-16.74759175180902
 20
-2.237550168666685
 30
0.0
 10
-17.15424370890167
 20
-2.644202125759329
 30
0.0
 10
-17.6557982106609
 20
-2.644202125759329
 30
0.0
  0
SPLINE
  5
21F
330
1F
100
AcDbEntity
  8
Default
 62
   178
420
        0
100
AcDbSpline
210
0.0
220
0.0
230
1.0
 70
     8
 71
     3
 72
     8
 73
     4
 74
     0
 42
0.000000001
 43
0.0000000001
 40
2.0
 40
2.0
 40
2.0
 40
2.0
 40
3.0
 40
3.0
 40
3.0
 40
3.0
 10
-17.6557982106609
 20
-2.644202125759329
 30
0.0
 10
-18.15741679246381
 20
-2.644202125759329
 30
0.0
 10
-18.56400466951279
 20
-2.237550168666685
 30
0.0
 10
-18.56400466951279
 20
-1.735995666907447
 30
0.0
  0
SPLINE
  5
220
330
1F
100
AcDbEntity
  8
Default
 62
   178
420
        0
100
AcDbSpline
210
0.0
220
0.0
230
1.0
 70
     8
 71
     3
 72
     8
 73
     4
 74
     0
 42
0.000000001
 43
0.0000000001
 40
3.0
 40
3.0
 40
3.0
 40
3.0
 40
4.0
 40
4.0
 40
4.0
 40
4.0
 10
-18.56400466951279
 20
-1.735995666907447
 30
0.0
 10
-18.56400466951279
 20
-1.234377085104547
 30
0.0
 10
-18.15741679246381
 20
-0.827789208055566
 30
0.0
 10
-17.6557982106609
 20
-0.827789208055566
 30
0.0
  0
SPLINE
  5
221
330
1F
100
AcDbEntity
  8
Default
 62
   178
420
        0
100
AcDbSpline
210
0.0
220
0.0
230
1.0
 70
     8
 71
     3
 72
     8
 73
     4
 74
     0
 42
0.000000001
 43
0.0000000001
 40
4.0
 40
4.0
 40
4.0
 40
4.0
 40
5.0
 40
5.0
 40
5.0
 40
5.0
 10
-17.6557982106609
 20
-0.827789208055566
 30
0.0
 10
-17.15424370890167
 20
-0.827789208055566
 30
0.0
 10
-16.74759175180902
 20
-1.234377085104547
 30
0.0
 10
-16.74759175180902
 20
-1.735995666907447
 30
0.0
  0
SPLINE
  5
222
330
1F
100
AcDbEntity
  8
Default
 62
   178
420
        0
100
AcDbSpline
210
0.0
220
0.0
230
1.0
 70
     8
 71
     3
 72
     8
 73
     4
 74
     0
 42
0.000000001
 43
0.0000000001
 40
1.0
 40
1.0
 40
1.0
 40
1.0
 40
2.0
 40
2.0
 40
2.0
 40
2.0
 10
-13.77703316767041
 20
5.802265325663592
 30
0.0
 10
-13.77703316767041
 20
5.300646743860693
 30
0.0
 10
-14.18368512476305
 20
4.894058866811712
 30
0.0
 10
-14.68523962652229
 20
4.894058866811712
 30
0.0
  0
SPLINE
  5
223
330
1F
100
AcDbEntity
  8
Default
 62
   178
420
        0
100
AcDbSpline
210
0.0
220
0.0
230
1.0
 70
     8
 71
     3
 72
     8
 73
     4
 74
     0
 42
0.000000001
 43
0.0000000001
 40
2.0
 40
2.0
 40
2.0
 40
2.0
 40
3.0
 40
3.0
 40
3.0
 40
3.0
 10
-14.68523962652229
 20
4.894058866811712
 30
0.0
 10
-15.18685820832519
 20
4.894058866811712
 30
0.0
 10
-15.59351016541783
 20
5.300646743860693
 30
0.0
 10
-15.59351016541783
 20
5.802265325663592
 30
0.0
  0
SPLINE
  5
224
330
1F
100
AcDbEntity
  8
Default
 62
   178
420
        0
100
AcDbSpline
210
0.0
220
0.0
230
1.0
 70
     8
 71
     3
 72
     8
 73
     4
 74
     0
 42
0.000000001
 43
0.0000000001
 40
3.0
 40
3.0
 40
3.0
 40
3.0
 40
4.0
 40
4.0
 40
4.0
 40
4.0
 10
-15.59351016541783
 20
5.802265325663592
 30
0.0
 10
-15.59351016541783
 20
6.303883907466493
 30
0.0
 10
-15.18685820832519
 20
6.710471784515474
 30
0.0
 10
-14.68523962652229
 20
6.710471784515474
 30
0.0
  0
SPLINE
  5
225
330
1F
100
AcDbEntity
  8
Default
 62
   178
420
        0
100
AcDbSpline
210
0.0
220
0.0
230
1.0
 70
     8
 71
     3
 72
     8
 73
     4
 74
     0
 42
0.000000001
 43
0.0000000001
 40
4.0
 40
4.0
 40
4.0
 40
4.0
 40
5.0
 40
5.0
 40
5.0
 40
5.0
 10
-14.68523962652229
 20
6.710471784515474
 30
0.0
 10
-14.18368512476305
 20
6.710471784515474
 30
0.0
 10
-13.77703316767041
 20
6.303883907466493
 30
0.0
 10
-13.77703316767041
 20
5.802265325663592
 30
0.0
  0
SPLINE
  5
226
330
1F
100
AcDbEntity
  8
Default
 62
   178
420
        0
100
AcDbSpline
210
0.0
220
0.0
230
1.0
 70
     8
 71
     3
 72
     8
 73
     4
 74
     0
 42
0.000000001
 43
0.0000000001
 40
1.0
 40
1.0
 40
1.0
 40
1.0
 40
2.0
 40
2.0
 40
2.0
 40
2.0
 10
-16.74759175180902
 20
5.802265325663592
 30
0.0
 10
-16.74759175180902
 20
5.300646743860693
 30
0.0
 10
-17.15424370890167
 20
4.894058866811712
 30
0.0
 10
-17.6557982106609
 20
4.894058866811712
 30
0.0
  0
SPLINE
  5
227
330
1F
100
AcDbEntity
  8
Default
 62
   178
420
        0
100
AcDbSpline
210
0.0
220
0.0
230
1.0
 70
     8
 71
     3
 72
     8
 73
     4
 74
     0
 42
0.000000001
 43
0.0000000001
 40
2.0
 40
2.0
 40
2.0
 40
2.0
 40
3.0
 40
3.0
 40
3.0
 40
3.0
 10
-17.6557982106609
 20
4.894058866811712
 30
0.0
 10
-18.15741679246381
 20
4.894058866811712
 30
0.0
 10
-18.56400466951279
 20
5.300646743860693
 30
0.0
 10
-18.56400466951279
 20
5.802265325663592
 30
0.0
  0
SPLINE
  5
228
330
1F
100
AcDbEntity
  8
Default
 62
   178
420
        0
100
AcDbSpline
210
0.0
220
0.0
230
1.0
 70
     8
 71
     3
 72
     8
 73
     4
 74
     0
 42
0.000000001
 43
0.0000000001
 40
3.0
 40
3.0
 40
3.0
 40
3.0
 40
4.0
 40
4.0
 40
4.0
 40
4.0
 10
-18.56400466951279
 20
5.802265325663592
 30
0.0
 10
-18.56400466951279
 20
6.303883907466493
 30
0.0
 10
-18.15741679246381
 20
6.710471784515474
 30
0.0
 10
-17.6557982106609
 20
6.710471784515474
 30
0.0
  0
SPLINE
  5
229
330
1F
100
AcDbEntity
  8
Default
 62
   178
420
        0
100
AcDbSpline
210
0.0
220
0.0
230
1.0
 70
     8
 71
     3
 72
     8
 73
     4
 74
     0
 42
0.000000001
 43
0.0000000001
 40
4.0
 40
4.0
 40
4.0
 40
4.0
 40
5.0
 40
5.0
 40
5.0
 40
5.0
 10
-17.6557982106609
 20
6.710471784515474
 30
0.0
 10
-17.15424370890167
 20
6.710471784515474
 30
0.0
 10
-16.74759175180902
 20
6.303883907466493
 30
0.0
 10
-16.74759175180902
 20
5.802265325663592
 30
0.0
  0
SPLINE
  5
22A
330
1F
100
AcDbEntity
  8
Default
 62
   178
420
        0
100
AcDbSpline
210
0.0
220
0.0
230
1.0
 70
     8
 71
     3
 72
     8
 73
     4
 74
     0
 42
0.000000001
 43
0.0000000001
 40
1.0
 40
1.0
 40
1.0
 40
1.0
 40
2.0
 40
2.0
 40
2.0
 40
2.0
 10
18.84865463147327
 20
-1.735995666907447
 30
0.0
 10
18.84865463147327
 20
-2.438248865422777
 30
0.0
 10
18.27936752356103
 20
-3.007535973335013
 30
0.0
 10
17.5771143250457
 20
-3.007535973335013
 30
0.0
  0
SPLINE
  5
22B
330
1F
100
AcDbEntity
  8
Default
 62
   178
420
        0
100
AcDbSpline
210
0.0
220
0.0
230
1.0
 70
     8
 71
     3
 72
     8
 73
     4
 74
     0
 42
0.000000001
 43
0.0000000001
 40
2.0
 40
2.0
 40
2.0
 40
2.0
 40
3.0
 40
3.0
 40
3.0
 40
3.0
 10
17.5771143250457
 20
-3.007535973335013
 30
0.0
 10
16.87486112653037
 20
-3.007535973335013
 30
0.0
 10
16.30557401861813
 20
-2.438248865422777
 30
0.0
 10
16.30557401861813
 20
-1.735995666907447
 30
0.0
  0
SPLINE
  5
22C
330
1F
100
AcDbEntity
  8
Default
 62
   178
420
        0
100
AcDbSpline
210
0.0
220
0.0
230
1.0
 70
     8
 71
     3
 72
     8
 73
     4
 74
     0
 42
0.000000001
 43
0.0000000001
 40
3.0
 40
3.0
 40
3.0
 40
3.0
 40
4.0
 40
4.0
 40
4.0
 40
4.0
 10
16.30557401861813
 20
-1.735995666907447
 30
0.0
 10
16.30557401861813
 20
-1.033742468392117
 30
0.0
 10
16.87486112653037
 20
-0.4644553604798813
 30
0.0
 10
17.5771143250457
 20
-0.4644553604798813
 30
0.0
  0
SPLINE
  5
22D
330
1F
100
AcDbEntity
  8
Default
 62
   178
420
        0
100
AcDbSpline
210
0.0
220
0.0
230
1.0
 70
     8
 71
     3
 72
     8
 73
     4
 74
     0
 42
0.000000001
 43
0.0000000001
 40
4.0
 40
4.0
 40
4.0
 40
4.0
 40
5.0
 40
5.0
 40
5.0
 40
5.0
 10
17.5771143250457
 20
-0.4644553604798813
 30
0.0
 10
18.27936752356103
 20
-0.4644553604798813
 30
0.0
 10
18.84865463147327
 20
-1.033742468392117
 30
0.0
 10
18.84865463147327
 20
-1.735995666907447
 30
0.0
  0
SPLINE
  5
22E
330
1F
100
AcDbEntity
  8
Default
 62
   178
420
        0
100
AcDbSpline
210
0.0
220
0.0
230
1.0
 70
     8
 71
     3
 72
     8
 73
     4
 74
     0
 42
0.000000001
 43
0.0000000001
 40
1.0
 40
1.0
 40
1.0
 40
1.0
 40
2.0
 40
2.0
 40
2.0
 40
2.0
 10
18.84865463147327
 20
5.802265325663592
 30
0.0
 10
18.84865463147327
 20
5.100012127148267
 30
0.0
 10
18.27936752356103
 20
4.530725019236026
 30
0.0
 10
17.5771143250457
 20
4.530725019236026
 30
0.0
  0
SPLINE
  5
22F
330
1F
100
AcDbEntity
  8
Default
 62
   178
420
        0
100
AcDbSpline
210
0.0
220
0.0
230
1.0
 70
     8
 71
     3
 72
     8
 73
     4
 74
     0
 42
0.000000001
 43
0.0000000001
 40
2.0
 40
2.0
 40
2.0
 40
2.0
 40
3.0
 40
3.0
 40
3.0
 40
3.0
 10
17.5771143250457
 20
4.530725019236026
 30
0.0
 10
16.87486112653037
 20
4.530725019236026
 30
0.0
 10
16.30557401861813
 20
5.100012127148267
 30
0.0
 10
16.30557401861813
 20
5.802265325663592
 30
0.0
  0
SPLINE
  5
230
330
1F
100
AcDbEntity
  8
Default
 62
   178
420
        0
100
AcDbSpline
210
0.0
220
0.0
230
1.0
 70
     8
 71
     3
 72
     8
 73
     4
 74
     0
 42
0.000000001
 43
0.0000000001
 40
3.0
 40
3.0
 40
3.0
 40
3.0
 40
4.0
 40
4.0
 40
4.0
 40
4.0
 10
16.30557401861813
 20
5.802265325663592
 30
0.0
 10
16.30557401861813
 20
6.504454444135257
 30
0.0
 10
16.87486112653037
 20
7.073741552047492
 30
0.0
 10
17.5771143250457
 20
7.073741552047492
 30
0.0
  0
SPLINE
  5
231
330
1F
100
AcDbEntity
  8
Default
 62
   178
420
        0
100
AcDbSpline
210
0.0
220
0.0
230
1.0
 70
     8
 71
     3
 72
     8
 73
     4
 74
     0
 42
0.000000001
 43
0.0000000001
 40
4.0
 40
4.0
 40
4.0
 40
4.0
 40
5.0
 40
5.0
 40
5.0
 40
5.0
 10
17.5771143250457
 20
7.073741552047492
 30
0.0
 10
18.27936752356103
 20
7.073741552047492
 30
0.0
 10
18.84865463147327
 20
6.504454444135257
 30
0.0
 10
18.84865463147327
 20
5.802265325663592
 30
0.0
  0
POLYLINE
  5
232
330
1F
100
AcDbEntity
  8
Default
 62
   178
420
        0
100
AcDb2dPolyline
 66
     1
 10
0.0
 20
0.0
 30
0.0
 70
     1
  0
VERTEX
  5
233
330
232
100
AcDbEntity
  8
Default
 62
   178
420
        0
100
AcDbVertex
100
AcDb2dVertex
 10
15.40919673582666
 20
-3.518670441622039
 30
0.0
  0
VERTEX
  5
234
330
232
100
AcDbEntity
  8
Default
 62
   178
420
        0
100
AcDbVertex
100
AcDb2dVertex
 10
9.051623363776162
 20
-3.518670441622039
 30
0.0
  0
VERTEX
  5
235
330
232
100
AcDbEntity
  8
Default
 62
   178
420
        0
100
AcDbVertex
100
AcDb2dVertex
 10
9.051623363776162
 20
8.28820576358341
 30
0.0
  0
VERTEX
  5
236
330
232
100
AcDbEntity
  8
Default
 62
   178
420
        0
100
AcDbVertex
100
AcDb2dVertex
 10
15.40919673582666
 20
8.28820576358341
 30
0.0
  0
SEQEND
  5
237
330
232
100
AcDbEntity
  8
Default
 62
   178
420
        0
  0
POLYLINE
  5
238
330
1F
100
AcDbEntity
  8
Default
 62
   178
420
        0
100
AcDb2dPolyline
 66
     1
 10
0.0
 20
0.0
 30
0.0
 70
     1
  0
VERTEX
  5
239
330
238
100
AcDbEntity
  8
Default
 62
   178
420
        0
100
AcDbVertex
100
AcDb2dVertex
 10
3.360482445832733
 20
-8.304232182503808
 30
0.0
  0
VERTEX
  5
23A
330
238
100
AcDbEntity
  8
Default
 62
   178
420
        0
100
AcDbVertex
100
AcDb2dVertex
 10
-3.442062749421566
 20
-8.304232182503808
 30
0.0
  0
VERTEX
  5
23B
330
238
100
AcDbEntity
  8
Default
 62
   178
420
        0
100
AcDbVertex
100
AcDb2dVertex
 10
-3.442062749421566
 20
7.375321461544046
 30
0.0
  0
VERTEX
  5
23C
330
238
100
AcDbEntity
  8
Default
 62
   178
420
        0
100
AcDbVertex
100
AcDb2dVertex
 10
3.360482445832733
 20
7.375321461544046
 30
0.0
  0
SEQEND
  5
23D
330
238
100
AcDbEntity
  8
Default
 62
   178
420
        0
  0
SPLINE
  5
23E
330
1F
100
AcDbEntity
  8
Default
 62
   178
420
        0
100
AcDbSpline
210
0.0
220
0.0
230
1.0
 70
     8
 71
     3
 72
     8
 73
     4
 74
     0
 42
0.000000001
 43
0.0000000001
 40
0.0
 40
0.0
 40
0.0
 40
0.0
 40
1.0
 40
1.0
 40
1.0
 40
1.0
 10
8.605921028074587
 20
-3.956144899717135
 30
0.0
 10
7.609027788791532
 20
-4.884921052585204
 30
0.0
 10
7.053581970310751
 20
-5.768456694626391
 30
0.0
 10
6.734399272819661
 20
-6.385291194937421
 30
0.0
  0
SPLINE
  5
23F
330
1F
100
AcDbEntity
  8
Default
 62
   178
420
        0
100
AcDbSpline
210
0.0
220
0.0
230
1.0
 70
     8
 71
     3
 72
     8
 73
     4
 74
     0
 42
0.000000001
 43
0.0000000001
 40
1.0
 40
1.0
 40
1.0
 40
1.0
 40
2.0
 40
2.0
 40
2.0
 40
2.0
 10
6.734399272819661
 20
-6.385291194937421
 30
0.0
 10
5.97543523566157
 20
-7.852275634540617
 30
0.0
 10
6.115065650805733
 20
-8.657697703355216
 30
0.0
 10
5.153800915799945
 20
-10.05919233833366
 30
0.0
  0
SPLINE
  5
240
330
1F
100
AcDbEntity
  8
Default
 62
   178
420
        0
100
AcDbSpline
210
0.0
220
0.0
230
1.0
 70
     8
 71
     3
 72
     8
 73
     4
 74
     0
 42
0.000000001
 43
0.0000000001
 40
2.0
 40
2.0
 40
2.0
 40
2.0
 40
3.0
 40
3.0
 40
3.0
 40
3.0
 10
5.153800915799945
 20
-10.05919233833366
 30
0.0
 10
4.841282542849921
 20
-10.51486552882937
 30
0.0
 10
4.385545272310547
 20
-11.12349778355139
 30
0.0
 10
3.611330184760386
 20
-11.68515936626759
 30
0.0
  0
SPLINE
  5
241
330
1F
100
AcDbEntity
  8
Default
 62
   178
420
        0
100
AcDbSpline
210
0.0
220
0.0
230
1.0
 70
     8
 71
     3
 72
     8
 73
     4
 74
     0
 42
0.000000001
 43
0.0000000001
 40
3.0
 40
3.0
 40
3.0
 40
3.0
 40
4.0
 40
4.0
 40
4.0
 40
4.0
 10
3.611330184760386
 20
-11.68515936626759
 30
0.0
 10
2.501720148672105
 20
-12.49019695482021
 30
0.0
 10
1.082795741817013
 20
-12.82341318187374
 30
0.0
 10
0.5745128354730467
 20
-12.80989229266061
 30
0.0
  0
SPLINE
  5
242
330
1F
100
AcDbEntity
  8
Default
 62
   178
420
        0
100
AcDbSpline
210
0.0
220
0.0
230
1.0
 70
     8
 71
     3
 72
     8
 73
     4
 74
     0
 42
0.000000001
 43
0.0000000001
 40
4.0
 40
4.0
 40
4.0
 40
4.0
 40
5.0
 40
5.0
 40
5.0
 40
5.0
 10
0.5745128354730467
 20
-12.80989229266061
 30
0.0
 10
0.001829485246611
 20
-12.79476940235587
 30
0.0
 10
0.1500466262417701
 20
-12.81546725645939
 30
0.0
 10
-0.0408478238337109
 20
-12.80989229266061
 30
0.0
  0
SPLINE
  5
243
330
1F
100
AcDbEntity
  8
Default
 62
   178
420
        0
100
AcDbSpline
210
0.0
220
0.0
230
1.0
 70
     8
 71
     3
 72
     8
 73
     4
 74
     0
 42
0.000000001
 43
0.0000000001
 40
0.0
 40
0.0
 40
0.0
 40
0.0
 40
1.0
 40
1.0
 40
1.0
 40
1.0
 10
-8.687488515654676
 20
-3.967224339266663
 30
0.0
 10
-7.690659356415284
 20
-4.89593641209107
 30
0.0
 10
-7.13514945789084
 20
-5.779536134175919
 30
0.0
 10
-6.816030840443413
 20
-6.39637063448695
 30
0.0
  0
SPLINE
  5
244
330
1F
100
AcDbEntity
  8
Default
 62
   178
420
        0
100
AcDbSpline
210
0.0
220
0.0
230
1.0
 70
     8
 71
     3
 72
     8
 73
     4
 74
     0
 42
0.000000001
 43
0.0000000001
 40
1.0
 40
1.0
 40
1.0
 40
1.0
 40
2.0
 40
2.0
 40
2.0
 40
2.0
 10
-6.816030840443413
 20
-6.39637063448695
 30
0.0
 10
-6.057066803285322
 20
-7.863290994046483
 30
0.0
 10
-6.196633138385822
 20
-8.668713062861082
 30
0.0
 10
-5.235368403380034
 20
-10.07027177788319
 30
0.0
  0
SPLINE
  5
245
330
1F
100
AcDbEntity
  8
Default
 62
   178
420
        0
100
AcDbSpline
210
0.0
220
0.0
230
1.0
 70
     8
 71
     3
 72
     8
 73
     4
 74
     0
 42
0.000000001
 43
0.0000000001
 40
2.0
 40
2.0
 40
2.0
 40
2.0
 40
3.0
 40
3.0
 40
3.0
 40
3.0
 10
-5.235368403380034
 20
-10.07027177788319
 30
0.0
 10
-4.936306839599482
 20
-10.50640055506134
 30
0.0
 10
-4.483709491199649
 20
-11.1537371561565
 30
0.0
 10
-3.692897672340476
 20
-11.69623880581712
 30
0.0
  0
SPLINE
  5
246
330
1F
100
AcDbEntity
  8
Default
 62
   178
420
        0
100
AcDbSpline
210
0.0
220
0.0
230
1.0
 70
     8
 71
     3
 72
     8
 73
     4
 74
     0
 42
0.000000001
 43
0.0000000001
 40
3.0
 40
3.0
 40
3.0
 40
3.0
 40
4.0
 40
4.0
 40
4.0
 40
4.0
 10
-3.692897672340476
 20
-11.69623880581712
 30
0.0
 10
-2.265322459590724
 20
-12.67544595304887
 30
0.0
 10
-0.7081773985520824
 20
-12.86480248207641
 30
0.0
 10
-0.040783743790041
 20
-12.80988588465624
 30
0.0
  0
SPLINE
  5
247
330
1F
100
AcDbEntity
  8
Default
 62
   178
420
        0
100
AcDbSpline
210
0.0
220
0.0
230
1.0
 70
     8
 71
     3
 72
     8
 73
     4
 74
     0
 42
0.000000001
 43
0.0000000001
 40
0.0
 40
0.0
 40
0.0
 40
0.0
 40
1.0
 40
1.0
 40
1.0
 40
1.0
 10
-8.97491314350582
 20
8.742341033031181
 30
0.0
 10
-8.376790015944723
 20
9.082862385062427
 30
0.0
 10
-8.019031132167814
 20
9.462664803859797
 30
0.0
 10
-7.802953224932331
 20
9.746283077117292
 30
0.0
  0
SPLINE
  5
248
330
1F
100
AcDbEntity
  8
Default
 62
   178
420
        0
100
AcDbSpline
210
0.0
220
0.0
230
1.0
 70
     8
 71
     3
 72
     8
 73
     4
 74
     0
 42
0.000000001
 43
0.0000000001
 40
1.0
 40
1.0
 40
1.0
 40
1.0
 40
2.0
 40
2.0
 40
2.0
 40
2.0
 10
-7.802953224932331
 20
9.746283077117292
 30
0.0
 10
-7.266987739725447
 20
10.4498178765059
 30
0.0
 10
-7.12594756362067
 20
10.79617051251059
 30
0.0
 10
-6.606771049853795
 20
11.88226317257413
 30
0.0
  0
SPLINE
  5
249
330
1F
100
AcDbEntity
  8
Default
 62
   178
420
        0
100
AcDbSpline
210
0.0
220
0.0
230
1.0
 70
     8
 71
     3
 72
     8
 73
     4
 74
     0
 42
0.000000001
 43
0.0000000001
 40
2.0
 40
2.0
 40
2.0
 40
2.0
 40
3.0
 40
3.0
 40
3.0
 40
3.0
 10
-6.606771049853795
 20
11.88226317257413
 30
0.0
 10
-6.491106571040022
 20
12.12435757753726
 30
0.0
 10
-6.230941593763603
 20
12.38631679603627
 30
0.0
 10
-5.752391827679794
 20
12.65122369654383
 30
0.0
  0
SPLINE
  5
24A
330
1F
100
AcDbEntity
  8
Default
 62
   178
420
        0
100
AcDbSpline
210
0.0
220
0.0
230
1.0
 70
     8
 71
     3
 72
     8
 73
     4
 74
     0
 42
0.000000001
 43
0.0000000001
 40
3.0
 40
3.0
 40
3.0
 40
3.0
 40
4.0
 40
4.0
 40
4.0
 40
4.0
 10
-5.752391827679794
 20
12.65122369654383
 30
0.0
 10
-5.413344316652817
 20
12.8389141444361
 30
0.0
 10
-5.075962886761111
 20
12.85929159832129
 30
0.0
 10
-4.864498742669447
 20
12.86480248207641
 30
0.0
  0
SPLINE
  5
24B
330
1F
100
AcDbEntity
  8
Default
 62
   178
420
        0
100
AcDbSpline
210
0.0
220
0.0
230
1.0
 70
     8
 71
     3
 72
     8
 73
     4
 74
     0
 42
0.000000001
 43
0.0000000001
 40
0.0
 40
0.0
 40
0.0
 40
0.0
 40
1.0
 40
1.0
 40
1.0
 40
1.0
 10
-1.006085521546678
 20
8.742341033031181
 30
0.0
 10
-1.604208649107773
 20
9.082862385062427
 30
0.0
 10
-1.961967532884682
 20
9.462664803859797
 30
0.0
 10
-2.178045440120165
 20
9.746283077117292
 30
0.0
  0
SPLINE
  5
24C
330
1F
100
AcDbEntity
  8
Default
 62
   178
420
        0
100
AcDbSpline
210
0.0
220
0.0
230
1.0
 70
     8
 71
     3
 72
     8
 73
     4
 74
     0
 42
0.000000001
 43
0.0000000001
 40
1.0
 40
1.0
 40
1.0
 40
1.0
 40
2.0
 40
2.0
 40
2.0
 40
2.0
 10
-2.178045440120165
 20
9.746283077117292
 30
0.0
 10
-2.714010925327049
 20
10.4498178765059
 30
0.0
 10
-2.651084322448864
 20
10.91978091673872
 30
0.0
 10
-3.374227615198701
 20
11.88226317257413
 30
0.0
  0
SPLINE
  5
24D
330
1F
100
AcDbEntity
  8
Default
 62
   178
420
        0
100
AcDbSpline
210
0.0
220
0.0
230
1.0
 70
     8
 71
     3
 72
     8
 73
     4
 74
     0
 42
0.000000001
 43
0.0000000001
 40
2.0
 40
2.0
 40
2.0
 40
2.0
 40
3.0
 40
3.0
 40
3.0
 40
3.0
 10
-3.374227615198701
 20
11.88226317257413
 30
0.0
 10
-3.635225633042749
 20
12.22976924936477
 30
0.0
 10
-3.875461716739618
 20
12.47724637799568
 30
0.0
 10
-4.228606837372702
 20
12.65122369654383
 30
0.0
  0
SPLINE
  5
24E
330
1F
100
AcDbEntity
  8
Default
 62
   178
420
        0
100
AcDbSpline
210
0.0
220
0.0
230
1.0
 70
     8
 71
     3
 72
     8
 73
     4
 74
     0
 42
0.000000001
 43
0.0000000001
 40
3.0
 40
3.0
 40
3.0
 40
3.0
 40
4.0
 40
4.0
 40
4.0
 40
4.0
 10
-4.228606837372702
 20
12.65122369654383
 30
0.0
 10
-4.576241074250675
 20
12.82250965325808
 30
0.0
 10
-4.905035778291385
 20
12.85929159832129
 30
0.0
 10
-5.116499922383049
 20
12.86480248207641
 30
0.0
  0
SPLINE
  5
24F
330
1F
100
AcDbEntity
  8
Default
 62
   178
420
        0
100
AcDbSpline
210
0.0
220
0.0
230
1.0
 70
     8
 71
     3
 72
     8
 73
     4
 74
     0
 42
0.000000001
 43
0.0000000001
 40
0.0
 40
0.0
 40
0.0
 40
0.0
 40
1.0
 40
1.0
 40
1.0
 40
1.0
 10
1.082776517803918
 20
8.742341033031181
 30
0.0
 10
1.680899645365014
 20
9.082862385062427
 30
0.0
 10
2.038658529141923
 20
9.462664803859797
 30
0.0
 10
2.254736436377406
 20
9.746283077117292
 30
0.0
  0
SPLINE
  5
250
330
1F
100
AcDbEntity
  8
Default
 62
   178
420
        0
100
AcDbSpline
210
0.0
220
0.0
230
1.0
 70
     8
 71
     3
 72
     8
 73
     4
 74
     0
 42
0.000000001
 43
0.0000000001
 40
1.0
 40
1.0
 40
1.0
 40
1.0
 40
2.0
 40
2.0
 40
2.0
 40
2.0
 10
2.254736436377406
 20
9.746283077117292
 30
0.0
 10
2.79070192158429
 20
10.4498178765059
 30
0.0
 10
2.931742097689067
 20
10.79617051251059
 30
0.0
 10
3.450918611455942
 20
11.88226317257413
 30
0.0
  0
SPLINE
  5
251
330
1F
100
AcDbEntity
  8
Default
 62
   178
420
        0
100
AcDbSpline
210
0.0
220
0.0
230
1.0
 70
     8
 71
     3
 72
     8
 73
     4
 74
     0
 42
0.000000001
 43
0.0000000001
 40
2.0
 40
2.0
 40
2.0
 40
2.0
 40
3.0
 40
3.0
 40
3.0
 40
3.0
 10
3.450918611455942
 20
11.88226317257413
 30
0.0
 10
3.566647170313385
 20
12.12435757753726
 30
0.0
 10
3.826748067546134
 20
12.38631679603627
 30
0.0
 10
4.305297833629942
 20
12.65122369654383
 30
0.0
  0
SPLINE
  5
252
330
1F
100
AcDbEntity
  8
Default
 62
   178
420
        0
100
AcDbSpline
210
0.0
220
0.0
230
1.0
 70
     8
 71
     3
 72
     8
 73
     4
 74
     0
 42
0.000000001
 43
0.0000000001
 40
3.0
 40
3.0
 40
3.0
 40
3.0
 40
4.0
 40
4.0
 40
4.0
 40
4.0
 10
4.305297833629942
 20
12.65122369654383
 30
0.0
 10
4.64434534465692
 20
12.8389141444361
 30
0.0
 10
4.981726774548625
 20
12.85929159832129
 30
0.0
 10
5.19319091864029
 20
12.86480248207641
 30
0.0
  0
SPLINE
  5
253
330
1F
100
AcDbEntity
  8
Default
 62
   178
420
        0
100
AcDbSpline
210
0.0
220
0.0
230
1.0
 70
     8
 71
     3
 72
     8
 73
     4
 74
     0
 42
0.000000001
 43
0.0000000001
 40
0.0
 40
0.0
 40
0.0
 40
0.0
 40
1.0
 40
1.0
 40
1.0
 40
1.0
 10
9.051604139763059
 20
8.742341033031181
 30
0.0
 10
8.453481012201964
 20
9.082862385062427
 30
0.0
 10
8.095722128425056
 20
9.462664803859797
 30
0.0
 10
7.879644221189572
 20
9.746283077117292
 30
0.0
  0
SPLINE
  5
254
330
1F
100
AcDbEntity
  8
Default
 62
   178
420
        0
100
AcDbSpline
210
0.0
220
0.0
230
1.0
 70
     8
 71
     3
 72
     8
 73
     4
 74
     0
 42
0.000000001
 43
0.0000000001
 40
1.0
 40
1.0
 40
1.0
 40
1.0
 40
2.0
 40
2.0
 40
2.0
 40
2.0
 10
7.879644221189572
 20
9.746283077117292
 30
0.0
 10
7.343678735982688
 20
10.4498178765059
 30
0.0
 10
7.406605338860873
 20
10.91978091673872
 30
0.0
 10
6.683526126154699
 20
11.88226317257413
 30
0.0
  0
SPLINE
  5
255
330
1F
100
AcDbEntity
  8
Default
 62
   178
420
        0
100
AcDbSpline
210
0.0
220
0.0
230
1.0
 70
     8
 71
     3
 72
     8
 73
     4
 74
     0
 42
0.000000001
 43
0.0000000001
 40
2.0
 40
2.0
 40
2.0
 40
2.0
 40
3.0
 40
3.0
 40
3.0
 40
3.0
 10
6.683526126154699
 20
11.88226317257413
 30
0.0
 10
6.422464028266988
 20
12.22976924936477
 30
0.0
 10
6.182292024613782
 20
12.47724637799568
 30
0.0
 10
5.829082823937036
 20
12.65122369654383
 30
0.0
  0
SPLINE
  5
256
330
1F
100
AcDbEntity
  8
Default
 62
   178
420
        0
100
AcDbSpline
210
0.0
220
0.0
230
1.0
 70
     8
 71
     3
 72
     8
 73
     4
 74
     0
 42
0.000000001
 43
0.0000000001
 40
3.0
 40
3.0
 40
3.0
 40
3.0
 40
4.0
 40
4.0
 40
4.0
 40
4.0
 10
5.829082823937036
 20
12.65122369654383
 30
0.0
 10
5.481448587059069
 20
12.82250965325808
 30
0.0
 10
5.152653883018353
 20
12.85929159832129
 30
0.0
 10
4.941189738926687
 20
12.86480248207641
 30
0.0
  0
POLYLINE
  5
257
330
1F
100
AcDbEntity
  8
Default
 62
   178
420
        0
100
AcDb2dPolyline
 66
     1
 10
0.0
 20
0.0
 30
0.0
  0
VERTEX
  5
258
330
257
100
AcDbEntity
  8
Default
 62
   178
420
        0
100
AcDbVertex
100
AcDb2dVertex
 10
-8.687488515654676
 20
-3.967224339266667
 30
0.0
  0
VERTEX
  5
259
330
257
100
AcDbEntity
  8
Default
 62
   178
420
        0
100
AcDbVertex
100
AcDb2dVertex
 10
-19.96166731788011
 20
-3.972735223021784
 30
0.0
  0
VERTEX
  5
25A
330
257
100
AcDbEntity
  8
Default
 62
   178
420
        0
100
AcDbVertex
100
AcDb2dVertex
 10
-19.96166731788011
 20
8.742347441035554
 30
0.0
  0
VERTEX
  5
25B
330
257
100
AcDbEntity
  8
Default
 62
   178
420
        0
100
AcDbVertex
100
AcDb2dVertex
 10
-8.974887511488353
 20
8.742347441035554
 30
0.0
  0
SEQEND
  5
25C
330
257
100
AcDbEntity
  8
Default
 62
   178
420
        0
  0
POLYLINE
  5
25D
330
1F
100
AcDbEntity
  8
Default
 62
   178
420
        0
100
AcDb2dPolyline
 66
     1
 10
0.0
 20
0.0
 30
0.0
  0
VERTEX
  5
25E
330
25D
100
AcDbEntity
  8
Default
 62
   178
420
        0
100
AcDbVertex
100
AcDb2dVertex
 10
-1.006085521546678
 20
8.742341033031181
 30
0.0
  0
VERTEX
  5
25F
330
25D
100
AcDbEntity
  8
Default
 62
   178
420
        0
100
AcDbVertex
100
AcDb2dVertex
 10
1.082795741817013
 20
8.742341033031181
 30
0.0
  0
SEQEND
  5
260
330
25D
100
AcDbEntity
  8
Default
 62
   178
420
        0
  0
POLYLINE
  5
261
330
1F
100
AcDbEntity
  8
Default
 62
   178
420
        0
100
AcDb2dPolyline
 66
     1
 10
0.0
 20
0.0
 30
0.0
  0
VERTEX
  5
262
330
261
100
AcDbEntity
  8
Default
 62
   178
420
        0
100
AcDbVertex
100
AcDb2dVertex
 10
9.051604139763059
 20
8.742341033031181
 30
0.0
  0
VERTEX
  5
263
330
261
100
AcDbEntity
  8
Default
 62
   178
420
        0
100
AcDbVertex
100
AcDb2dVertex
 10
20.0
 20
8.742341033031181
 30
0.0
  0
VERTEX
  5
264
330
261
100
AcDbEntity
  8
Default
 62
   178
420
        0
100
AcDbVertex
100
AcDb2dVertex
 10
20.0
 20
-3.972741631026149
 30
0.0
  0
VERTEX
  5
265
330
261
100
AcDbEntity
  8
Default
 62
   178
420
        0
100
AcDbVertex
100
AcDb2dVertex
 10
8.605927436078952
 20
-3.972741631026149
 30
0.0
  0
SEQEND
  5
266
330
261
100
AcDbEntity
  8
Default
 62
   178
420
        0
  0
SPLINE
  5
267
330
1F
100
AcDbEntity
  8
Default
 62
   178
420
        0
100
AcDbSpline
210
0.0
220
0.0
230
1.0
 70
     8
 71
     3
 72
     8
 73
     4
 74
     0
 42
0.000000001
 43
0.0000000001
 40
1.0
 40
1.0
 40
1.0
 40
1.0
 40
2.0
 40
2.0
 40
2.0
 40
2.0
 10
5.809743466759193
 20
11.64484020279411
 30
0.0
 10
5.809743466759193
 20
11.29374564355828
 30
0.0
 10
5.525163992846737
 20
11.00910208960216
 30
0.0
 10
5.17400535356724
 20
11.00910208960216
 30
0.0
  0
SPLINE
  5
268
330
1F
100
AcDbEntity
  8
Default
 62
   178
420
        0
100
AcDbSpline
210
0.0
220
0.0
230
1.0
 70
     8
 71
     3
 72
     8
 73
     4
 74
     0
 42
0.000000001
 43
0.0000000001
 40
2.0
 40
2.0
 40
2.0
 40
2.0
 40
3.0
 40
3.0
 40
3.0
 40
3.0
 10
5.17400535356724
 20
11.00910208960216
 30
0.0
 10
4.822910794331412
 20
11.00910208960216
 30
0.0
 10
4.538203160331631
 20
11.29374564355828
 30
0.0
 10
4.538203160331631
 20
11.64484020279411
 30
0.0
  0
SPLINE
  5
269
330
1F
100
AcDbEntity
  8
Default
 62
   178
420
        0
100
AcDbSpline
210
0.0
220
0.0
230
1.0
 70
     8
 71
     3
 72
     8
 73
     4
 74
     0
 42
0.000000001
 43
0.0000000001
 40
3.0
 40
3.0
 40
3.0
 40
3.0
 40
4.0
 40
4.0
 40
4.0
 40
4.0
 10
4.538203160331631
 20
11.64484020279411
 30
0.0
 10
4.538203160331631
 20
11.99593476202995
 30
0.0
 10
4.822910794331412
 20
12.28057831598607
 30
0.0
 10
5.17400535356724
 20
12.28057831598607
 30
0.0
  0
SPLINE
  5
26A
330
1F
100
AcDbEntity
  8
Default
 62
   178
420
        0
100
AcDbSpline
210
0.0
220
0.0
230
1.0
 70
     8
 71
     3
 72
     8
 73
     4
 74
     0
 42
0.000000001
 43
0.0000000001
 40
4.0
 40
4.0
 40
4.0
 40
4.0
 40
5.0
 40
5.0
 40
5.0
 40
5.0
 10
5.17400535356724
 20
12.28057831598607
 30
0.0
 10
5.525163992846737
 20
12.28057831598607
 30
0.0
 10
5.809743466759193
 20
11.99593476202995
 30
0.0
 10
5.809743466759193
 20
11.64484020279411
 30
0.0
  0
SPLINE
  5
26B
330
1F
100
AcDbEntity
  8
Default
 62
   178
420
        0
100
AcDbSpline
210
0.0
220
0.0
230
1.0
 70
     8
 71
     3
 72
     8
 73
     4
 74
     0
 42
0.000000001
 43
0.0000000001
 40
1.0
 40
1.0
 40
1.0
 40
1.0
 40
2.0
 40
2.0
 40
2.0
 40
2.0
 10
2.083213383501599
 20
-11.32960483599274
 30
0.0
 10
2.083213383501599
 20
-11.68076347527223
 30
0.0
 10
1.798569829545481
 20
-11.96534294918469
 30
0.0
 10
1.447475270309646
 20
-11.96534294918469
 30
0.0
  0
SPLINE
  5
26C
330
1F
100
AcDbEntity
  8
Default
 62
   178
420
        0
100
AcDbSpline
210
0.0
220
0.0
230
1.0
 70
     8
 71
     3
 72
     8
 73
     4
 74
     0
 42
0.000000001
 43
0.0000000001
 40
2.0
 40
2.0
 40
2.0
 40
2.0
 40
3.0
 40
3.0
 40
3.0
 40
3.0
 10
1.447475270309646
 20
-11.96534294918469
 30
0.0
 10
1.096380711073818
 20
-11.96534294918469
 30
0.0
 10
0.8116730770740367
 20
-11.68076347527223
 30
0.0
 10
0.8116730770740367
 20
-11.32960483599274
 30
0.0
  0
SPLINE
  5
26D
330
1F
100
AcDbEntity
  8
Default
 62
   178
420
        0
100
AcDbSpline
210
0.0
220
0.0
230
1.0
 70
     8
 71
     3
 72
     8
 73
     4
 74
     0
 42
0.000000001
 43
0.0000000001
 40
3.0
 40
3.0
 40
3.0
 40
3.0
 40
4.0
 40
4.0
 40
4.0
 40
4.0
 10
0.8116730770740367
 20
-11.32960483599274
 30
0.0
 10
0.8116730770740367
 20
-10.9785102767569
 30
0.0
 10
1.096380711073818
 20
-10.69380264275712
 30
0.0
 10
1.447475270309646
 20
-10.69380264275712
 30
0.0
  0
SPLINE
  5
26E
330
1F
100
AcDbEntity
  8
Default
 62
   178
420
        0
100
AcDbSpline
210
0.0
220
0.0
230
1.0
 70
     8
 71
     3
 72
     8
 73
     4
 74
     0
 42
0.000000001
 43
0.0000000001
 40
4.0
 40
4.0
 40
4.0
 40
4.0
 40
5.0
 40
5.0
 40
5.0
 40
5.0
 10
1.447475270309646
 20
-10.69380264275712
 30
0.0
 10
1.798569829545481
 20
-10.69380264275712
 30
0.0
 10
2.083213383501599
 20
-10.9785102767569
 30
0.0
 10
2.083213383501599
 20
-11.32960483599274
 30
0.0
  0
SPLINE
  5
26F
330
1F
100
AcDbEntity
  8
Default
 62
   178
420
        0
100
AcDbSpline
210
0.0
220
0.0
230
1.0
 70
     8
 71
     3
 72
     8
 73
     4
 74
     0
 42
0.000000001
 43
0.0000000001
 40
1.0
 40
1.0
 40
1.0
 40
1.0
 40
2.0
 40
2.0
 40
2.0
 40
2.0
 10
-1.025232638593525
 20
-11.32960483599274
 30
0.0
 10
-1.025232638593525
 20
-11.68076347527223
 30
0.0
 10
-1.309876192549643
 20
-11.96534294918469
 30
0.0
 10
-1.661034831829141
 20
-11.96534294918469
 30
0.0
  0
SPLINE
  5
270
330
1F
100
AcDbEntity
  8
Default
 62
   178
420
        0
100
AcDbSpline
210
0.0
220
0.0
230
1.0
 70
     8
 71
     3
 72
     8
 73
     4
 74
     0
 42
0.000000001
 43
0.0000000001
 40
2.0
 40
2.0
 40
2.0
 40
2.0
 40
3.0
 40
3.0
 40
3.0
 40
3.0
 10
-1.661034831829141
 20
-11.96534294918469
 30
0.0
 10
-2.012129391064969
 20
-11.96534294918469
 30
0.0
 10
-2.296772945021087
 20
-11.68076347527223
 30
0.0
 10
-2.296772945021087
 20
-11.32960483599274
 30
0.0
  0
SPLINE
  5
271
330
1F
100
AcDbEntity
  8
Default
 62
   178
420
        0
100
AcDbSpline
210
0.0
220
0.0
230
1.0
 70
     8
 71
     3
 72
     8
 73
     4
 74
     0
 42
0.000000001
 43
0.0000000001
 40
3.0
 40
3.0
 40
3.0
 40
3.0
 40
4.0
 40
4.0
 40
4.0
 40
4.0
 10
-2.296772945021087
 20
-11.32960483599274
 30
0.0
 10
-2.296772945021087
 20
-10.9785102767569
 30
0.0
 10
-2.012129391064969
 20
-10.69380264275712
 30
0.0
 10
-1.661034831829141
 20
-10.69380264275712
 30
0.0
  0
SPLINE
  5
272
330
1F
100
AcDbEntity
  8
Default
 62
   178
420
        0
100
AcDbSpline
210
0.0
220
0.0
230
1.0
 70
     8
 71
     3
 72
     8
 73
     4
 74
     0
 42
0.000000001
 43
0.0000000001
 40
4.0
 40
4.0
 40
4.0
 40
4.0
 40
5.0
 40
5.0
 40
5.0
 40
5.0
 10
-1.661034831829141
 20
-10.69380264275712
 30
0.0
 10
-1.309876192549643
 20
-10.69380264275712
 30
0.0
 10
-1.025232638593525
 20
-10.9785102767569
 30
0.0
 10
-1.025232638593525
 20
-11.32960483599274
 30
0.0
  0
SPLINE
  5
273
330
1F
100
AcDbEntity
  8
Default
 62
   178
420
        0
100
AcDbSpline
210
0.0
220
0.0
230
1.0
 70
     8
 71
     3
 72
     8
 73
     4
 74
     0
 42
0.000000001
 43
0.0000000001
 40
1.0
 40
1.0
 40
1.0
 40
1.0
 40
2.0
 40
2.0
 40
2.0
 40
2.0
 10
-4.499883294220477
 20
11.64484020279411
 30
0.0
 10
-4.499883294220477
 20
11.29374564355828
 30
0.0
 10
-4.784462768132932
 20
11.00910208960216
 30
0.0
 10
-5.13562140741243
 20
11.00910208960216
 30
0.0
  0
SPLINE
  5
274
330
1F
100
AcDbEntity
  8
Default
 62
   178
420
        0
100
AcDbSpline
210
0.0
220
0.0
230
1.0
 70
     8
 71
     3
 72
     8
 73
     4
 74
     0
 42
0.000000001
 43
0.0000000001
 40
2.0
 40
2.0
 40
2.0
 40
2.0
 40
3.0
 40
3.0
 40
3.0
 40
3.0
 10
-5.13562140741243
 20
11.00910208960216
 30
0.0
 10
-5.486715966648259
 20
11.00910208960216
 30
0.0
 10
-5.771359520604377
 20
11.29374564355828
 30
0.0
 10
-5.771359520604377
 20
11.64484020279411
 30
0.0
  0
SPLINE
  5
275
330
1F
100
AcDbEntity
  8
Default
 62
   178
420
        0
100
AcDbSpline
210
0.0
220
0.0
230
1.0
 70
     8
 71
     3
 72
     8
 73
     4
 74
     0
 42
0.000000001
 43
0.0000000001
 40
3.0
 40
3.0
 40
3.0
 40
3.0
 40
4.0
 40
4.0
 40
4.0
 40
4.0
 10
-5.771359520604377
 20
11.64484020279411
 30
0.0
 10
-5.771359520604377
 20
11.99593476202995
 30
0.0
 10
-5.486715966648259
 20
12.28057831598607
 30
0.0
 10
-5.13562140741243
 20
12.28057831598607
 30
0.0
  0
SPLINE
  5
276
330
1F
100
AcDbEntity
  8
Default
 62
   178
420
        0
100
AcDbSpline
210
0.0
220
0.0
230
1.0
 70
     8
 71
     3
 72
     8
 73
     4
 74
     0
 42
0.000000001
 43
0.0000000001
 40
4.0
 40
4.0
 40
4.0
 40
4.0
 40
5.0
 40
5.0
 40
5.0
 40
5.0
 10
-5.13562140741243
 20
12.28057831598607
 30
0.0
 10
-4.784462768132932
 20
12.28057831598607
 30
0.0
 10
-4.499883294220477
 20
11.99593476202995
 30
0.0
 10
-4.499883294220477
 20
11.64484020279411
 30
0.0
  0
POLYLINE
  5
277
330
1F
100
AcDbEntity
  8
Default
 62
   178
420
        0
100
AcDb2dPolyline
 66
     1
 10
0.0
 20
0.0
 30
0.0
  0
VERTEX
  5
278
330
277
100
AcDbEntity
  8
Default
 62
   178
420
        0
100
AcDbVertex
100
AcDb2dVertex
 10
-10.96971849476619
 20
-1.735995666907447
 30
0.0
  0
VERTEX
  5
279
330
277
100
AcDbEntity
  8
Default
 62
   178
420
        0
100
AcDbVertex
100
AcDb2dVertex
 10
-12.42286164493793
 20
-1.735995666907447
 30
0.0
  0
SEQEND
  5
27A
330
277
100
AcDbEntity
  8
Default
 62
   178
420
        0
  0
POLYLINE
  5
27B
330
1F
100
AcDbEntity
  8
Default
 62
   178
420
        0
100
AcDb2dPolyline
 66
     1
 10
0.0
 20
0.0
 30
0.0
  0
VERTEX
  5
27C
330
27B
100
AcDbEntity
  8
Default
 62
   178
420
        0
100
AcDbVertex
100
AcDb2dVertex
 10
-11.69627725384333
 20
-2.462592874010782
 30
0.0
  0
VERTEX
  5
27D
330
27B
100
AcDbEntity
  8
Default
 62
   178
420
        0
100
AcDbVertex
100
AcDb2dVertex
 10
-11.69627725384333
 20
-1.009385643795376
 30
0.0
  0
SEQEND
  5
27E
330
27B
100
AcDbEntity
  8
Default
 62
   178
420
        0
  0
POLYLINE
  5
27F
330
1F
100
AcDbEntity
  8
Default
 62
   178
420
        0
100
AcDb2dPolyline
 66
     1
 10
0.0
 20
0.0
 30
0.0
  0
VERTEX
  5
280
330
27F
100
AcDbEntity
  8
Default
 62
   178
420
        0
100
AcDbVertex
100
AcDb2dVertex
 10
-11.69627725384333
 20
-1.009398459804109
 30
0.0
  0
VERTEX
  5
281
330
27F
100
AcDbEntity
  8
Default
 62
   178
420
        0
100
AcDbVertex
100
AcDb2dVertex
 10
-11.69627725384333
 20
-2.462605690019515
 30
0.0
  0
SEQEND
  5
282
330
27F
100
AcDbEntity
  8
Default
 62
   178
420
        0
  0
POLYLINE
  5
283
330
1F
100
AcDbEntity
  8
Default
 62
   178
420
        0
100
AcDb2dPolyline
 66
     1
 10
0.0
 20
0.0
 30
0.0
  0
VERTEX
  5
284
330
283
100
AcDbEntity
  8
Default
 62
   178
420
        0
100
AcDbVertex
100
AcDb2dVertex
 10
-10.96971849476619
 20
5.802265325663592
 30
0.0
  0
VERTEX
  5
285
330
283
100
AcDbEntity
  8
Default
 62
   178
420
        0
100
AcDbVertex
100
AcDb2dVertex
 10
-12.42286164493793
 20
5.802265325663592
 30
0.0
  0
SEQEND
  5
286
330
283
100
AcDbEntity
  8
Default
 62
   178
420
        0
  0
POLYLINE
  5
287
330
1F
100
AcDbEntity
  8
Default
 62
   178
420
        0
100
AcDb2dPolyline
 66
     1
 10
0.0
 20
0.0
 30
0.0
  0
VERTEX
  5
288
330
287
100
AcDbEntity
  8
Default
 62
   178
420
        0
100
AcDbVertex
100
AcDb2dVertex
 10
-11.69627725384333
 20
5.075668118560258
 30
0.0
  0
VERTEX
  5
289
330
287
100
AcDbEntity
  8
Default
 62
   178
420
        0
100
AcDbVertex
100
AcDb2dVertex
 10
-11.69627725384333
 20
6.528811268732002
 30
0.0
  0
SEQEND
  5
28A
330
287
100
AcDbEntity
  8
Default
 62
   178
420
        0
  0
POLYLINE
  5
28B
330
1F
100
AcDbEntity
  8
Default
 62
   178
420
        0
100
AcDb2dPolyline
 66
     1
 10
0.0
 20
0.0
 30
0.0
  0
VERTEX
  5
28C
330
28B
100
AcDbEntity
  8
Default
 62
   178
420
        0
100
AcDbVertex
100
AcDb2dVertex
 10
-11.69627725384333
 20
6.528824084740731
 30
0.0
  0
VERTEX
  5
28D
330
28B
100
AcDbEntity
  8
Default
 62
   178
420
        0
100
AcDbVertex
100
AcDb2dVertex
 10
-11.69627725384333
 20
5.075680934568988
 30
0.0
  0
SEQEND
  5
28E
330
28B
100
AcDbEntity
  8
Default
 62
   178
420
        0
  0
POLYLINE
  5
28F
330
1F
100
AcDbEntity
  8
Default
 62
   178
420
        0
100
AcDb2dPolyline
 66
     1
 10
0.0
 20
0.0
 30
0.0
  0
VERTEX
  5
290
330
28F
100
AcDbEntity
  8
Default
 62
   178
420
        0
100
AcDbVertex
100
AcDb2dVertex
 10
-13.97784720850509
 20
5.802265325663592
 30
0.0
  0
VERTEX
  5
291
330
28F
100
AcDbEntity
  8
Default
 62
   178
420
        0
100
AcDbVertex
100
AcDb2dVertex
 10
-15.43099035867684
 20
5.802265325663592
 30
0.0
  0
SEQEND
  5
292
330
28F
100
AcDbEntity
  8
Default
 62
   178
420
        0
  0
POLYLINE
  5
293
330
1F
100
AcDbEntity
  8
Default
 62
   178
420
        0
100
AcDb2dPolyline
 66
     1
 10
0.0
 20
0.0
 30
0.0
  0
VERTEX
  5
294
330
293
100
AcDbEntity
  8
Default
 62
   178
420
        0
100
AcDbVertex
100
AcDb2dVertex
 10
-14.7044123755866
 20
5.075668118560258
 30
0.0
  0
VERTEX
  5
295
330
293
100
AcDbEntity
  8
Default
 62
   178
420
        0
100
AcDbVertex
100
AcDb2dVertex
 10
-14.7044123755866
 20
6.528811268732002
 30
0.0
  0
SEQEND
  5
296
330
293
100
AcDbEntity
  8
Default
 62
   178
420
        0
  0
POLYLINE
  5
297
330
1F
100
AcDbEntity
  8
Default
 62
   178
420
        0
100
AcDb2dPolyline
 66
     1
 10
0.0
 20
0.0
 30
0.0
  0
VERTEX
  5
298
330
297
100
AcDbEntity
  8
Default
 62
   178
420
        0
100
AcDbVertex
100
AcDb2dVertex
 10
-14.7044123755866
 20
6.528824084740731
 30
0.0
  0
VERTEX
  5
299
330
297
100
AcDbEntity
  8
Default
 62
   178
420
        0
100
AcDbVertex
100
AcDb2dVertex
 10
-14.7044123755866
 20
5.075680934568988
 30
0.0
  0
SEQEND
  5
29A
330
297
100
AcDbEntity
  8
Default
 62
   178
420
        0
  0
POLYLINE
  5
29B
330
1F
100
AcDbEntity
  8
Default
 62
   178
420
        0
100
AcDb2dPolyline
 66
     1
 10
0.0
 20
0.0
 30
0.0
  0
VERTEX
  5
29C
330
29B
100
AcDbEntity
  8
Default
 62
   178
420
        0
100
AcDbVertex
100
AcDb2dVertex
 10
-13.97784720850509
 20
-1.735995666907447
 30
0.0
  0
VERTEX
  5
29D
330
29B
100
AcDbEntity
  8
Default
 62
   178
420
        0
100
AcDbVertex
100
AcDb2dVertex
 10
-15.43099035867684
 20
-1.735995666907447
 30
0.0
  0
SEQEND
  5
29E
330
29B
100
AcDbEntity
  8
Default
 62
   178
420
        0
  0
POLYLINE
  5
29F
330
1F
100
AcDbEntity
  8
Default
 62
   178
420
        0
100
AcDb2dPolyline
 66
     1
 10
0.0
 20
0.0
 30
0.0
  0
VERTEX
  5
2A0
330
29F
100
AcDbEntity
  8
Default
 62
   178
420
        0
100
AcDbVertex
100
AcDb2dVertex
 10
-14.7044123755866
 20
-2.462592874010782
 30
0.0
  0
VERTEX
  5
2A1
330
29F
100
AcDbEntity
  8
Default
 62
   178
420
        0
100
AcDbVertex
100
AcDb2dVertex
 10
-14.7044123755866
 20
-1.009385643795376
 30
0.0
  0
SEQEND
  5
2A2
330
29F
100
AcDbEntity
  8
Default
 62
   178
420
        0
  0
POLYLINE
  5
2A3
330
1F
100
AcDbEntity
  8
Default
 62
   178
420
        0
100
AcDb2dPolyline
 66
     1
 10
0.0
 20
0.0
 30
0.0
  0
VERTEX
  5
2A4
330
2A3
100
AcDbEntity
  8
Default
 62
   178
420
        0
100
AcDbVertex
100
AcDb2dVertex
 10
-14.7044123755866
 20
-1.009398459804109
 30
0.0
  0
VERTEX
  5
2A5
330
2A3
100
AcDbEntity
  8
Default
 62
   178
420
        0
100
AcDbVertex
100
AcDb2dVertex
 10
-14.7044123755866
 20
-2.462605690019515
 30
0.0
  0
SEQEND
  5
2A6
330
2A3
100
AcDbEntity
  8
Default
 62
   178
420
        0
  0
POLYLINE
  5
2A7
330
1F
100
AcDbEntity
  8
Default
 62
   178
420
        0
100
AcDb2dPolyline
 66
     1
 10
0.0
 20
0.0
 30
0.0
  0
VERTEX
  5
2A8
330
2A7
100
AcDbEntity
  8
Default
 62
   178
420
        0
100
AcDbVertex
100
AcDb2dVertex
 10
-16.94840579264371
 20
-1.735995666907447
 30
0.0
  0
VERTEX
  5
2A9
330
2A7
100
AcDbEntity
  8
Default
 62
   178
420
        0
100
AcDbVertex
100
AcDb2dVertex
 10
-18.40154894281546
 20
-1.735995666907447
 30
0.0
  0
SEQEND
  5
2AA
330
2A7
100
AcDbEntity
  8
Default
 62
   178
420
        0
  0
POLYLINE
  5
2AB
330
1F
100
AcDbEntity
  8
Default
 62
   178
420
        0
100
AcDb2dPolyline
 66
     1
 10
0.0
 20
0.0
 30
0.0
  0
VERTEX
  5
2AC
330
2AB
100
AcDbEntity
  8
Default
 62
   178
420
        0
100
AcDbVertex
100
AcDb2dVertex
 10
-17.67496455172085
 20
-2.462592874010782
 30
0.0
  0
VERTEX
  5
2AD
330
2AB
100
AcDbEntity
  8
Default
 62
   178
420
        0
100
AcDbVertex
100
AcDb2dVertex
 10
-17.67496455172085
 20
-1.009385643795376
 30
0.0
  0
SEQEND
  5
2AE
330
2AB
100
AcDbEntity
  8
Default
 62
   178
420
        0
  0
POLYLINE
  5
2AF
330
1F
100
AcDbEntity
  8
Default
 62
   178
420
        0
100
AcDb2dPolyline
 66
     1
 10
0.0
 20
0.0
 30
0.0
  0
VERTEX
  5
2B0
330
2AF
100
AcDbEntity
  8
Default
 62
   178
420
        0
100
AcDbVertex
100
AcDb2dVertex
 10
-17.67496455172085
 20
-1.009398459804109
 30
0.0
  0
VERTEX
  5
2B1
330
2AF
100
AcDbEntity
  8
Default
 62
   178
420
        0
100
AcDbVertex
100
AcDb2dVertex
 10
-17.67496455172085
 20
-2.462605690019515
 30
0.0
  0
SEQEND
  5
2B2
330
2AF
100
AcDbEntity
  8
Default
 62
   178
420
        0
  0
POLYLINE
  5
2B3
330
1F
100
AcDbEntity
  8
Default
 62
   178
420
        0
100
AcDb2dPolyline
 66
     1
 10
0.0
 20
0.0
 30
0.0
  0
VERTEX
  5
2B4
330
2B3
100
AcDbEntity
  8
Default
 62
   178
420
        0
100
AcDbVertex
100
AcDb2dVertex
 10
-16.94840579264371
 20
5.802265325663592
 30
0.0
  0
VERTEX
  5
2B5
330
2B3
100
AcDbEntity
  8
Default
 62
   178
420
        0
100
AcDbVertex
100
AcDb2dVertex
 10
-18.40154894281546
 20
5.802265325663592
 30
0.0
  0
SEQEND
  5
2B6
330
2B3
100
AcDbEntity
  8
Default
 62
   178
420
        0
  0
POLYLINE
  5
2B7
330
1F
100
AcDbEntity
  8
Default
 62
   178
420
        0
100
AcDb2dPolyline
 66
     1
 10
0.0
 20
0.0
 30
0.0
  0
VERTEX
  5
2B8
330
2B7
100
AcDbEntity
  8
Default
 62
   178
420
        0
100
AcDbVertex
100
AcDb2dVertex
 10
-17.67496455172085
 20
5.075668118560258
 30
0.0
  0
VERTEX
  5
2B9
330
2B7
100
AcDbEntity
  8
Default
 62
   178
420
        0
100
AcDbVertex
100
AcDb2dVertex
 10
-17.67496455172085
 20
6.528811268732002
 30
0.0
  0
SEQEND
  5
2BA
330
2B7
100
AcDbEntity
  8
Default
 62
   178
420
        0
  0
POLYLINE
  5
2BB
330
1F
100
AcDbEntity
  8
Default
 62
   178
420
        0
100
AcDb2dPolyline
 66
     1
 10
0.0
 20
0.0
 30
0.0
  0
VERTEX
  5
2BC
330
2BB
100
AcDbEntity
  8
Default
 62
   178
420
        0
100
AcDbVertex
100
AcDb2dVertex
 10
-17.67496455172085
 20
6.528824084740731
 30
0.0
  0
VERTEX
  5
2BD
330
2BB
100
AcDbEntity
  8
Default
 62
   178
420
        0
100
AcDbVertex
100
AcDb2dVertex
 10
-17.67496455172085
 20
5.075680934568988
 30
0.0
  0
SEQEND
  5
2BE
330
2BB
100
AcDbEntity
  8
Default
 62
   178
420
        0
  0
POLYLINE
  5
2BF
330
1F
100
AcDbEntity
  8
Default
 62
   178
420
        0
100
AcDb2dPolyline
 66
     1
 10
0.0
 20
0.0
 30
0.0
  0
VERTEX
  5
2C0
330
2BF
100
AcDbEntity
  8
Default
 62
   178
420
        0
100
AcDbVertex
100
AcDb2dVertex
 10
-5.132359733189936
 20
11.6393677670652
 30
0.0
  0
VERTEX
  5
2C1
330
2BF
100
AcDbEntity
  8
Default
 62
   178
420
        0
100
AcDbVertex
100
AcDb2dVertex
 10
-4.643877560338173
 20
11.635971524751
 30
0.0
  0
SEQEND
  5
2C2
330
2BF
100
AcDbEntity
  8
Default
 62
   178
420
        0
  0
POLYLINE
  5
2C3
330
1F
100
AcDbEntity
  8
Default
 62
   178
420
        0
100
AcDb2dPolyline
 66
     1
 10
0.0
 20
0.0
 30
0.0
  0
VERTEX
  5
2C4
330
2C3
100
AcDbEntity
  8
Default
 62
   178
420
        0
100
AcDbVertex
100
AcDb2dVertex
 10
-5.624225332347132
 20
11.64280886540997
 30
0.0
  0
VERTEX
  5
2C5
330
2C3
100
AcDbEntity
  8
Default
 62
   178
420
        0
100
AcDbVertex
100
AcDb2dVertex
 10
-5.135807239539053
 20
11.63941262309577
 30
0.0
  0
SEQEND
  5
2C6
330
2C3
100
AcDbEntity
  8
Default
 62
   178
420
        0
  0
POLYLINE
  5
2C7
330
1F
100
AcDbEntity
  8
Default
 62
   178
420
        0
100
AcDb2dPolyline
 66
     1
 10
0.0
 20
0.0
 30
0.0
  0
VERTEX
  5
2C8
330
2C7
100
AcDbEntity
  8
Default
 62
   178
420
        0
100
AcDbVertex
100
AcDb2dVertex
 10
-5.071220963529968
 20
12.14481192747485
 30
0.0
  0
VERTEX
  5
2C9
330
2C7
100
AcDbEntity
  8
Default
 62
   178
420
        0
100
AcDbVertex
100
AcDb2dVertex
 10
-5.199124730683594
 20
11.16297749845287
 30
0.0
  0
SEQEND
  5
2CA
330
2C7
100
AcDbEntity
  8
Default
 62
   178
420
        0
  0
POLYLINE
  5
2CB
330
1F
100
AcDbEntity
  8
Default
 62
   178
420
        0
100
AcDb2dPolyline
 66
     1
 10
0.0
 20
0.0
 30
0.0
  0
VERTEX
  5
2CC
330
2CB
100
AcDbEntity
  8
Default
 62
   178
420
        0
100
AcDbVertex
100
AcDb2dVertex
 10
5.177267027789742
 20
11.6393677670652
 30
0.0
  0
VERTEX
  5
2CD
330
2CB
100
AcDbEntity
  8
Default
 62
   178
420
        0
100
AcDbVertex
100
AcDb2dVertex
 10
5.665749200641504
 20
11.635971524751
 30
0.0
  0
SEQEND
  5
2CE
330
2CB
100
AcDbEntity
  8
Default
 62
   178
420
        0
  0
POLYLINE
  5
2CF
330
1F
100
AcDbEntity
  8
Default
 62
   178
420
        0
100
AcDb2dPolyline
 66
     1
 10
0.0
 20
0.0
 30
0.0
  0
VERTEX
  5
2D0
330
2CF
100
AcDbEntity
  8
Default
 62
   178
420
        0
100
AcDbVertex
100
AcDb2dVertex
 10
4.685401428632538
 20
11.64280886540997
 30
0.0
  0
VERTEX
  5
2D1
330
2CF
100
AcDbEntity
  8
Default
 62
   178
420
        0
100
AcDbVertex
100
AcDb2dVertex
 10
5.173819521440631
 20
11.63941262309577
 30
0.0
  0
SEQEND
  5
2D2
330
2CF
100
AcDbEntity
  8
Default
 62
   178
420
        0
  0
POLYLINE
  5
2D3
330
1F
100
AcDbEntity
  8
Default
 62
   178
420
        0
100
AcDb2dPolyline
 66
     1
 10
0.0
 20
0.0
 30
0.0
  0
VERTEX
  5
2D4
330
2D3
100
AcDbEntity
  8
Default
 62
   178
420
        0
100
AcDbVertex
100
AcDb2dVertex
 10
5.238405797449709
 20
12.14481192747485
 30
0.0
  0
VERTEX
  5
2D5
330
2D3
100
AcDbEntity
  8
Default
 62
   178
420
        0
100
AcDbVertex
100
AcDb2dVertex
 10
5.110502030296083
 20
11.16297749845286
 30
0.0
  0
SEQEND
  5
2D6
330
2D3
100
AcDbEntity
  8
Default
 62
   178
420
        0
  0
POLYLINE
  5
2D7
330
1F
100
AcDbEntity
  8
Default
 62
   178
420
        0
100
AcDb2dPolyline
 66
     1
 10
0.0
 20
0.0
 30
0.0
  0
VERTEX
  5
2D8
330
2D7
100
AcDbEntity
  8
Default
 62
   178
420
        0
100
AcDbVertex
100
AcDb2dVertex
 10
1.450736944532148
 20
-11.33505163970419
 30
0.0
  0
VERTEX
  5
2D9
330
2D7
100
AcDbEntity
  8
Default
 62
   178
420
        0
100
AcDbVertex
100
AcDb2dVertex
 10
1.939155037340233
 20
-11.33851196206205
 30
0.0
  0
SEQEND
  5
2DA
330
2D7
100
AcDbEntity
  8
Default
 62
   178
420
        0
  0
POLYLINE
  5
2DB
330
1F
100
AcDbEntity
  8
Default
 62
   178
420
        0
100
AcDb2dPolyline
 66
     1
 10
0.0
 20
0.0
 30
0.0
  0
VERTEX
  5
2DC
330
2DB
100
AcDbEntity
  8
Default
 62
   178
420
        0
100
AcDbVertex
100
AcDb2dVertex
 10
0.9588713453749295
 20
-11.33161054135942
 30
0.0
  0
VERTEX
  5
2DD
330
2DB
100
AcDbEntity
  8
Default
 62
   178
420
        0
100
AcDbVertex
100
AcDb2dVertex
 10
1.447289438183023
 20
-11.33507086371728
 30
0.0
  0
SEQEND
  5
2DE
330
2DB
100
AcDbEntity
  8
Default
 62
   178
420
        0
  0
POLYLINE
  5
2DF
330
1F
100
AcDbEntity
  8
Default
 62
   178
420
        0
100
AcDb2dPolyline
 66
     1
 10
0.0
 20
0.0
 30
0.0
  0
VERTEX
  5
2E0
330
2DF
100
AcDbEntity
  8
Default
 62
   178
420
        0
100
AcDbVertex
100
AcDb2dVertex
 10
1.511875714192115
 20
-10.82960747929453
 30
0.0
  0
VERTEX
  5
2E1
330
2DF
100
AcDbEntity
  8
Default
 62
   178
420
        0
100
AcDbVertex
100
AcDb2dVertex
 10
1.383971947038489
 20
-11.81150598836018
 30
0.0
  0
SEQEND
  5
2E2
330
2DF
100
AcDbEntity
  8
Default
 62
   178
420
        0
  0
POLYLINE
  5
2E3
330
1F
100
AcDbEntity
  8
Default
 62
   178
420
        0
100
AcDb2dPolyline
 66
     1
 10
0.0
 20
0.0
 30
0.0
  0
VERTEX
  5
2E4
330
2E3
100
AcDbEntity
  8
Default
 62
   178
420
        0
100
AcDbVertex
100
AcDb2dVertex
 10
-1.646072141633561
 20
-11.33335992655146
 30
0.0
  0
VERTEX
  5
2E5
330
2E3
100
AcDbEntity
  8
Default
 62
   178
420
        0
100
AcDbVertex
100
AcDb2dVertex
 10
-1.642611819275699
 20
-10.84487775369971
 30
0.0
  0
SEQEND
  5
2E6
330
2E3
100
AcDbEntity
  8
Default
 62
   178
420
        0
  0
POLYLINE
  5
2E7
330
1F
100
AcDbEntity
  8
Default
 62
   178
420
        0
100
AcDb2dPolyline
 66
     1
 10
0.0
 20
0.0
 30
0.0
  0
VERTEX
  5
2E8
330
2E7
100
AcDbEntity
  8
Default
 62
   178
420
        0
100
AcDbVertex
100
AcDb2dVertex
 10
-1.649513239978321
 20
-11.82522552570867
 30
0.0
  0
VERTEX
  5
2E9
330
2E7
100
AcDbEntity
  8
Default
 62
   178
420
        0
100
AcDbVertex
100
AcDb2dVertex
 10
-1.646052917620459
 20
-11.33680743290058
 30
0.0
  0
SEQEND
  5
2EA
330
2E7
100
AcDbEntity
  8
Default
 62
   178
420
        0
  0
POLYLINE
  5
2EB
330
1F
100
AcDbEntity
  8
Default
 62
   178
420
        0
100
AcDb2dPolyline
 66
     1
 10
0.0
 20
0.0
 30
0.0
  0
VERTEX
  5
2EC
330
2EB
100
AcDbEntity
  8
Default
 62
   178
420
        0
100
AcDbVertex
100
AcDb2dVertex
 10
-2.151516302043219
 20
-11.2722211568915
 30
0.0
  0
VERTEX
  5
2ED
330
2EB
100
AcDbEntity
  8
Default
 62
   178
420
        0
100
AcDbVertex
100
AcDb2dVertex
 10
-1.169681873021238
 20
-11.40012492404512
 30
0.0
  0
SEQEND
  5
2EE
330
2EB
100
AcDbEntity
  8
Default
 62
   178
420
        0
  0
POLYLINE
  5
2EF
330
1F
100
AcDbEntity
  8
Default
 62
   178
420
        0
100
AcDb2dPolyline
 66
     1
 10
0.0
 20
0.0
 30
0.0
  0
VERTEX
  5
2F0
330
2EF
100
AcDbEntity
  8
Default
 62
   178
420
        0
100
AcDbVertex
100
AcDb2dVertex
 10
17.55798002400758
 20
-1.735995666907447
 30
0.0
  0
VERTEX
  5
2F1
330
2EF
100
AcDbEntity
  8
Default
 62
   178
420
        0
100
AcDbVertex
100
AcDb2dVertex
 10
18.08074502021965
 20
-2.454268876338816
 30
0.0
  0
SEQEND
  5
2F2
330
2EF
100
AcDbEntity
  8
Default
 62
   178
420
        0
  0
POLYLINE
  5
2F3
330
1F
100
AcDbEntity
  8
Default
 62
   178
420
        0
100
AcDb2dPolyline
 66
     1
 10
0.0
 20
0.0
 30
0.0
  0
VERTEX
  5
2F4
330
2F3
100
AcDbEntity
  8
Default
 62
   178
420
        0
100
AcDbVertex
100
AcDb2dVertex
 10
17.03144712122807
 20
-1.012621686000411
 30
0.0
  0
VERTEX
  5
2F5
330
2F3
100
AcDbEntity
  8
Default
 62
   178
420
        0
100
AcDbVertex
100
AcDb2dVertex
 10
17.55421211744014
 20
-1.730894895431776
 30
0.0
  0
SEQEND
  5
2F6
330
2F3
100
AcDbEntity
  8
Default
 62
   178
420
        0
  0
POLYLINE
  5
2F7
330
1F
100
AcDbEntity
  8
Default
 62
   178
420
        0
100
AcDb2dPolyline
 66
     1
 10
0.0
 20
0.0
 30
0.0
  0
VERTEX
  5
2F8
330
2F7
100
AcDbEntity
  8
Default
 62
   178
420
        0
100
AcDbVertex
100
AcDb2dVertex
 10
18.16861798409628
 20
-1.087095512746894
 30
0.0
  0
VERTEX
  5
2F9
330
2F7
100
AcDbEntity
  8
Default
 62
   178
420
        0
100
AcDbVertex
100
AcDb2dVertex
 10
16.97243580901775
 20
-2.33422132253842
 30
0.0
  0
SEQEND
  5
2FA
330
2F7
100
AcDbEntity
  8
Default
 62
   178
420
        0
  0
POLYLINE
  5
2FB
330
1F
100
AcDbEntity
  8
Default
 62
   178
420
        0
100
AcDb2dPolyline
 66
     1
 10
0.0
 20
0.0
 30
0.0
  0
VERTEX
  5
2FC
330
2FB
100
AcDbEntity
  8
Default
 62
   178
420
        0
100
AcDbVertex
100
AcDb2dVertex
 10
17.55798002400757
 20
5.802265325663585
 30
0.0
  0
VERTEX
  5
2FD
330
2FB
100
AcDbEntity
  8
Default
 62
   178
420
        0
100
AcDbVertex
100
AcDb2dVertex
 10
18.08074502021965
 20
5.083992116232224
 30
0.0
  0
SEQEND
  5
2FE
330
2FB
100
AcDbEntity
  8
Default
 62
   178
420
        0
  0
POLYLINE
  5
2FF
330
1F
100
AcDbEntity
  8
Default
 62
   178
420
        0
100
AcDb2dPolyline
 66
     1
 10
0.0
 20
0.0
 30
0.0
  0
VERTEX
  5
300
330
2FF
100
AcDbEntity
  8
Default
 62
   178
420
        0
100
AcDbVertex
100
AcDb2dVertex
 10
17.03144712122806
 20
6.52563289856625
 30
0.0
  0
VERTEX
  5
301
330
2FF
100
AcDbEntity
  8
Default
 62
   178
420
        0
100
AcDbVertex
100
AcDb2dVertex
 10
17.55421211744013
 20
5.807359689134888
 30
0.0
  0
SEQEND
  5
302
330
2FF
100
AcDbEntity
  8
Default
 62
   178
420
        0
  0
POLYLINE
  5
303
330
1F
100
AcDbEntity
  8
Default
 62
   178
420
        0
100
AcDb2dPolyline
 66
     1
 10
0.0
 20
0.0
 30
0.0
  0
VERTEX
  5
304
330
303
100
AcDbEntity
  8
Default
 62
   178
420
        0
100
AcDbVertex
100
AcDb2dVertex
 10
18.16861798409629
 20
6.451133439802319
 30
0.0
  0
VERTEX
  5
305
330
303
100
AcDbEntity
  8
Default
 62
   178
420
        0
100
AcDbVertex
100
AcDb2dVertex
 10
16.97243580901775
 20
5.204007630010793
 30
0.0
  0
SEQEND
  5
306
330
303
100
AcDbEntity
  8
Default
 62
   178
420
        0
  0
SPLINE
  5
307
330
1F
100
AcDbEntity
  8
Default
 62
   178
420
        0
100
AcDbSpline
210
0.0
220
0.0
230
1.0
 70
     8
 71
     3
 72
     8
 73
     4
 74
     0
 42
0.000000001
 43
0.0000000001
 40
1.0
 40
1.0
 40
1.0
 40
1.0
 40
2.0
 40
2.0
 40
2.0
 40
2.0
 10
-10.78805157097835
 20
5.802265325663592
 30
0.0
 10
-10.78805157097835
 20
5.300646743860693
 30
0.0
 10
-11.19470352807099
 20
4.894058866811712
 30
0.0
 10
-11.69625802983023
 20
4.894058866811712
 30
0.0
  0
SPLINE
  5
308
330
1F
100
AcDbEntity
  8
Default
 62
   178
420
        0
100
AcDbSpline
210
0.0
220
0.0
230
1.0
 70
     8
 71
     3
 72
     8
 73
     4
 74
     0
 42
0.000000001
 43
0.0000000001
 40
2.0
 40
2.0
 40
2.0
 40
2.0
 40
3.0
 40
3.0
 40
3.0
 40
3.0
 10
-11.69625802983023
 20
4.894058866811712
 30
0.0
 10
-12.19787661163313
 20
4.894058866811712
 30
0.0
 10
-12.60452856872577
 20
5.300646743860693
 30
0.0
 10
-12.60452856872577
 20
5.802265325663592
 30
0.0
  0
SPLINE
  5
309
330
1F
100
AcDbEntity
  8
Default
 62
   178
420
        0
100
AcDbSpline
210
0.0
220
0.0
230
1.0
 70
     8
 71
     3
 72
     8
 73
     4
 74
     0
 42
0.000000001
 43
0.0000000001
 40
3.0
 40
3.0
 40
3.0
 40
3.0
 40
4.0
 40
4.0
 40
4.0
 40
4.0
 10
-12.60452856872577
 20
5.802265325663592
 30
0.0
 10
-12.60452856872577
 20
6.303883907466493
 30
0.0
 10
-12.19787661163313
 20
6.710471784515474
 30
0.0
 10
-11.69625802983023
 20
6.710471784515474
 30
0.0
  0
SPLINE
  5
30A
330
1F
100
AcDbEntity
  8
Default
 62
   178
420
        0
100
AcDbSpline
210
0.0
220
0.0
230
1.0
 70
     8
 71
     3
 72
     8
 73
     4
 74
     0
 42
0.000000001
 43
0.0000000001
 40
4.0
 40
4.0
 40
4.0
 40
4.0
 40
5.0
 40
5.0
 40
5.0
 40
5.0
 10
-11.69625802983023
 20
6.710471784515474
 30
0.0
 10
-11.19470352807099
 20
6.710471784515474
 30
0.0
 10
-10.78805157097835
 20
6.303883907466493
 30
0.0
 10
-10.78805157097835
 20
5.802265325663592
 30
0.0
  0
SPLINE
  5
30B
330
1F
100
AcDbEntity
  8
Default
 62
   178
420
        0
100
AcDbSpline
210
0.0
220
0.0
230
1.0
 70
     8
 71
     3
 72
     8
 73
     4
 74
     0
 42
0.000000001
 43
0.0000000001
 40
1.0
 40
1.0
 40
1.0
 40
1.0
 40
2.0
 40
2.0
 40
2.0
 40
2.0
 10
-10.78805157097835
 20
-1.735995666907447
 30
0.0
 10
-10.78805157097835
 20
-2.237550168666685
 30
0.0
 10
-11.19470352807099
 20
-2.644202125759329
 30
0.0
 10
-11.69625802983023
 20
-2.644202125759329
 30
0.0
  0
SPLINE
  5
30C
330
1F
100
AcDbEntity
  8
Default
 62
   178
420
        0
100
AcDbSpline
210
0.0
220
0.0
230
1.0
 70
     8
 71
     3
 72
     8
 73
     4
 74
     0
 42
0.000000001
 43
0.0000000001
 40
2.0
 40
2.0
 40
2.0
 40
2.0
 40
3.0
 40
3.0
 40
3.0
 40
3.0
 10
-11.69625802983023
 20
-2.644202125759329
 30
0.0
 10
-12.19787661163313
 20
-2.644202125759329
 30
0.0
 10
-12.60452856872577
 20
-2.237550168666685
 30
0.0
 10
-12.60452856872577
 20
-1.735995666907447
 30
0.0
  0
SPLINE
  5
30D
330
1F
100
AcDbEntity
  8
Default
 62
   178
420
        0
100
AcDbSpline
210
0.0
220
0.0
230
1.0
 70
     8
 71
     3
 72
     8
 73
     4
 74
     0
 42
0.000000001
 43
0.0000000001
 40
3.0
 40
3.0
 40
3.0
 40
3.0
 40
4.0
 40
4.0
 40
4.0
 40
4.0
 10
-12.60452856872577
 20
-1.735995666907447
 30
0.0
 10
-12.60452856872577
 20
-1.234377085104547
 30
0.0
 10
-12.19787661163313
 20
-0.827789208055566
 30
0.0
 10
-11.69625802983023
 20
-0.827789208055566
 30
0.0
  0
SPLINE
  5
30E
330
1F
100
AcDbEntity
  8
Default
 62
   178
420
        0
100
AcDbSpline
210
0.0
220
0.0
230
1.0
 70
     8
 71
     3
 72
     8
 73
     4
 74
     0
 42
0.000000001
 43
0.0000000001
 40
4.0
 40
4.0
 40
4.0
 40
4.0
 40
5.0
 40
5.0
 40
5.0
 40
5.0
 10
-11.69625802983023
 20
-0.827789208055566
 30
0.0
 10
-11.19470352807099
 20
-0.827789208055566
 30
0.0
 10
-10.78805157097835
 20
-1.234377085104547
 30
0.0
 10
-10.78805157097835
 20
-1.735995666907447
 30
0.0
  0
SPLINE
  5
30F
330
1F
100
AcDbEntity
  8
Default
 62
   178
420
        0
100
AcDbSpline
210
0.0
220
0.0
230
1.0
 70
     8
 71
     3
 72
     8
 73
     4
 74
     0
 42
0.000000001
 43
0.0000000001
 40
1.0
 40
1.0
 40
1.0
 40
1.0
 40
2.0
 40
2.0
 40
2.0
 40
2.0
 10
-13.79621873274345
 20
-1.735995666907447
 30
0.0
 10
-13.79621873274345
 20
-2.237550168666685
 30
0.0
 10
-14.20280660979243
 20
-2.644202125759329
 30
0.0
 10
-14.70442519159533
 20
-2.644202125759329
 30
0.0
  0
SPLINE
  5
310
330
1F
100
AcDbEntity
  8
Default
 62
   178
420
        0
100
AcDbSpline
210
0.0
220
0.0
230
1.0
 70
     8
 71
     3
 72
     8
 73
     4
 74
     0
 42
0.000000001
 43
0.0000000001
 40
2.0
 40
2.0
 40
2.0
 40
2.0
 40
3.0
 40
3.0
 40
3.0
 40
3.0
 10
-14.70442519159533
 20
-2.644202125759329
 30
0.0
 10
-15.20597969335457
 20
-2.644202125759329
 30
0.0
 10
-15.61263165044721
 20
-2.237550168666685
 30
0.0
 10
-15.61263165044721
 20
-1.735995666907447
 30
0.0
  0
SPLINE
  5
311
330
1F
100
AcDbEntity
  8
Default
 62
   178
420
        0
100
AcDbSpline
210
0.0
220
0.0
230
1.0
 70
     8
 71
     3
 72
     8
 73
     4
 74
     0
 42
0.000000001
 43
0.0000000001
 40
3.0
 40
3.0
 40
3.0
 40
3.0
 40
4.0
 40
4.0
 40
4.0
 40
4.0
 10
-15.61263165044721
 20
-1.735995666907447
 30
0.0
 10
-15.61263165044721
 20
-1.234377085104547
 30
0.0
 10
-15.20597969335457
 20
-0.827789208055566
 30
0.0
 10
-14.70442519159533
 20
-0.827789208055566
 30
0.0
  0
SPLINE
  5
312
330
1F
100
AcDbEntity
  8
Default
 62
   178
420
        0
100
AcDbSpline
210
0.0
220
0.0
230
1.0
 70
     8
 71
     3
 72
     8
 73
     4
 74
     0
 42
0.000000001
 43
0.0000000001
 40
4.0
 40
4.0
 40
4.0
 40
4.0
 40
5.0
 40
5.0
 40
5.0
 40
5.0
 10
-14.70442519159533
 20
-0.827789208055566
 30
0.0
 10
-14.20280660979243
 20
-0.827789208055566
 30
0.0
 10
-13.79621873274345
 20
-1.234377085104547
 30
0.0
 10
-13.79621873274345
 20
-1.735995666907447
 30
0.0
  0
SPLINE
  5
313
330
1F
100
AcDbEntity
  8
Default
 62
   178
420
        0
100
AcDbSpline
210
0.0
220
0.0
230
1.0
 70
     8
 71
     3
 72
     8
 73
     4
 74
     0
 42
0.000000001
 43
0.0000000001
 40
1.0
 40
1.0
 40
1.0
 40
1.0
 40
2.0
 40
2.0
 40
2.0
 40
2.0
 10
-16.76673886885587
 20
-1.735995666907447
 30
0.0
 10
-16.76673886885587
 20
-2.237550168666685
 30
0.0
 10
-17.17339082594852
 20
-2.644202125759329
 30
0.0
 10
-17.67494532770775
 20
-2.644202125759329
 30
0.0
  0
SPLINE
  5
314
330
1F
100
AcDbEntity
  8
Default
 62
   178
420
        0
100
AcDbSpline
210
0.0
220
0.0
230
1.0
 70
     8
 71
     3
 72
     8
 73
     4
 74
     0
 42
0.000000001
 43
0.0000000001
 40
2.0
 40
2.0
 40
2.0
 40
2.0
 40
3.0
 40
3.0
 40
3.0
 40
3.0
 10
-17.67494532770775
 20
-2.644202125759329
 30
0.0
 10
-18.17656390951065
 20
-2.644202125759329
 30
0.0
 10
-18.5832158666033
 20
-2.237550168666685
 30
0.0
 10
-18.5832158666033
 20
-1.735995666907447
 30
0.0
  0
SPLINE
  5
315
330
1F
100
AcDbEntity
  8
Default
 62
   178
420
        0
100
AcDbSpline
210
0.0
220
0.0
230
1.0
 70
     8
 71
     3
 72
     8
 73
     4
 74
     0
 42
0.000000001
 43
0.0000000001
 40
3.0
 40
3.0
 40
3.0
 40
3.0
 40
4.0
 40
4.0
 40
4.0
 40
4.0
 10
-18.5832158666033
 20
-1.735995666907447
 30
0.0
 10
-18.5832158666033
 20
-1.234377085104547
 30
0.0
 10
-18.17656390951065
 20
-0.827789208055566
 30
0.0
 10
-17.67494532770775
 20
-0.827789208055566
 30
0.0
  0
SPLINE
  5
316
330
1F
100
AcDbEntity
  8
Default
 62
   178
420
        0
100
AcDbSpline
210
0.0
220
0.0
230
1.0
 70
     8
 71
     3
 72
     8
 73
     4
 74
     0
 42
0.000000001
 43
0.0000000001
 40
4.0
 40
4.0
 40
4.0
 40
4.0
 40
5.0
 40
5.0
 40
5.0
 40
5.0
 10
-17.67494532770775
 20
-0.827789208055566
 30
0.0
 10
-17.17339082594852
 20
-0.827789208055566
 30
0.0
 10
-16.76673886885587
 20
-1.234377085104547
 30
0.0
 10
-16.76673886885587
 20
-1.735995666907447
 30
0.0
  0
SPLINE
  5
317
330
1F
100
AcDbEntity
  8
Default
 62
   178
420
        0
100
AcDbSpline
210
0.0
220
0.0
230
1.0
 70
     8
 71
     3
 72
     8
 73
     4
 74
     0
 42
0.000000001
 43
0.0000000001
 40
1.0
 40
1.0
 40
1.0
 40
1.0
 40
2.0
 40
2.0
 40
2.0
 40
2.0
 10
-13.79621873274345
 20
5.802265325663592
 30
0.0
 10
-13.79621873274345
 20
5.300646743860693
 30
0.0
 10
-14.20280660979243
 20
4.894058866811712
 30
0.0
 10
-14.70442519159533
 20
4.894058866811712
 30
0.0
  0
SPLINE
  5
318
330
1F
100
AcDbEntity
  8
Default
 62
   178
420
        0
100
AcDbSpline
210
0.0
220
0.0
230
1.0
 70
     8
 71
     3
 72
     8
 73
     4
 74
     0
 42
0.000000001
 43
0.0000000001
 40
2.0
 40
2.0
 40
2.0
 40
2.0
 40
3.0
 40
3.0
 40
3.0
 40
3.0
 10
-14.70442519159533
 20
4.894058866811712
 30
0.0
 10
-15.20597969335457
 20
4.894058866811712
 30
0.0
 10
-15.61263165044721
 20
5.300646743860693
 30
0.0
 10
-15.61263165044721
 20
5.802265325663592
 30
0.0
  0
SPLINE
  5
319
330
1F
100
AcDbEntity
  8
Default
 62
   178
420
        0
100
AcDbSpline
210
0.0
220
0.0
230
1.0
 70
     8
 71
     3
 72
     8
 73
     4
 74
     0
 42
0.000000001
 43
0.0000000001
 40
3.0
 40
3.0
 40
3.0
 40
3.0
 40
4.0
 40
4.0
 40
4.0
 40
4.0
 10
-15.61263165044721
 20
5.802265325663592
 30
0.0
 10
-15.61263165044721
 20
6.303883907466493
 30
0.0
 10
-15.20597969335457
 20
6.710471784515474
 30
0.0
 10
-14.70442519159533
 20
6.710471784515474
 30
0.0
  0
SPLINE
  5
31A
330
1F
100
AcDbEntity
  8
Default
 62
   178
420
        0
100
AcDbSpline
210
0.0
220
0.0
230
1.0
 70
     8
 71
     3
 72
     8
 73
     4
 74
     0
 42
0.000000001
 43
0.0000000001
 40
4.0
 40
4.0
 40
4.0
 40
4.0
 40
5.0
 40
5.0
 40
5.0
 40
5.0
 10
-14.70442519159533
 20
6.710471784515474
 30
0.0
 10
-14.20280660979243
 20
6.710471784515474
 30
0.0
 10
-13.79621873274345
 20
6.303883907466493
 30
0.0
 10
-13.79621873274345
 20
5.802265325663592
 30
0.0
  0
SPLINE
  5
31B
330
1F
100
AcDbEntity
  8
Default
 62
   178
420
        0
100
AcDbSpline
210
0.0
220
0.0
230
1.0
 70
     8
 71
     3
 72
     8
 73
     4
 74
     0
 42
0.000000001
 43
0.0000000001
 40
1.0
 40
1.0
 40
1.0
 40
1.0
 40
2.0
 40
2.0
 40
2.0
 40
2.0
 10
-16.76673886885587
 20
5.802265325663592
 30
0.0
 10
-16.76673886885587
 20
5.300646743860693
 30
0.0
 10
-17.17339082594852
 20
4.894058866811712
 30
0.0
 10
-17.67494532770775
 20
4.894058866811712
 30
0.0
  0
SPLINE
  5
31C
330
1F
100
AcDbEntity
  8
Default
 62
   178
420
        0
100
AcDbSpline
210
0.0
220
0.0
230
1.0
 70
     8
 71
     3
 72
     8
 73
     4
 74
     0
 42
0.000000001
 43
0.0000000001
 40
2.0
 40
2.0
 40
2.0
 40
2.0
 40
3.0
 40
3.0
 40
3.0
 40
3.0
 10
-17.67494532770775
 20
4.894058866811712
 30
0.0
 10
-18.17656390951065
 20
4.894058866811712
 30
0.0
 10
-18.5832158666033
 20
5.300646743860693
 30
0.0
 10
-18.5832158666033
 20
5.802265325663592
 30
0.0
  0
SPLINE
  5
31D
330
1F
100
AcDbEntity
  8
Default
 62
   178
420
        0
100
AcDbSpline
210
0.0
220
0.0
230
1.0
 70
     8
 71
     3
 72
     8
 73
     4
 74
     0
 42
0.000000001
 43
0.0000000001
 40
3.0
 40
3.0
 40
3.0
 40
3.0
 40
4.0
 40
4.0
 40
4.0
 40
4.0
 10
-18.5832158666033
 20
5.802265325663592
 30
0.0
 10
-18.5832158666033
 20
6.303883907466493
 30
0.0
 10
-18.17656390951065
 20
6.710471784515474
 30
0.0
 10
-17.67494532770775
 20
6.710471784515474
 30
0.0
  0
SPLINE
  5
31E
330
1F
100
AcDbEntity
  8
Default
 62
   178
420
        0
100
AcDbSpline
210
0.0
220
0.0
230
1.0
 70
     8
 71
     3
 72
     8
 73
     4
 74
     0
 42
0.000000001
 43
0.0000000001
 40
4.0
 40
4.0
 40
4.0
 40
4.0
 40
5.0
 40
5.0
 40
5.0
 40
5.0
 10
-17.67494532770775
 20
6.710471784515474
 30
0.0
 10
-17.17339082594852
 20
6.710471784515474
 30
0.0
 10
-16.76673886885587
 20
6.303883907466493
 30
0.0
 10
-16.76673886885587
 20
5.802265325663592
 30
0.0
  0
SPLINE
  5
31F
330
1F
100
AcDbEntity
  8
Default
 62
   178
420
        0
100
AcDbSpline
210
0.0
220
0.0
230
1.0
 70
     8
 71
     3
 72
     8
 73
     4
 74
     0
 42
0.000000001
 43
0.0000000001
 40
1.0
 40
1.0
 40
1.0
 40
1.0
 40
2.0
 40
2.0
 40
2.0
 40
2.0
 10
18.82944343438276
 20
-1.735995666907447
 30
0.0
 10
18.82944343438276
 20
-2.438248865422777
 30
0.0
 10
18.26015632647052
 20
-3.007535973335013
 30
0.0
 10
17.55796720799886
 20
-3.007535973335013
 30
0.0
  0
SPLINE
  5
320
330
1F
100
AcDbEntity
  8
Default
 62
   178
420
        0
100
AcDbSpline
210
0.0
220
0.0
230
1.0
 70
     8
 71
     3
 72
     8
 73
     4
 74
     0
 42
0.000000001
 43
0.0000000001
 40
2.0
 40
2.0
 40
2.0
 40
2.0
 40
3.0
 40
3.0
 40
3.0
 40
3.0
 10
17.55796720799886
 20
-3.007535973335013
 30
0.0
 10
16.85571400948352
 20
-3.007535973335013
 30
0.0
 10
16.28642690157129
 20
-2.438248865422777
 30
0.0
 10
16.28642690157129
 20
-1.735995666907447
 30
0.0
  0
SPLINE
  5
321
330
1F
100
AcDbEntity
  8
Default
 62
   178
420
        0
100
AcDbSpline
210
0.0
220
0.0
230
1.0
 70
     8
 71
     3
 72
     8
 73
     4
 74
     0
 42
0.000000001
 43
0.0000000001
 40
3.0
 40
3.0
 40
3.0
 40
3.0
 40
4.0
 40
4.0
 40
4.0
 40
4.0
 10
16.28642690157129
 20
-1.735995666907447
 30
0.0
 10
16.28642690157129
 20
-1.033742468392117
 30
0.0
 10
16.85571400948352
 20
-0.4644553604798813
 30
0.0
 10
17.55796720799886
 20
-0.4644553604798813
 30
0.0
  0
SPLINE
  5
322
330
1F
100
AcDbEntity
  8
Default
 62
   178
420
        0
100
AcDbSpline
210
0.0
220
0.0
230
1.0
 70
     8
 71
     3
 72
     8
 73
     4
 74
     0
 42
0.000000001
 43
0.0000000001
 40
4.0
 40
4.0
 40
4.0
 40
4.0
 40
5.0
 40
5.0
 40
5.0
 40
5.0
 10
17.55796720799886
 20
-0.4644553604798813
 30
0.0
 10
18.26015632647052
 20
-0.4644553604798813
 30
0.0
 10
18.82944343438276
 20
-1.033742468392117
 30
0.0
 10
18.82944343438276
 20
-1.735995666907447
 30
0.0
  0
SPLINE
  5
323
330
1F
100
AcDbEntity
  8
Default
 62
   178
420
        0
100
AcDbSpline
210
0.0
220
0.0
230
1.0
 70
     8
 71
     3
 72
     8
 73
     4
 74
     0
 42
0.000000001
 43
0.0000000001
 40
1.0
 40
1.0
 40
1.0
 40
1.0
 40
2.0
 40
2.0
 40
2.0
 40
2.0
 10
18.82944343438276
 20
5.802265325663592
 30
0.0
 10
18.82944343438276
 20
5.100012127148267
 30
0.0
 10
18.26015632647052
 20
4.530725019236026
 30
0.0
 10
17.55796720799886
 20
4.530725019236026
 30
0.0
  0
SPLINE
  5
324
330
1F
100
AcDbEntity
  8
Default
 62
   178
420
        0
100
AcDbSpline
210
0.0
220
0.0
230
1.0
 70
     8
 71
     3
 72
     8
 73
     4
 74
     0
 42
0.000000001
 43
0.0000000001
 40
2.0
 40
2.0
 40
2.0
 40
2.0
 40
3.0
 40
3.0
 40
3.0
 40
3.0
 10
17.55796720799886
 20
4.530725019236026
 30
0.0
 10
16.85571400948352
 20
4.530725019236026
 30
0.0
 10
16.28642690157129
 20
5.100012127148267
 30
0.0
 10
16.28642690157129
 20
5.802265325663592
 30
0.0
  0
SPLINE
  5
325
330
1F
100
AcDbEntity
  8
Default
 62
   178
420
        0
100
AcDbSpline
210
0.0
220
0.0
230
1.0
 70
     8
 71
     3
 72
     8
 73
     4
 74
     0
 42
0.000000001
 43
0.0000000001
 40
3.0
 40
3.0
 40
3.0
 40
3.0
 40
4.0
 40
4.0
 40
4.0
 40
4.0
 10
16.28642690157129
 20
5.802265325663592
 30
0.0
 10
16.28642690157129
 20
6.504454444135257
 30
0.0
 10
16.85571400948352
 20
7.073741552047492
 30
0.0
 10
17.55796720799886
 20
7.073741552047492
 30
0.0
  0
SPLINE
  5
326
330
1F
100
AcDbEntity
  8
Default
 62
   178
420
        0
100
AcDbSpline
210
0.0
220
0.0
230
1.0
 70
     8
 71
     3
 72
     8
 73
     4
 74
     0
 42
0.000000001
 43
0.0000000001
 40
4.0
 40
4.0
 40
4.0
 40
4.0
 40
5.0
 40
5.0
 40
5.0
 40
5.0
 10
17.55796720799886
 20
7.073741552047492
 30
0.0
 10
18.26015632647052
 20
7.073741552047492
 30
0.0
 10
18.82944343438276
 20
6.504454444135257
 30
0.0
 10
18.82944343438276
 20
5.802265325663592
 30
0.0
  0
SPLINE
  5
327
330
1F
100
AcDbEntity
  8
Default
 62
   178
420
        0
100
AcDbSpline
210
0.0
220
0.0
230
1.0
 70
     8
 71
     3
 72
     8
 73
     4
 74
     0
 42
0.000000001
 43
0.0000000001
 40
0.0
 40
0.0
 40
0.0
 40
0.0
 40
1.0
 40
1.0
 40
1.0
 40
1.0
 10
8.58677391102774
 20
-3.956144899717135
 30
0.0
 10
7.589880671744685
 20
-4.884921052585204
 30
0.0
 10
7.034370773220241
 20
-5.768456694626391
 30
0.0
 10
6.715252155772814
 20
-6.385291194937421
 30
0.0
  0
SPLINE
  5
328
330
1F
100
AcDbEntity
  8
Default
 62
   178
420
        0
100
AcDbSpline
210
0.0
220
0.0
230
1.0
 70
     8
 71
     3
 72
     8
 73
     4
 74
     0
 42
0.000000001
 43
0.0000000001
 40
1.0
 40
1.0
 40
1.0
 40
1.0
 40
2.0
 40
2.0
 40
2.0
 40
2.0
 10
6.715252155772814
 20
-6.385291194937421
 30
0.0
 10
5.956288118614722
 20
-7.852275634540617
 30
0.0
 10
6.095918533758886
 20
-8.657697703355216
 30
0.0
 10
5.134653798753097
 20
-10.05919233833366
 30
0.0
  0
SPLINE
  5
329
330
1F
100
AcDbEntity
  8
Default
 62
   178
420
        0
100
AcDbSpline
210
0.0
220
0.0
230
1.0
 70
     8
 71
     3
 72
     8
 73
     4
 74
     0
 42
0.000000001
 43
0.0000000001
 40
2.0
 40
2.0
 40
2.0
 40
2.0
 40
3.0
 40
3.0
 40
3.0
 40
3.0
 10
5.134653798753097
 20
-10.05919233833366
 30
0.0
 10
4.822135425803073
 20
-10.51486552882937
 30
0.0
 10
4.366398155263699
 20
-11.12349778355139
 30
0.0
 10
3.592183067713539
 20
-11.68515936626759
 30
0.0
  0
SPLINE
  5
32A
330
1F
100
AcDbEntity
  8
Default
 62
   178
420
        0
100
AcDbSpline
210
0.0
220
0.0
230
1.0
 70
     8
 71
     3
 72
     8
 73
     4
 74
     0
 42
0.000000001
 43
0.0000000001
 40
3.0
 40
3.0
 40
3.0
 40
3.0
 40
4.0
 40
4.0
 40
4.0
 40
4.0
 10
3.592183067713539
 20
-11.68515936626759
 30
0.0
 10
2.482573031625258
 20
-12.49019695482021
 30
0.0
 10
1.063648624770166
 20
-12.82341318187374
 30
0.0
 10
0.5553657184261992
 20
-12.80989229266061
 30
0.0
  0
SPLINE
  5
32B
330
1F
100
AcDbEntity
  8
Default
 62
   178
420
        0
100
AcDbSpline
210
0.0
220
0.0
230
1.0
 70
     8
 71
     3
 72
     8
 73
     4
 74
     0
 42
0.000000001
 43
0.0000000001
 40
4.0
 40
4.0
 40
4.0
 40
4.0
 40
5.0
 40
5.0
 40
5.0
 40
5.0
 10
0.5553657184261992
 20
-12.80989229266061
 30
0.0
 10
-0.0173176318002364
 20
-12.79476940235587
 30
0.0
 10
0.1308995091949227
 20
-12.81546725645939
 30
0.0
 10
-0.0599949408805583
 20
-12.80989229266061
 30
0.0
  0
SPLINE
  5
32C
330
1F
100
AcDbEntity
  8
Default
 62
   178
420
        0
100
AcDbSpline
210
0.0
220
0.0
230
1.0
 70
     8
 71
     3
 72
     8
 73
     4
 74
     0
 42
0.000000001
 43
0.0000000001
 40
0.0
 40
0.0
 40
0.0
 40
0.0
 40
1.0
 40
1.0
 40
1.0
 40
1.0
 10
-8.706667672723354
 20
-3.967224339266663
 30
0.0
 10
-7.709838513483962
 20
-4.89593641209107
 30
0.0
 10
-7.154328614959518
 20
-5.779536134175919
 30
0.0
 10
-6.835145917468429
 20
-6.39637063448695
 30
0.0
  0
SPLINE
  5
32D
330
1F
100
AcDbEntity
  8
Default
 62
   178
420
        0
100
AcDbSpline
210
0.0
220
0.0
230
1.0
 70
     8
 71
     3
 72
     8
 73
     4
 74
     0
 42
0.000000001
 43
0.0000000001
 40
1.0
 40
1.0
 40
1.0
 40
1.0
 40
2.0
 40
2.0
 40
2.0
 40
2.0
 10
-6.835145917468429
 20
-6.39637063448695
 30
0.0
 10
-6.076245960354001
 20
-7.863290994046483
 30
0.0
 10
-6.215812295454501
 20
-8.668713062861082
 30
0.0
 10
-5.254547560448712
 20
-10.07027177788319
 30
0.0
  0
SPLINE
  5
32E
330
1F
100
AcDbEntity
  8
Default
 62
   178
420
        0
100
AcDbSpline
210
0.0
220
0.0
230
1.0
 70
     8
 71
     3
 72
     8
 73
     4
 74
     0
 42
0.000000001
 43
0.0000000001
 40
2.0
 40
2.0
 40
2.0
 40
2.0
 40
3.0
 40
3.0
 40
3.0
 40
3.0
 10
-5.254547560448712
 20
-10.07027177788319
 30
0.0
 10
-4.955421916624498
 20
-10.50640055506134
 30
0.0
 10
-4.502888648268328
 20
-11.1537371561565
 30
0.0
 10
-3.712076829409154
 20
-11.69623880581712
 30
0.0
  0
SPLINE
  5
32F
330
1F
100
AcDbEntity
  8
Default
 62
   178
420
        0
100
AcDbSpline
210
0.0
220
0.0
230
1.0
 70
     8
 71
     3
 72
     8
 73
     4
 74
     0
 42
0.000000001
 43
0.0000000001
 40
3.0
 40
3.0
 40
3.0
 40
3.0
 40
4.0
 40
4.0
 40
4.0
 40
4.0
 10
-3.712076829409154
 20
-11.69623880581712
 30
0.0
 10
-2.284501616659403
 20
-12.67544595304887
 30
0.0
 10
-0.7273565556207611
 20
-12.86480248207641
 30
0.0
 10
-0.0599629008587197
 20
-12.80988588465624
 30
0.0
  0
SPLINE
  5
330
330
1F
100
AcDbEntity
  8
Default
 62
   178
420
        0
100
AcDbSpline
210
0.0
220
0.0
230
1.0
 70
     8
 71
     3
 72
     8
 73
     4
 74
     0
 42
0.000000001
 43
0.0000000001
 40
0.0
 40
0.0
 40
0.0
 40
0.0
 40
1.0
 40
1.0
 40
1.0
 40
1.0
 10
-8.994092300574497
 20
8.742341033031181
 30
0.0
 10
-8.395969173013402
 20
9.082862385062427
 30
0.0
 10
-8.038210289236494
 20
9.462664803859797
 30
0.0
 10
-7.822132382001009
 20
9.746283077117292
 30
0.0
  0
SPLINE
  5
331
330
1F
100
AcDbEntity
  8
Default
 62
   178
420
        0
100
AcDbSpline
210
0.0
220
0.0
230
1.0
 70
     8
 71
     3
 72
     8
 73
     4
 74
     0
 42
0.000000001
 43
0.0000000001
 40
1.0
 40
1.0
 40
1.0
 40
1.0
 40
2.0
 40
2.0
 40
2.0
 40
2.0
 10
-7.822132382001009
 20
9.746283077117292
 30
0.0
 10
-7.286166896794126
 20
10.4498178765059
 30
0.0
 10
-7.145126720689349
 20
10.79617051251059
 30
0.0
 10
-6.625950206922473
 20
11.88226317257413
 30
0.0
  0
SPLINE
  5
332
330
1F
100
AcDbEntity
  8
Default
 62
   178
420
        0
100
AcDbSpline
210
0.0
220
0.0
230
1.0
 70
     8
 71
     3
 72
     8
 73
     4
 74
     0
 42
0.000000001
 43
0.0000000001
 40
2.0
 40
2.0
 40
2.0
 40
2.0
 40
3.0
 40
3.0
 40
3.0
 40
3.0
 10
-6.625950206922473
 20
11.88226317257413
 30
0.0
 10
-6.510285728108701
 20
12.12435757753726
 30
0.0
 10
-6.250120750832282
 20
12.38631679603627
 30
0.0
 10
-5.771570984748474
 20
12.65122369654383
 30
0.0
  0
SPLINE
  5
333
330
1F
100
AcDbEntity
  8
Default
 62
   178
420
        0
100
AcDbSpline
210
0.0
220
0.0
230
1.0
 70
     8
 71
     3
 72
     8
 73
     4
 74
     0
 42
0.000000001
 43
0.0000000001
 40
3.0
 40
3.0
 40
3.0
 40
3.0
 40
4.0
 40
4.0
 40
4.0
 40
4.0
 10
-5.771570984748474
 20
12.65122369654383
 30
0.0
 10
-5.432459393677833
 20
12.8389141444361
 30
0.0
 10
-5.095206123873453
 20
12.85929159832129
 30
0.0
 10
-4.883677899738125
 20
12.86480248207641
 30
0.0
  0
SPLINE
  5
334
330
1F
100
AcDbEntity
  8
Default
 62
   178
420
        0
100
AcDbSpline
210
0.0
220
0.0
230
1.0
 70
     8
 71
     3
 72
     8
 73
     4
 74
     0
 42
0.000000001
 43
0.0000000001
 40
0.0
 40
0.0
 40
0.0
 40
0.0
 40
1.0
 40
1.0
 40
1.0
 40
1.0
 10
-1.025232638593525
 20
8.742341033031181
 30
0.0
 10
-1.62341984619829
 20
9.082862385062427
 30
0.0
 10
-1.981178729975192
 20
9.462664803859797
 30
0.0
 10
-2.197192557167013
 20
9.746283077117292
 30
0.0
  0
SPLINE
  5
335
330
1F
100
AcDbEntity
  8
Default
 62
   178
420
        0
100
AcDbSpline
210
0.0
220
0.0
230
1.0
 70
     8
 71
     3
 72
     8
 73
     4
 74
     0
 42
0.000000001
 43
0.0000000001
 40
1.0
 40
1.0
 40
1.0
 40
1.0
 40
2.0
 40
2.0
 40
2.0
 40
2.0
 10
-2.197192557167013
 20
9.746283077117292
 30
0.0
 10
-2.733158042373896
 20
10.4498178765059
 30
0.0
 10
-2.670295519539374
 20
10.91978091673872
 30
0.0
 10
-3.393374732245549
 20
11.88226317257413
 30
0.0
  0
SPLINE
  5
336
330
1F
100
AcDbEntity
  8
Default
 62
   178
420
        0
100
AcDbSpline
210
0.0
220
0.0
230
1.0
 70
     8
 71
     3
 72
     8
 73
     4
 74
     0
 42
0.000000001
 43
0.0000000001
 40
2.0
 40
2.0
 40
2.0
 40
2.0
 40
3.0
 40
3.0
 40
3.0
 40
3.0
 10
-3.393374732245549
 20
11.88226317257413
 30
0.0
 10
-3.654436830133259
 20
12.22976924936477
 30
0.0
 10
-3.894608833786466
 20
12.47724637799568
 30
0.0
 10
-4.247753954419549
 20
12.65122369654383
 30
0.0
  0
SPLINE
  5
337
330
1F
100
AcDbEntity
  8
Default
 62
   178
420
        0
100
AcDbSpline
210
0.0
220
0.0
230
1.0
 70
     8
 71
     3
 72
     8
 73
     4
 74
     0
 42
0.000000001
 43
0.0000000001
 40
3.0
 40
3.0
 40
3.0
 40
3.0
 40
4.0
 40
4.0
 40
4.0
 40
4.0
 10
-4.247753954419549
 20
12.65122369654383
 30
0.0
 10
-4.595452271341185
 20
12.82250965325808
 30
0.0
 10
-4.924182895338232
 20
12.85929159832129
 30
0.0
 10
-5.135647039429897
 20
12.86480248207641
 30
0.0
  0
SPLINE
  5
338
330
1F
100
AcDbEntity
  8
Default
 62
   178
420
        0
100
AcDbSpline
210
0.0
220
0.0
230
1.0
 70
     8
 71
     3
 72
     8
 73
     4
 74
     0
 42
0.000000001
 43
0.0000000001
 40
0.0
 40
0.0
 40
0.0
 40
0.0
 40
1.0
 40
1.0
 40
1.0
 40
1.0
 10
1.063629400757071
 20
8.742341033031181
 30
0.0
 10
1.661752528318167
 20
9.082862385062427
 30
0.0
 10
2.019511412095075
 20
9.462664803859797
 30
0.0
 10
2.235589319330559
 20
9.746283077117292
 30
0.0
  0
SPLINE
  5
339
330
1F
100
AcDbEntity
  8
Default
 62
   178
420
        0
100
AcDbSpline
210
0.0
220
0.0
230
1.0
 70
     8
 71
     3
 72
     8
 73
     4
 74
     0
 42
0.000000001
 43
0.0000000001
 40
1.0
 40
1.0
 40
1.0
 40
1.0
 40
2.0
 40
2.0
 40
2.0
 40
2.0
 10
2.235589319330559
 20
9.746283077117292
 30
0.0
 10
2.771554804537443
 20
10.4498178765059
 30
0.0
 10
2.91259498064222
 20
10.79617051251059
 30
0.0
 10
3.431707414365432
 20
11.88226317257413
 30
0.0
  0
SPLINE
  5
33A
330
1F
100
AcDbEntity
  8
Default
 62
   178
420
        0
100
AcDbSpline
210
0.0
220
0.0
230
1.0
 70
     8
 71
     3
 72
     8
 73
     4
 74
     0
 42
0.000000001
 43
0.0000000001
 40
2.0
 40
2.0
 40
2.0
 40
2.0
 40
3.0
 40
3.0
 40
3.0
 40
3.0
 10
3.431707414365432
 20
11.88226317257413
 30
0.0
 10
3.547500053266538
 20
12.12435757753726
 30
0.0
 10
3.807600950499287
 20
12.38631679603627
 30
0.0
 10
4.286150716583095
 20
12.65122369654383
 30
0.0
  0
SPLINE
  5
33B
330
1F
100
AcDbEntity
  8
Default
 62
   178
420
        0
100
AcDbSpline
210
0.0
220
0.0
230
1.0
 70
     8
 71
     3
 72
     8
 73
     4
 74
     0
 42
0.000000001
 43
0.0000000001
 40
3.0
 40
3.0
 40
3.0
 40
3.0
 40
4.0
 40
4.0
 40
4.0
 40
4.0
 10
4.286150716583095
 20
12.65122369654383
 30
0.0
 10
4.625198227610072
 20
12.8389141444361
 30
0.0
 10
4.962579657501778
 20
12.85929159832129
 30
0.0
 10
5.174043801593443
 20
12.86480248207641
 30
0.0
  0
SPLINE
  5
33C
330
1F
100
AcDbEntity
  8
Default
 62
   178
420
        0
100
AcDbSpline
210
0.0
220
0.0
230
1.0
 70
     8
 71
     3
 72
     8
 73
     4
 74
     0
 42
0.000000001
 43
0.0000000001
 40
0.0
 40
0.0
 40
0.0
 40
0.0
 40
1.0
 40
1.0
 40
1.0
 40
1.0
 10
9.032457022716212
 20
8.742341033031181
 30
0.0
 10
8.434333895155117
 20
9.082862385062427
 30
0.0
 10
8.076575011378209
 20
9.462664803859797
 30
0.0
 10
7.860497104142724
 20
9.746283077117292
 30
0.0
  0
SPLINE
  5
33D
330
1F
100
AcDbEntity
  8
Default
 62
   178
420
        0
100
AcDbSpline
210
0.0
220
0.0
230
1.0
 70
     8
 71
     3
 72
     8
 73
     4
 74
     0
 42
0.000000001
 43
0.0000000001
 40
1.0
 40
1.0
 40
1.0
 40
1.0
 40
2.0
 40
2.0
 40
2.0
 40
2.0
 10
7.860497104142724
 20
9.746283077117292
 30
0.0
 10
7.324531618935841
 20
10.4498178765059
 30
0.0
 10
7.387458221814026
 20
10.91978091673872
 30
0.0
 10
6.664379009107851
 20
11.88226317257413
 30
0.0
  0
SPLINE
  5
33E
330
1F
100
AcDbEntity
  8
Default
 62
   178
420
        0
100
AcDbSpline
210
0.0
220
0.0
230
1.0
 70
     8
 71
     3
 72
     8
 73
     4
 74
     0
 42
0.000000001
 43
0.0000000001
 40
2.0
 40
2.0
 40
2.0
 40
2.0
 40
3.0
 40
3.0
 40
3.0
 40
3.0
 10
6.664379009107851
 20
11.88226317257413
 30
0.0
 10
6.40331691122014
 20
12.22976924936477
 30
0.0
 10
6.163080827523271
 20
12.47724637799568
 30
0.0
 10
5.809935706890188
 20
12.65122369654383
 30
0.0
  0
SPLINE
  5
33F
330
1F
100
AcDbEntity
  8
Default
 62
   178
420
        0
100
AcDbSpline
210
0.0
220
0.0
230
1.0
 70
     8
 71
     3
 72
     8
 73
     4
 74
     0
 42
0.000000001
 43
0.0000000001
 40
3.0
 40
3.0
 40
3.0
 40
3.0
 40
4.0
 40
4.0
 40
4.0
 40
4.0
 10
5.809935706890188
 20
12.65122369654383
 30
0.0
 10
5.462301470012222
 20
12.82250965325808
 30
0.0
 10
5.133506765971505
 20
12.85929159832129
 30
0.0
 10
4.92204262187984
 20
12.86480248207641
 30
0.0
  0
POLYLINE
  5
340
330
1F
100
AcDbEntity
  8
Default
 62
   178
420
        0
100
AcDb2dPolyline
 66
     1
 10
0.0
 20
0.0
 30
0.0
  0
VERTEX
  5
341
330
340
100
AcDbEntity
  8
Default
 62
   178
420
        0
100
AcDbVertex
100
AcDb2dVertex
 10
-8.706667672723354
 20
-3.967224339266663
 30
0.0
  0
VERTEX
  5
342
330
340
100
AcDbEntity
  8
Default
 62
   178
420
        0
100
AcDbVertex
100
AcDb2dVertex
 10
-19.98084647494879
 20
-3.97273522302178
 30
0.0
  0
VERTEX
  5
343
330
340
100
AcDbEntity
  8
Default
 62
   178
420
        0
100
AcDbVertex
100
AcDb2dVertex
 10
-19.98084647494879
 20
8.742347441035554
 30
0.0
  0
VERTEX
  5
344
330
340
100
AcDbEntity
  8
Default
 62
   178
420
        0
100
AcDbVertex
100
AcDb2dVertex
 10
-8.99406666855703
 20
8.742347441035554
 30
0.0
  0
SEQEND
  5
345
330
340
100
AcDbEntity
  8
Default
 62
   178
420
        0
  0
POLYLINE
  5
346
330
1F
100
AcDbEntity
  8
Default
 62
   178
420
        0
100
AcDb2dPolyline
 66
     1
 10
0.0
 20
0.0
 30
0.0
  0
VERTEX
  5
347
330
346
100
AcDbEntity
  8
Default
 62
   178
420
        0
100
AcDbVertex
100
AcDb2dVertex
 10
-1.025232638593525
 20
8.742341033031181
 30
0.0
  0
VERTEX
  5
348
330
346
100
AcDbEntity
  8
Default
 62
   178
420
        0
100
AcDbVertex
100
AcDb2dVertex
 10
1.063648624770166
 20
8.742341033031181
 30
0.0
  0
SEQEND
  5
349
330
346
100
AcDbEntity
  8
Default
 62
   178
420
        0
  0
POLYLINE
  5
34A
330
1F
100
AcDbEntity
  8
Default
 62
   178
420
        0
100
AcDb2dPolyline
 66
     1
 10
0.0
 20
0.0
 30
0.0
  0
VERTEX
  5
34B
330
34A
100
AcDbEntity
  8
Default
 62
   178
420
        0
100
AcDbVertex
100
AcDb2dVertex
 10
9.032457022716212
 20
8.742341033031181
 30
0.0
  0
VERTEX
  5
34C
330
34A
100
AcDbEntity
  8
Default
 62
   178
420
        0
100
AcDbVertex
100
AcDb2dVertex
 10
19.98085288295315
 20
8.742341033031181
 30
0.0
  0
VERTEX
  5
34D
330
34A
100
AcDbEntity
  8
Default
 62
   178
420
        0
100
AcDbVertex
100
AcDb2dVertex
 10
19.98085288295315
 20
-3.972741631026149
 30
0.0
  0
VERTEX
  5
34E
330
34A
100
AcDbEntity
  8
Default
 62
   178
420
        0
100
AcDbVertex
100
AcDb2dVertex
 10
8.586780319032103
 20
-3.972741631026149
 30
0.0
  0
SEQEND
  5
34F
330
34A
100
AcDbEntity
  8
Default
 62
   178
420
        0
  0
ENDSEC
  0
SECTION
  2
OBJECTS
  0
DICTIONARY
  5
C
330
0
100
AcDbDictionary
281
     1
  3
ACAD_DETAILVIEWSTYLE
350
395
  3
ACAD_GROUP
350
D
  3
ACAD_LAYOUT
350
1A
  3
ACAD_MATERIAL
350
43
  3
ACAD_MLEADERSTYLE
350
6B
  3
ACAD_MLINESTYLE
350
17
  3
ACAD_PLOTSETTINGS
350
19
  3
ACAD_PLOTSTYLENAME
350
E
  3
ACAD_SCALELIST
350
47
  3
ACAD_SECTIONVIEWSTYLE
350
396
  3
ACAD_TABLESTYLE
350
69
  3
ACAD_VISUALSTYLE
350
2A
  3
AcDbVariableDictionary
350
352
  3
ACDB_RECOMPOSE_DATA
350
392
  0
DICTIONARY
  5
350
330
8
100
AcDbDictionary
280
     1
281
     1
  3
ACAD_XREC_ROUNDTRIP
360
351
  0
DICTIONARY
  5
395
102
{ACAD_REACTORS
330
C
102
}
330
C
100
AcDbDictionary
281
     1
  0
DICTIONARY
  5
D
102
{ACAD_REACTORS
330
C
102
}
330
C
100
AcDbDictionary
281
     1
  0
DICTIONARY
  5
1A
102
{ACAD_REACTORS
330
C
102
}
330
C
100
AcDbDictionary
281
     1
  3
Layout1
350
1E
  3
Layout2
350
26
  3
Model
350
22
  0
DICTIONARY
  5
43
102
{ACAD_REACTORS
330
C
102
}
330
C
100
AcDbDictionary
281
     1
  3
ByBlock
350
45
  3
ByLayer
350
44
  3
Global
350
46
  0
DICTIONARY
  5
6B
102
{ACAD_REACTORS
330
C
102
}
330
C
100
AcDbDictionary
281
     1
  3
Standard
350
6C
  0
DICTIONARY
  5
17
102
{ACAD_REACTORS
330
C
102
}
330
C
100
AcDbDictionary
281
     1
  3
Standard
350
18
  0
DICTIONARY
  5
19
102
{ACAD_REACTORS
330
C
102
}
330
C
100
AcDbDictionary
281
     1
  0
ACDBDICTIONARYWDFLT
  5
E
102
{ACAD_REACTORS
330
C
102
}
330
C
100
AcDbDictionary
281
     1
  3
Normal
350
F
100
AcDbDictionaryWithDefault
340
F
  0
DICTIONARY
  5
47
102
{ACAD_REACTORS
330
C
102
}
330
C
100
AcDbDictionary
281
     1
  3
A0
350
48
  3
A1
350
49
  3
A2
350
4A
  3
A3
350
4B
  3
A4
350
4C
  3
A5
350
4D
  3
A6
350
4E
  3
A7
350
4F
  3
A8
350
50
  3
A9
350
51
  3
B0
350
52
  3
B1
350
53
  3
B2
350
54
  3
B3
350
55
  3
B4
350
56
  3
B5
350
57
  3
B6
350
58
  3
B7
350
59
  3
B8
350
5A
  3
B9
350
5B
  3
C0
350
5C
  3
C1
350
5D
  3
C2
350
5E
  3
C3
350
5F
  3
C4
350
60
  3
C5
350
61
  3
C6
350
62
  3
C7
350
63
  3
C8
350
64
  3
C9
350
65
  3
D0
350
66
  3
D1
350
67
  3
D2
350
68
  0
DICTIONARY
  5
396
102
{ACAD_REACTORS
330
C
102
}
330
C
100
AcDbDictionary
281
     1
  0
DICTIONARY
  5
69
102
{ACAD_REACTORS
330
C
102
}
330
C
100
AcDbDictionary
281
     1
  3
Standard
350
6A
  0
DICTIONARY
  5
2A
102
{ACAD_REACTORS
330
C
102
}
330
C
100
AcDbDictionary
281
     1
  3
2dWireframe
350
2F
  3
Basic
350
32
  3
Brighten
350
36
  3
ColorChange
350
3A
  3
Conceptual
350
34
  3
Dim
350
35
  3
EdgeColorOff
350
3D
  3
Facepattern
350
39
  3
Flat
350
2B
  3
FlatWithEdges
350
2C
  3
Gouraud
350
2D
  3
GouraudWithEdges
350
2E
  3
Hidden
350
31
  3
JitterOff
350
3B
  3
Linepattern
350
38
  3
OverhangOff
350
3C
  3
Realistic
350
33
  3
Shaded
350
42
  3
Shaded with edges
350
41
  3
Shades of Gray
350
3E
  3
Sketchy
350
3F
  3
Thicken
350
37
  3
Wireframe
350
30
  3
X-Ray
350
40
  0
DICTIONARY
  5
352
102
{ACAD_REACTORS
330
C
102
}
330
C
100
AcDbDictionary
281
     1
  3
CANNOSCALE
350
353
  3
CMLEADERSTYLE
350
394
  3
CTABLESTYLE
350
393
  3
MSLTSCALE
350
354
  3
XCLIPFRAME
350
355
  0
XRECORD
  5
392
102
{ACAD_REACTORS
330
C
102
}
330
C
100
AcDbXrecord
280
     1
 90
        1
330
6A
  0
XRECORD
  5
351
102
{ACAD_REACTORS
330
350
102
}
330
350
100
AcDbXrecord
280
     1
102
VTR_0.000_0.000_1.000_1.000_GRIDDISPLAY
 70
     3
102
VTR_0.000_0.000_1.000_1.000_GRIDMAJOR
 70
     5
102
VTR_0.000_0.000_1.000_1.000_DEFAULTLIGHTING
280
     1
102
VTR_0.000_0.000_1.000_1.000_DEFAULTLIGHTINGTYPE
 70
     1
102
VTR_0.000_0.000_1.000_1.000_BRIGHTNESS
141
0.0
102
VTR_0.000_0.000_1.000_1.000_CONTRAST
142
0.0
  0
LAYOUT
  5
1E
102
{ACAD_REACTORS
330
1A
102
}
330
1A
100
AcDbPlotSettings
  1

  2
none_device
  4

  6

 40
0.0
 41
0.0
 42
0.0
 43
0.0
 44
0.0
 45
0.0
 46
0.0
 47
0.0
 48
0.0
 49
0.0
140
0.0
141
0.0
142
1.0
143
1.0
 70
   688
 72
     0
 73
     0
 74
     5
  7

 75
    16
 76
     0
 77
     2
 78
   300
147
1.0
148
0.0
149
0.0
100
AcDbLayout
  1
Layout1
 70
     1
 71
     1
 10
0.0
 20
0.0
 11
12.0
 21
9.0
 12
0.0
 22
0.0
 32
0.0
 14
1.000000000000000E+20
 24
1.000000000000000E+20
 34
1.000000000000000E+20
 15
-1.000000000000000E+20
 25
-1.000000000000000E+20
 35
-1.000000000000000E+20
146
0.0
 13
0.0
 23
0.0
 33
0.0
 16
1.0
 26
0.0
 36
0.0
 17
0.0
 27
1.0
 37
0.0
 76
     0
330
1B
  0
LAYOUT
  5
26
102
{ACAD_REACTORS
330
1A
102
}
330
1A
100
AcDbPlotSettings
  1

  2
none_device
  4

  6

 40
0.0
 41
0.0
 42
0.0
 43
0.0
 44
0.0
 45
0.0
 46
0.0
 47
0.0
 48
0.0
 49
0.0
140
0.0
141
0.0
142
1.0
143
1.0
 70
   688
 72
     0
 73
     0
 74
     5
  7

 75
    16
 76
     0
 77
     2
 78
   300
147
1.0
148
0.0
149
0.0
100
AcDbLayout
  1
Layout2
 70
     1
 71
     2
 10
0.0
 20
0.0
 11
0.0
 21
0.0
 12
0.0
 22
0.0
 32
0.0
 14
0.0
 24
0.0
 34
0.0
 15
0.0
 25
0.0
 35
0.0
146
0.0
 13
0.0
 23
0.0
 33
0.0
 16
1.0
 26
0.0
 36
0.0
 17
0.0
 27
1.0
 37
0.0
 76
     0
330
23
  0
LAYOUT
  5
22
102
{ACAD_REACTORS
330
1A
102
}
330
1A
100
AcDbPlotSettings
  1

  2
none_device
  4
Letter_(8.50_x_11.00_Inches)
  6

 40
6.35
 41
6.35
 42
6.35000508
 43
6.35000508
 44
215.9
 45
279.4
 46
0.0
 47
0.0
 48
0.0
 49
0.0
140
0.0
141
0.0
142
1.0
143
1.0
 70
  1712
 72
     0
 73
     0
 74
     0
  7

 75
     0
 76
     0
 77
     2
 78
   300
147
1.0
148
0.0
149
0.0
100
AcDbLayout
  1
Model
 70
     1
 71
     0
 10
0.0
 20
0.0
 11
12.0
 21
9.0
 12
0.0
 22
0.0
 32
0.0
 14
-20.0
 24
-12.81796372484798
 34
0.0
 15
20.0
 25
12.86480248207641
 35
0.0
146
0.0
 13
0.0
 23
0.0
 33
0.0
 16
1.0
 26
0.0
 36
0.0
 17
0.0
 27
1.0
 37
0.0
 76
     0
330
1F
331
29
  0
MATERIAL
  5
45
102
{ACAD_REACTORS
330
43
102
}
102
{ACAD_XDICTIONARY
360
388
102
}
330
43
100
AcDbMaterial
  1
ByBlock
  0
MATERIAL
  5
44
102
{ACAD_REACTORS
330
43
102
}
102
{ACAD_XDICTIONARY
360
386
102
}
330
43
100
AcDbMaterial
  1
ByLayer
  0
MATERIAL
  5
46
102
{ACAD_REACTORS
330
43
102
}
102
{ACAD_XDICTIONARY
360
38A
102
}
330
43
100
AcDbMaterial
  1
Global
  0
MLEADERSTYLE
  5
6C
102
{ACAD_REACTORS
330
6B
102
}
102
{ACAD_XDICTIONARY
360
390
102
}
330
6B
100
AcDbMLeaderStyle
170
     2
171
     1
172
     0
 90
        2
 40
0.0
 41
0.0
173
     1
 91
-1056964608
340
14
 92
       -2
290
     1
 42
0.09
291
     1
 43
0.36
  3
Standard
341
0
 44
0.18
300

342
11
174
     1
178
     6
175
     1
176
     0
 93
-1056964608
 45
0.18
292
     0
297
     0
 46
0.18
343
0
 94
-1056964608
 47
1.0
 49
1.0
140
1.0
293
     1
141
0.0
294
     1
177
     0
142
1.0
295
     0
296
     0
143
0.125
1001
ACAD_MLEADERVER
1070
     2
  0
MLINESTYLE
  5
18
102
{ACAD_REACTORS
330
17
102
}
330
17
100
AcDbMlineStyle
  2
Standard
 70
     0
  3

 62
   256
 51
90.0
 52
90.0
 71
     2
 49
0.5
 62
   256
  6
BYLAYER
 49
-0.5
 62
   256
  6
BYLAYER
  0
ACDBPLACEHOLDER
  5
F
102
{ACAD_REACTORS
330
E
102
}
330
E
  0
SCALE
  5
48
102
{ACAD_REACTORS
330
47
102
}
330
47
100
AcDbScale
 70
     0
300
1:1
140
1.0
141
1.0
290
     1
  0
SCALE
  5
49
102
{ACAD_REACTORS
330
47
102
}
330
47
100
AcDbScale
 70
     0
300
1:2
140
1.0
141
2.0
290
     0
  0
SCALE
  5
4A
102
{ACAD_REACTORS
330
47
102
}
330
47
100
AcDbScale
 70
     0
300
1:4
140
1.0
141
4.0
290
     0
  0
SCALE
  5
4B
102
{ACAD_REACTORS
330
47
102
}
330
47
100
AcDbScale
 70
     0
300
1:5
140
1.0
141
5.0
290
     0
  0
SCALE
  5
4C
102
{ACAD_REACTORS
330
47
102
}
330
47
100
AcDbScale
 70
     0
300
1:8
140
1.0
141
8.0
290
     0
  0
SCALE
  5
4D
102
{ACAD_REACTORS
330
47
102
}
330
47
100
AcDbScale
 70
     0
300
1:10
140
1.0
141
10.0
290
     0
  0
SCALE
  5
4E
102
{ACAD_REACTORS
330
47
102
}
330
47
100
AcDbScale
 70
     0
300
1:16
140
1.0
141
16.0
290
     0
  0
SCALE
  5
4F
102
{ACAD_REACTORS
330
47
102
}
330
47
100
AcDbScale
 70
     0
300
1:20
140
1.0
141
20.0
290
     0
  0
SCALE
  5
50
102
{ACAD_REACTORS
330
47
102
}
330
47
100
AcDbScale
 70
     0
300
1:30
140
1.0
141
30.0
290
     0
  0
SCALE
  5
51
102
{ACAD_REACTORS
330
47
102
}
330
47
100
AcDbScale
 70
     0
300
1:40
140
1.0
141
40.0
290
     0
  0
SCALE
  5
52
102
{ACAD_REACTORS
330
47
102
}
330
47
100
AcDbScale
 70
     0
300
1:50
140
1.0
141
50.0
290
     0
  0
SCALE
  5
53
102
{ACAD_REACTORS
330
47
102
}
330
47
100
AcDbScale
 70
     0
300
1:100
140
1.0
141
100.0
290
     0
  0
SCALE
  5
54
102
{ACAD_REACTORS
330
47
102
}
330
47
100
AcDbScale
 70
     0
300
2:1
140
2.0
141
1.0
290
     0
  0
SCALE
  5
55
102
{ACAD_REACTORS
330
47
102
}
330
47
100
AcDbScale
 70
     0
300
4:1
140
4.0
141
1.0
290
     0
  0
SCALE
  5
56
102
{ACAD_REACTORS
330
47
102
}
330
47
100
AcDbScale
 70
     0
300
8:1
140
8.0
141
1.0
290
     0
  0
SCALE
  5
57
102
{ACAD_REACTORS
330
47
102
}
330
47
100
AcDbScale
 70
     0
300
10:1
140
10.0
141
1.0
290
     0
  0
SCALE
  5
58
102
{ACAD_REACTORS
330
47
102
}
330
47
100
AcDbScale
 70
     0
300
100:1
140
100.0
141
1.0
290
     0
  0
SCALE
  5
59
102
{ACAD_REACTORS
330
47
102
}
330
47
100
AcDbScale
 70
     0
300
1/128" = 1'-0"
140
0.0078125
141
12.0
290
     0
  0
SCALE
  5
5A
102
{ACAD_REACTORS
330
47
102
}
330
47
100
AcDbScale
 70
     0
300
1/64" = 1'-0"
140
0.015625
141
12.0
290
     0
  0
SCALE
  5
5B
102
{ACAD_REACTORS
330
47
102
}
330
47
100
AcDbScale
 70
     0
300
1/32" = 1'-0"
140
0.03125
141
12.0
290
     0
  0
SCALE
  5
5C
102
{ACAD_REACTORS
330
47
102
}
330
47
100
AcDbScale
 70
     0
300
1/16" = 1'-0"
140
0.0625
141
12.0
290
     0
  0
SCALE
  5
5D
102
{ACAD_REACTORS
330
47
102
}
330
47
100
AcDbScale
 70
     0
300
3/32" = 1'-0"
140
0.09375
141
12.0
290
     0
  0
SCALE
  5
5E
102
{ACAD_REACTORS
330
47
102
}
330
47
100
AcDbScale
 70
     0
300
1/8" = 1'-0"
140
0.125
141
12.0
290
     0
  0
SCALE
  5
5F
102
{ACAD_REACTORS
330
47
102
}
330
47
100
AcDbScale
 70
     0
300
3/16" = 1'-0"
140
0.1875
141
12.0
290
     0
  0
SCALE
  5
60
102
{ACAD_REACTORS
330
47
102
}
330
47
100
AcDbScale
 70
     0
300
1/4" = 1'-0"
140
0.25
141
12.0
290
     0
  0
SCALE
  5
61
102
{ACAD_REACTORS
330
47
102
}
330
47
100
AcDbScale
 70
     0
300
3/8" = 1'-0"
140
0.375
141
12.0
290
     0
  0
SCALE
  5
62
102
{ACAD_REACTORS
330
47
102
}
330
47
100
AcDbScale
 70
     0
300
1/2" = 1'-0"
140
0.5
141
12.0
290
     0
  0
SCALE
  5
63
102
{ACAD_REACTORS
330
47
102
}
330
47
100
AcDbScale
 70
     0
300
3/4" = 1'-0"
140
0.75
141
12.0
290
     0
  0
SCALE
  5
64
102
{ACAD_REACTORS
330
47
102
}
330
47
100
AcDbScale
 70
     0
300
1" = 1'-0"
140
1.0
141
12.0
290
     0
  0
SCALE
  5
65
102
{ACAD_REACTORS
330
47
102
}
330
47
100
AcDbScale
 70
     0
300
1-1/2" = 1'-0"
140
1.5
141
12.0
290
     0
  0
SCALE
  5
66
102
{ACAD_REACTORS
330
47
102
}
330
47
100
AcDbScale
 70
     0
300
3" = 1'-0"
140
3.0
141
12.0
290
     0
  0
SCALE
  5
67
102
{ACAD_REACTORS
330
47
102
}
330
47
100
AcDbScale
 70
     0
300
6" = 1'-0"
140
6.0
141
12.0
290
     0
  0
SCALE
  5
68
102
{ACAD_REACTORS
330
47
102
}
330
47
100
AcDbScale
 70
     0
300
1'-0" = 1'-0"
140
12.0
141
12.0
290
     0
  0
TABLESTYLE
  5
6A
102
{ACAD_REACTORS
330
69
102
}
102
{ACAD_XDICTIONARY
360
38C
102
}
330
69
100
AcDbTableStyle
  3
Standard
 70
     0
 71
     0
 40
0.06
 41
0.06
280
     0
281
     0
  7
Standard
140
0.18
170
     2
 62
     0
 63
   257
283
     0
274
    -2
284
     1
 64
     0
275
    -2
285
     1
 65
     0
276
    -2
286
     1
 66
     0
277
    -2
287
     1
 67
     0
278
    -2
288
     1
 68
     0
279
    -2
289
     1
 69
     0
  7
Standard
140
0.25
170
     5
 62
     0
 63
   257
283
     0
274
    -2
284
     1
 64
     0
275
    -2
285
     1
 65
     0
276
    -2
286
     1
 66
     0
277
    -2
287
     1
 67
     0
278
    -2
288
     1
 68
     0
279
    -2
289
     1
 69
     0
  7
Standard
140
0.18
170
     5
 62
     0
 63
   257
283
     0
274
    -2
284
     1
 64
     0
275
    -2
285
     1
 65
     0
276
    -2
286
     1
 66
     0
277
    -2
287
     1
 67
     0
278
    -2
288
     1
 68
     0
279
    -2
289
     1
 69
     0
  0
VISUALSTYLE
  5
2F
102
{ACAD_REACTORS
330
2A
102
}
102
{ACAD_XDICTIONARY
360
35E
102
}
330
2A
100
AcDbVisualStyle
  2
2dWireframe
 70
     4
 71
     0
 72
     2
 73
     0
 90
        0
 40
0.6
 41
30.0
 62
     5
 63
     7
421
 16777215
 74
     1
 91
        4
 64
     7
 65
   257
 75
     1
175
     1
 42
1.0
 92
        0
 66
   257
 43
1.0
 76
     1
 77
     6
 78
     2
 67
     7
 79
     5
170
     0
171
     0
290
     0
174
     0
 93
        1
 44
0.0
173
     0
291
     0
 45
0.0
1001
ACAD
1000
AcDbSavedByObjectVersion
1070
     0
  0
VISUALSTYLE
  5
32
102
{ACAD_REACTORS
330
2A
102
}
102
{ACAD_XDICTIONARY
360
364
102
}
330
2A
100
AcDbVisualStyle
  2
Basic
 70
     7
 71
     1
 72
     0
 73
     1
 90
        0
 40
0.6
 41
30.0
 62
     5
 63
     7
421
 16777215
 74
     0
 91
        4
 64
     7
 65
   257
 75
     1
175
     1
 42
1.0
 92
        8
 66
     7
 43
1.0
 76
     1
 77
     6
 78
     2
 67
     7
 79
     5
170
     0
171
     0
290
     0
174
     0
 93
        1
 44
0.0
173
     0
291
     1
 45
0.0
1001
ACAD
1000
AcDbSavedByObjectVersion
1070
     0
  0
VISUALSTYLE
  5
36
102
{ACAD_REACTORS
330
2A
102
}
102
{ACAD_XDICTIONARY
360
36C
102
}
330
2A
100
AcDbVisualStyle
  2
Brighten
 70
    12
 71
     2
 72
     2
 73
     0
 90
        0
 40
0.6
 41
30.0
 62
     5
 63
     7
421
 16777215
 74
     1
 91
        4
 64
     7
 65
   257
 75
     1
175
     1
 42
1.0
 92
        8
 66
     7
 43
1.0
 76
     1
 77
     6
 78
     2
 67
     7
 79
     5
170
     0
171
     0
290
     0
174
     0
 93
        1
 44
50.0
173
     0
291
     1
 45
0.0
1001
ACAD
1000
AcDbSavedByObjectVersion
1070
     0
  0
VISUALSTYLE
  5
3A
102
{ACAD_REACTORS
330
2A
102
}
102
{ACAD_XDICTIONARY
360
374
102
}
330
2A
100
AcDbVisualStyle
  2
ColorChange
 70
    16
 71
     2
 72
     2
 73
     3
 90
        0
 40
0.6
 41
30.0
 62
     5
 63
     8
421
  8421504
 74
     1
 91
        4
 64
     7
 65
   257
 75
     1
175
     1
 42
1.0
 92
        8
 66
     8
424
  8421504
 43
1.0
 76
     1
 77
     6
 78
     2
 67
     7
 79
     5
170
     0
171
     0
290
     0
174
     0
 93
        1
 44
0.0
173
     0
291
     1
 45
0.0
1001
ACAD
1000
AcDbSavedByObjectVersion
1070
     0
  0
VISUALSTYLE
  5
34
102
{ACAD_REACTORS
330
2A
102
}
102
{ACAD_XDICTIONARY
360
368
102
}
330
2A
100
AcDbVisualStyle
  2
Conceptual
 70
     9
 71
     3
 72
     2
 73
     0
 90
        0
 40
0.6
 41
30.0
 62
     5
 63
     7
421
 16777215
 74
     2
 91
        2
 64
     7
 65
   257
 75
     1
175
     1
 42
179.0
 92
        8
 66
     7
 43
1.0
 76
     1
 77
     6
 78
     2
 67
     7
 79
     3
170
     0
171
     0
290
     0
174
     0
 93
        1
 44
0.0
173
     0
291
     0
 45
0.0
1001
ACAD
1000
AcDbSavedByObjectVersion
1070
     0
  0
VISUALSTYLE
  5
35
102
{ACAD_REACTORS
330
2A
102
}
102
{ACAD_XDICTIONARY
360
36A
102
}
330
2A
100
AcDbVisualStyle
  2
Dim
 70
    11
 71
     2
 72
     2
 73
     0
 90
        0
 40
0.6
 41
30.0
 62
     5
 63
     7
421
 16777215
 74
     1
 91
        4
 64
     7
 65
   257
 75
     1
175
     1
 42
1.0
 92
        8
 66
     7
 43
1.0
 76
     1
 77
     6
 78
     2
 67
     7
 79
     5
170
     0
171
     0
290
     0
174
     0
 93
        1
 44
-50.0
173
     0
291
     1
 45
0.0
1001
ACAD
1000
AcDbSavedByObjectVersion
1070
     0
  0
VISUALSTYLE
  5
3D
102
{ACAD_REACTORS
330
2A
102
}
102
{ACAD_XDICTIONARY
360
37A
102
}
330
2A
100
AcDbVisualStyle
  2
EdgeColorOff
 70
    22
 71
     2
 72
     2
 73
     0
 90
        0
 40
0.6
 41
30.0
 62
     5
 63
     7
421
 16777215
 74
     1
 91
        4
 64
     7
 65
   257
 75
     1
175
     1
 42
1.0
 92
        8
 66
     7
 43
1.0
 76
     1
 77
     6
 78
     2
 67
     7
 79
     5
170
     0
171
     0
290
     0
174
     0
 93
        1
 44
0.0
173
     0
291
     1
 45
0.0
1001
ACAD
1000
AcDbSavedByObjectVersion
1070
     0
  0
VISUALSTYLE
  5
39
102
{ACAD_REACTORS
330
2A
102
}
102
{ACAD_XDICTIONARY
360
372
102
}
330
2A
100
AcDbVisualStyle
  2
Facepattern
 70
    15
 71
     2
 72
     2
 73
     0
 90
        0
 40
0.6
 41
30.0
 62
     5
 63
     7
421
 16777215
 74
     1
 91
        4
 64
     7
 65
   257
 75
     1
175
     1
 42
1.0
 92
        8
 66
     7
 43
1.0
 76
     1
 77
     6
 78
     2
 67
     7
 79
     5
170
     0
171
     0
290
     0
174
     0
 93
        1
 44
0.0
173
     0
291
     1
 45
0.0
1001
ACAD
1000
AcDbSavedByObjectVersion
1070
     0
  0
VISUALSTYLE
  5
2B
102
{ACAD_REACTORS
330
2A
102
}
102
{ACAD_XDICTIONARY
360
356
102
}
330
2A
100
AcDbVisualStyle
  2
Flat
 70
     0
 71
     2
 72
     1
 73
     1
 90
        2
 40
0.6
 41
30.0
 62
     5
 63
     7
421
 16777215
 74
     0
 91
        0
 64
     7
 65
   257
 75
     1
175
     1
 42
1.0
 92
        8
 66
     7
 43
1.0
 76
     1
 77
     6
 78
     2
 67
     7
 79
     5
170
     0
171
     0
290
     0
174
     0
 93
       13
 44
0.0
173
     0
291
     1
 45
0.0
1001
ACAD
1000
AcDbSavedByObjectVersion
1070
     0
  0
VISUALSTYLE
  5
2C
102
{ACAD_REACTORS
330
2A
102
}
102
{ACAD_XDICTIONARY
360
358
102
}
330
2A
100
AcDbVisualStyle
  2
FlatWithEdges
 70
     1
 71
     2
 72
     1
 73
     1
 90
        2
 40
0.6
 41
30.0
 62
     5
 63
     7
421
 16777215
 74
     1
 91
        0
 64
     7
 65
   257
 75
     1
175
     1
 42
1.0
 92
        0
 66
   257
 43
1.0
 76
     1
 77
     6
 78
     2
 67
     7
 79
     5
170
     0
171
     0
290
     0
174
     0
 93
       13
 44
0.0
173
     0
291
     1
 45
0.0
1001
ACAD
1000
AcDbSavedByObjectVersion
1070
     0
  0
VISUALSTYLE
  5
2D
102
{ACAD_REACTORS
330
2A
102
}
102
{ACAD_XDICTIONARY
360
35A
102
}
330
2A
100
AcDbVisualStyle
  2
Gouraud
 70
     2
 71
     2
 72
     2
 73
     1
 90
        2
 40
0.6
 41
30.0
 62
     5
 63
     7
421
 16777215
 74
     0
 91
        0
 64
     7
 65
   257
 75
     1
175
     1
 42
1.0
 92
        0
 66
     7
 43
1.0
 76
     1
 77
     6
 78
     2
 67
     7
 79
     5
170
     0
171
     0
290
     0
174
     0
 93
       13
 44
0.0
173
     0
291
     1
 45
0.0
1001
ACAD
1000
AcDbSavedByObjectVersion
1070
     0
  0
VISUALSTYLE
  5
2E
102
{ACAD_REACTORS
330
2A
102
}
102
{ACAD_XDICTIONARY
360
35C
102
}
330
2A
100
AcDbVisualStyle
  2
GouraudWithEdges
 70
     3
 71
     2
 72
     2
 73
     1
 90
        2
 40
0.6
 41
30.0
 62
     5
 63
     7
421
 16777215
 74
     1
 91
        0
 64
     7
 65
   257
 75
     1
175
     1
 42
1.0
 92
        0
 66
   257
 43
1.0
 76
     1
 77
     6
 78
     2
 67
     7
 79
     5
170
     0
171
     0
290
     0
174
     0
 93
       13
 44
0.0
173
     0
291
     1
 45
0.0
1001
ACAD
1000
AcDbSavedByObjectVersion
1070
     0
  0
VISUALSTYLE
  5
31
102
{ACAD_REACTORS
330
2A
102
}
102
{ACAD_XDICTIONARY
360
362
102
}
330
2A
100
AcDbVisualStyle
  2
Hidden
 70
     6
 71
     1
 72
     2
 73
     2
 90
        0
 40
0.6
 41
30.0
 62
     5
 63
     7
421
 16777215
 74
     2
 91
        2
 64
     7
 65
   257
 75
     2
175
     1
 42
40.0
 92
        0
 66
   257
 43
1.0
 76
     1
 77
     6
 78
     2
 67
     7
 79
     3
170
     0
171
     0
290
     0
174
     0
 93
        1
 44
0.0
173
     0
291
     0
 45
0.0
1001
ACAD
1000
AcDbSavedByObjectVersion
1070
     0
  0
VISUALSTYLE
  5
3B
102
{ACAD_REACTORS
330
2A
102
}
102
{ACAD_XDICTIONARY
360
376
102
}
330
2A
100
AcDbVisualStyle
  2
JitterOff
 70
    20
 71
     2
 72
     2
 73
     0
 90
        0
 40
0.6
 41
30.0
 62
     5
 63
     7
421
 16777215
 74
     1
 91
        4
 64
     7
 65
   257
 75
     1
175
     1
 42
1.0
 92
       10
 66
     7
 43
1.0
 76
     1
 77
     6
 78
     2
 67
     7
 79
     5
170
     0
171
     0
290
     0
174
     0
 93
        1
 44
0.0
173
     0
291
     1
 45
0.0
1001
ACAD
1000
AcDbSavedByObjectVersion
1070
     0
  0
VISUALSTYLE
  5
38
102
{ACAD_REACTORS
330
2A
102
}
102
{ACAD_XDICTIONARY
360
370
102
}
330
2A
100
AcDbVisualStyle
  2
Linepattern
 70
    14
 71
     2
 72
     2
 73
     0
 90
        0
 40
0.6
 41
30.0
 62
     5
 63
     7
421
 16777215
 74
     1
 91
        4
 64
     7
 65
   257
 75
     7
175
     7
 42
1.0
 92
        8
 66
     7
 43
1.0
 76
     1
 77
     6
 78
     2
 67
     7
 79
     5
170
     0
171
     0
290
     0
174
     0
 93
        1
 44
0.0
173
     0
291
     1
 45
0.0
1001
ACAD
1000
AcDbSavedByObjectVersion
1070
     0
  0
VISUALSTYLE
  5
3C
102
{ACAD_REACTORS
330
2A
102
}
102
{ACAD_XDICTIONARY
360
378
102
}
330
2A
100
AcDbVisualStyle
  2
OverhangOff
 70
    21
 71
     2
 72
     2
 73
     0
 90
        0
 40
0.6
 41
30.0
 62
     5
 63
     7
421
 16777215
 74
     1
 91
        4
 64
     7
 65
   257
 75
     1
175
     1
 42
1.0
 92
        9
 66
     7
 43
1.0
 76
     1
 77
     6
 78
     2
 67
     7
 79
     5
170
     0
171
     0
290
     0
174
     0
 93
        1
 44
0.0
173
     0
291
     1
 45
0.0
1001
ACAD
1000
AcDbSavedByObjectVersion
1070
     0
  0
VISUALSTYLE
  5
33
102
{ACAD_REACTORS
330
2A
102
}
102
{ACAD_XDICTIONARY
360
366
102
}
330
2A
100
AcDbVisualStyle
  2
Realistic
 70
     8
 71
     2
 72
     3
 73
     0
 90
        2
 40
0.6
 41
30.0
 62
     5
 63
     7
421
 16777215
 74
     0
 91
        0
 64
     7
 65
   257
 75
     1
175
     1
 42
1.0
 92
        8
 66
   257
 43
1.0
 76
     1
 77
     6
 78
     2
 67
     7
 79
     3
170
     0
171
     0
290
     0
174
     0
 93
       13
 44
0.0
173
     0
291
     0
 45
0.0
1001
ACAD
1000
AcDbSavedByObjectVersion
1070
     0
  0
VISUALSTYLE
  5
42
102
{ACAD_REACTORS
330
2A
102
}
102
{ACAD_XDICTIONARY
360
384
102
}
330
2A
100
AcDbVisualStyle
  2
Shaded
 70
    27
 71
     2
 72
     2
 73
     1
 90
        2
 40
0.6
 41
30.0
 62
     5
 63
     7
421
 16777215
 74
     0
 91
        4
 64
     7
 65
   257
 75
     1
175
     1
 42
1.0
 92
        8
 66
   257
 43
1.0
 76
     1
 77
     6
 78
     2
 67
     8
425
  7895160
 79
     3
170
     0
171
     0
290
     0
174
     0
 93
        5
 44
0.0
173
     0
291
     0
 45
0.0
1001
ACAD
1000
AcDbSavedByObjectVersion
1070
     0
  0
VISUALSTYLE
  5
41
102
{ACAD_REACTORS
330
2A
102
}
102
{ACAD_XDICTIONARY
360
382
102
}
330
2A
100
AcDbVisualStyle
  2
Shaded with edges
 70
    26
 71
     2
 72
     2
 73
     1
 90
        2
 40
0.6
 41
30.0
 62
     5
 63
     7
421
 16777215
 74
     1
 91
       10
 64
     7
 65
   257
 75
     2
175
     1
 42
1.0
 92
        8
 66
   257
 43
1.0
 76
     1
 77
     6
 78
     2
 67
     7
 79
     3
170
     0
171
     0
290
     0
174
     0
 93
        5
 44
0.0
173
     0
291
     0
 45
0.0
1001
ACAD
1000
AcDbSavedByObjectVersion
1070
     0
  0
VISUALSTYLE
  5
3E
102
{ACAD_REACTORS
330
2A
102
}
102
{ACAD_XDICTIONARY
360
37C
102
}
330
2A
100
AcDbVisualStyle
  2
Shades of Gray
 70
    23
 71
     2
 72
     2
 73
     3
 90
        0
 40
0.6
 41
30.0
 62
     5
 63
     7
421
 16777215
 74
     2
 91
        2
 64
     7
 65
     7
 75
     1
175
     1
 42
40.0
 92
        8
 66
     7
 43
1.0
 76
     1
 77
     6
 78
     2
 67
     7
 79
     3
170
     0
171
     0
290
     0
174
     0
 93
        1
 44
0.0
173
     0
291
     0
 45
0.0
1001
ACAD
1000
AcDbSavedByObjectVersion
1070
     0
  0
VISUALSTYLE
  5
3F
102
{ACAD_REACTORS
330
2A
102
}
102
{ACAD_XDICTIONARY
360
37E
102
}
330
2A
100
AcDbVisualStyle
  2
Sketchy
 70
    24
 71
     1
 72
     2
 73
     2
 90
        0
 40
0.6
 41
30.0
 62
     5
 63
     7
421
 16777215
 74
     2
 91
        2
 64
     7
 65
     7
 75
     1
175
     1
 42
40.0
 92
       11
 66
     7
 43
1.0
 76
     1
 77
     6
 78
     2
 67
     7
 79
     6
170
     0
171
     0
290
     0
174
     0
 93
        1
 44
0.0
173
     0
291
     0
 45
0.0
1001
ACAD
1000
AcDbSavedByObjectVersion
1070
     0
  0
VISUALSTYLE
  5
37
102
{ACAD_REACTORS
330
2A
102
}
102
{ACAD_XDICTIONARY
360
36E
102
}
330
2A
100
AcDbVisualStyle
  2
Thicken
 70
    13
 71
     2
 72
     2
 73
     0
 90
        0
 40
0.6
 41
30.0
 62
     5
 63
     7
421
 16777215
 74
     1
 91
        4
 64
     7
 65
   257
 75
     1
175
     1
 42
1.0
 92
       12
 66
     7
 43
1.0
 76
     1
 77
     6
 78
     2
 67
     7
 79
     5
170
     0
171
     0
290
     0
174
     0
 93
        1
 44
0.0
173
     0
291
     1
 45
0.0
1001
ACAD
1000
AcDbSavedByObjectVersion
1070
     0
  0
VISUALSTYLE
  5
30
102
{ACAD_REACTORS
330
2A
102
}
102
{ACAD_XDICTIONARY
360
360
102
}
330
2A
100
AcDbVisualStyle
  2
Wireframe
 70
     5
 71
     0
 72
     2
 73
     0
 90
        0
 40
0.6
 41
30.0
 62
     5
 63
     7
421
 16777215
 74
     1
 91
        4
 64
     7
 65
   257
 75
     1
175
     1
 42
1.0
 92
        0
 66
   257
 43
1.0
 76
     1
 77
     6
 78
     2
 67
     7
 79
     3
170
     0
171
     0
290
     0
174
     0
 93
        1
 44
0.0
173
     0
291
     0
 45
0.0
1001
ACAD
1000
AcDbSavedByObjectVersion
1070
     0
  0
VISUALSTYLE
  5
40
102
{ACAD_REACTORS
330
2A
102
}
102
{ACAD_XDICTIONARY
360
380
102
}
330
2A
100
AcDbVisualStyle
  2
X-Ray
 70
    25
 71
     2
 72
     2
 73
     1
 90
        1
 40
0.5
 41
30.0
 62
     5
 63
     7
421
 16777215
 74
     1
 91
        0
 64
     7
 65
   257
 75
     1
175
     1
 42
1.0
 92
        8
 66
     7
 43
1.0
 76
     1
 77
     6
 78
     2
 67
     7
 79
     3
170
     0
171
     0
290
     0
174
     0
 93
       13
 44
0.0
173
     0
291
     0
 45
0.0
1001
ACAD
1000
AcDbSavedByObjectVersion
1070
     0
  0
DICTIONARYVAR
  5
353
102
{ACAD_REACTORS
330
352
102
}
330
352
100
DictionaryVariables
280
     0
  1
1:1
  0
DICTIONARYVAR
  5
394
102
{ACAD_REACTORS
330
352
102
}
330
352
100
DictionaryVariables
280
     0
  1
Standard
  0
DICTIONARYVAR
  5
393
102
{ACAD_REACTORS
330
352
102
}
330
352
100
DictionaryVariables
280
     0
  1
Standard
  0
DICTIONARYVAR
  5
354
102
{ACAD_REACTORS
330
352
102
}
330
352
100
DictionaryVariables
280
     0
  1
1
  0
DICTIONARYVAR
  5
355
102
{ACAD_REACTORS
330
352
102
}
330
352
100
DictionaryVariables
280
     0
  1
2
  0
DICTIONARY
  5
388
330
45
100
AcDbDictionary
280
     1
281
     1
  3
ACAD_XREC_ROUNDTRIP
360
389
  0
DICTIONARY
  5
386
330
44
100
AcDbDictionary
280
     1
281
     1
  3
ACAD_XREC_ROUNDTRIP
360
387
  0
DICTIONARY
  5
38A
330
46
100
AcDbDictionary
280
     1
281
     1
  3
ACAD_XREC_ROUNDTRIP
360
38B
  0
DICTIONARY
  5
390
330
6C
100
AcDbDictionary
280
     1
281
     1
  3
ACAD_XREC_ROUNDTRIP
360
391
  0
DICTIONARY
  5
38C
330
6A
100
AcDbDictionary
280
     1
281
     1
  3
ACAD_ROUNDTRIP_2008_TABLESTYLE_CELLSTYLEMAP
360
38E
  3
ACAD_XREC_ROUNDTRIP
360
38D
  0
DICTIONARY
  5
35E
330
2F
100
AcDbDictionary
280
     1
281
     1
  3
ACAD_XREC_ROUNDTRIP
360
35F
  0
DICTIONARY
  5
364
330
32
100
AcDbDictionary
280
     1
281
     1
  3
ACAD_XREC_ROUNDTRIP
360
365
  0
DICTIONARY
  5
36C
330
36
100
AcDbDictionary
280
     1
281
     1
  3
ACAD_XREC_ROUNDTRIP
360
36D
  0
DICTIONARY
  5
374
330
3A
100
AcDbDictionary
280
     1
281
     1
  3
ACAD_XREC_ROUNDTRIP
360
375
  0
DICTIONARY
  5
368
330
34
100
AcDbDictionary
280
     1
281
     1
  3
ACAD_XREC_ROUNDTRIP
360
369
  0
DICTIONARY
  5
36A
330
35
100
AcDbDictionary
280
     1
281
     1
  3
ACAD_XREC_ROUNDTRIP
360
36B
  0
DICTIONARY
  5
37A
330
3D
100
AcDbDictionary
280
     1
281
     1
  3
ACAD_XREC_ROUNDTRIP
360
37B
  0
DICTIONARY
  5
372
330
39
100
AcDbDictionary
280
     1
281
     1
  3
ACAD_XREC_ROUNDTRIP
360
373
  0
DICTIONARY
  5
356
330
2B
100
AcDbDictionary
280
     1
281
     1
  3
ACAD_XREC_ROUNDTRIP
360
357
  0
DICTIONARY
  5
358
330
2C
100
AcDbDictionary
280
     1
281
     1
  3
ACAD_XREC_ROUNDTRIP
360
359
  0
DICTIONARY
  5
35A
330
2D
100
AcDbDictionary
280
     1
281
     1
  3
ACAD_XREC_ROUNDTRIP
360
35B
  0
DICTIONARY
  5
35C
330
2E
100
AcDbDictionary
280
     1
281
     1
  3
ACAD_XREC_ROUNDTRIP
360
35D
  0
DICTIONARY
  5
362
330
31
100
AcDbDictionary
280
     1
281
     1
  3
ACAD_XREC_ROUNDTRIP
360
363
  0
DICTIONARY
  5
376
330
3B
100
AcDbDictionary
280
     1
281
     1
  3
ACAD_XREC_ROUNDTRIP
360
377
  0
DICTIONARY
  5
370
330
38
100
AcDbDictionary
280
     1
281
     1
  3
ACAD_XREC_ROUNDTRIP
360
371
  0
DICTIONARY
  5
378
330
3C
100
AcDbDictionary
280
     1
281
     1
  3
ACAD_XREC_ROUNDTRIP
360
379
  0
DICTIONARY
  5
366
330
33
100
AcDbDictionary
280
     1
281
     1
  3
ACAD_XREC_ROUNDTRIP
360
367
  0
DICTIONARY
  5
384
330
42
100
AcDbDictionary
280
     1
281
     1
  3
ACAD_XREC_ROUNDTRIP
360
385
  0
DICTIONARY
  5
382
330
41
100
AcDbDictionary
280
     1
281
     1
  3
ACAD_XREC_ROUNDTRIP
360
383
  0
DICTIONARY
  5
37C
330
3E
100
AcDbDictionary
280
     1
281
     1
  3
ACAD_XREC_ROUNDTRIP
360
37D
  0
DICTIONARY
  5
37E
330
3F
100
AcDbDictionary
280
     1
281
     1
  3
ACAD_XREC_ROUNDTRIP
360
37F
  0
DICTIONARY
  5
36E
330
37
100
AcDbDictionary
280
     1
281
     1
  3
ACAD_XREC_ROUNDTRIP
360
36F
  0
DICTIONARY
  5
360
330
30
100
AcDbDictionary
280
     1
281
     1
  3
ACAD_XREC_ROUNDTRIP
360
361
  0
DICTIONARY
  5
380
330
40
100
AcDbDictionary
280
     1
281
     1
  3
ACAD_XREC_ROUNDTRIP
360
381
  0
XRECORD
  5
389
102
{ACAD_REACTORS
330
388
102
}
330
388
100
AcDbXrecord
280
     1
102
MATERIAL
148
0.0
149
0.0
149
0.0
 93
        0
 94
      127
282
     0
 72
     1
 77
     1
171
     1
175
     1
179
     1
273
     0
  0
XRECORD
  5
387
102
{ACAD_REACTORS
330
386
102
}
330
386
100
AcDbXrecord
280
     1
102
MATERIAL
148
0.0
149
0.0
149
0.0
 93
        0
 94
      127
282
     0
 72
     1
 77
     1
171
     1
175
     1
179
     1
273
     0
  0
XRECORD
  5
38B
102
{ACAD_REACTORS
330
38A
102
}
330
38A
100
AcDbXrecord
280
     1
102
MATERIAL
148
0.0
149
0.0
149
0.0
 93
        0
 94
      127
282
     0
 72
     1
 77
     1
171
     1
175
     1
179
     1
273
     0
  0
XRECORD
  5
391
102
{ACAD_REACTORS
330
390
102
}
330
390
100
AcDbXrecord
280
     1
102
ACAD_ROUNDTRIP_2010_MLEADER_STYLE
  0
CELLSTYLEMAP
  5
38E
102
{ACAD_REACTORS
330
38C
102
}
330
38C
100
AcDbCellStyleMap
 90
        3
300
CELLSTYLE
  1
TABLEFORMAT_BEGIN
 90
        5
170
     1
 91
        0
 92
    32768
 62
   257
 93
        1
300
CONTENTFORMAT
  1
CONTENTFORMAT_BEGIN
 90
        0
 91
        0
 92
        4
 93
        0
300

 40
0.0
140
1.0
 94
        5
 62
     0
340
11
144
0.25
309
CONTENTFORMAT_END
171
     1
301
MARGIN
  1
CELLMARGIN_BEGIN
 40
0.06
 40
0.06
 40
0.06
 40
0.06
 40
0.06
 40
0.06
309
CELLMARGIN_END
 94
        6
 95
        1
302
GRIDFORMAT
  1
GRIDFORMAT_BEGIN
 90
        0
 91
        1
 62
     0
 92
       -2
340
14
 93
        0
 40
0.045
309
GRIDFORMAT_END
 95
        2
302
GRIDFORMAT
  1
GRIDFORMAT_BEGIN
 90
        0
 91
        1
 62
     0
 92
       -2
340
14
 93
        0
 40
0.045
309
GRIDFORMAT_END
 95
        4
302
GRIDFORMAT
  1
GRIDFORMAT_BEGIN
 90
        0
 91
        1
 62
     0
 92
       -2
340
14
 93
        0
 40
0.045
309
GRIDFORMAT_END
 95
        8
302
GRIDFORMAT
  1
GRIDFORMAT_BEGIN
 90
        0
 91
        1
 62
     0
 92
       -2
340
14
 93
        0
 40
0.045
309
GRIDFORMAT_END
 95
       16
302
GRIDFORMAT
  1
GRIDFORMAT_BEGIN
 90
        0
 91
        1
 62
     0
 92
       -2
340
14
 93
        0
 40
0.045
309
GRIDFORMAT_END
 95
       32
302
GRIDFORMAT
  1
GRIDFORMAT_BEGIN
 90
        0
 91
        1
 62
     0
 92
       -2
340
14
 93
        0
 40
0.045
309
GRIDFORMAT_END
309
TABLEFORMAT_END
  1
CELLSTYLE_BEGIN
 90
        1
 91
        1
300
_TITLE
309
CELLSTYLE_END
300
CELLSTYLE
  1
TABLEFORMAT_BEGIN
 90
        5
170
     1
 91
        0
 92
        0
 62
   257
 93
        1
300
CONTENTFORMAT
  1
CONTENTFORMAT_BEGIN
 90
        0
 91
        0
 92
        4
 93
        0
300

 40
0.0
140
1.0
 94
        5
 62
     0
340
11
144
0.18
309
CONTENTFORMAT_END
171
     1
301
MARGIN
  1
CELLMARGIN_BEGIN
 40
0.06
 40
0.06
 40
0.06
 40
0.06
 40
0.06
 40
0.06
309
CELLMARGIN_END
 94
        6
 95
        1
302
GRIDFORMAT
  1
GRIDFORMAT_BEGIN
 90
        0
 91
        1
 62
     0
 92
       -2
340
14
 93
        0
 40
0.045
309
GRIDFORMAT_END
 95
        2
302
GRIDFORMAT
  1
GRIDFORMAT_BEGIN
 90
        0
 91
        1
 62
     0
 92
       -2
340
14
 93
        0
 40
0.045
309
GRIDFORMAT_END
 95
        4
302
GRIDFORMAT
  1
GRIDFORMAT_BEGIN
 90
        0
 91
        1
 62
     0
 92
       -2
340
14
 93
        0
 40
0.045
309
GRIDFORMAT_END
 95
        8
302
GRIDFORMAT
  1
GRIDFORMAT_BEGIN
 90
        0
 91
        1
 62
     0
 92
       -2
340
14
 93
        0
 40
0.045
309
GRIDFORMAT_END
 95
       16
302
GRIDFORMAT
  1
GRIDFORMAT_BEGIN
 90
        0
 91
        1
 62
     0
 92
       -2
340
14
 93
        0
 40
0.045
309
GRIDFORMAT_END
 95
       32
302
GRIDFORMAT
  1
GRIDFORMAT_BEGIN
 90
        0
 91
        1
 62
     0
 92
       -2
340
14
 93
        0
 40
0.045
309
GRIDFORMAT_END
309
TABLEFORMAT_END
  1
CELLSTYLE_BEGIN
 90
        2
 91
        1
300
_HEADER
309
CELLSTYLE_END
300
CELLSTYLE
  1
TABLEFORMAT_BEGIN
 90
        5
170
     1
 91
        0
 92
        0
 62
   257
 93
        1
300
CONTENTFORMAT
  1
CONTENTFORMAT_BEGIN
 90
        0
 91
        0
 92
        4
 93
        0
300

 40
0.0
140
1.0
 94
        2
 62
     0
340
11
144
0.18
309
CONTENTFORMAT_END
171
     1
301
MARGIN
  1
CELLMARGIN_BEGIN
 40
0.06
 40
0.06
 40
0.06
 40
0.06
 40
0.06
 40
0.06
309
CELLMARGIN_END
 94
        6
 95
        1
302
GRIDFORMAT
  1
GRIDFORMAT_BEGIN
 90
        0
 91
        1
 62
     0
 92
       -2
340
14
 93
        0
 40
0.045
309
GRIDFORMAT_END
 95
        2
302
GRIDFORMAT
  1
GRIDFORMAT_BEGIN
 90
        0
 91
        1
 62
     0
 92
       -2
340
14
 93
        0
 40
0.045
309
GRIDFORMAT_END
 95
        4
302
GRIDFORMAT
  1
GRIDFORMAT_BEGIN
 90
        0
 91
        1
 62
     0
 92
       -2
340
14
 93
        0
 40
0.045
309
GRIDFORMAT_END
 95
        8
302
GRIDFORMAT
  1
GRIDFORMAT_BEGIN
 90
        0
 91
        1
 62
     0
 92
       -2
340
14
 93
        0
 40
0.045
309
GRIDFORMAT_END
 95
       16
302
GRIDFORMAT
  1
GRIDFORMAT_BEGIN
 90
        0
 91
        1
 62
     0
 92
       -2
340
14
 93
        0
 40
0.045
309
GRIDFORMAT_END
 95
       32
302
GRIDFORMAT
  1
GRIDFORMAT_BEGIN
 90
        0
 91
        1
 62
     0
 92
       -2
340
14
 93
        0
 40
0.045
309
GRIDFORMAT_END
309
TABLEFORMAT_END
  1
CELLSTYLE_BEGIN
 90
        3
 91
        2
300
_DATA
309
CELLSTYLE_END
  0
XRECORD
  5
38D
102
{ACAD_REACTORS
330
38C
102
}
330
38C
100
AcDbXrecord
280
     1
102
ACAD_ROUNDTRIP_PRE2007_TABLESTYLE
 90
        4
 91
        0
  1

 92
        4
 93
        0
  2

 94
        4
 95
        0
  3

  0
XRECORD
  5
35F
102
{ACAD_REACTORS
330
35E
102
}
330
35E
100
AcDbXrecord
280
     1
102
RTVSPropertyOp0
 70
     1
102
RTVSPropertyOp1
 70
     1
102
RTVSPropertyOp2
 70
     1
102
RTVSPropertyOp3
 70
     1
102
RTVSPropertyOp4
 70
     1
102
RTVSPropertyOp5
 70
     1
102
RTVSPropertyOp6
 70
     1
102
RTVSPropertyOp7
 70
     1
102
RTVSPropertyOp8
 70
     1
102
RTVSPropertyOp9
 70
     1
102
RTVSPropertyOp10
 70
     1
102
RTVSPropertyOp11
 70
     1
102
RTVSPropertyOp12
 70
     1
102
RTVSPropertyOp13
 70
     1
102
RTVSPropertyOp14
 70
     1
102
RTVSPropertyOp15
 70
     1
102
RTVSPropertyOp16
 70
     1
102
RTVSPropertyOp17
 70
     1
102
RTVSPropertyOp18
 70
     1
102
RTVSPropertyOp19
 70
     1
102
RTVSPropertyOp20
 70
     1
102
RTVSPropertyOp21
 70
     1
102
RTVSPropertyOp22
 70
     1
102
RTVSPropertyOp23
 70
     1
102
RTVSPropertyOp24
 70
     1
102
RTVSPropertyOp25
 70
     1
102
RTVSPropertyOp26
 70
     1
102
RTVSPropertyOp27
 70
     1
102
RTVSPropertyOp28
 70
     1
102
RTVSPropertyOp29
 70
     1
102
RTVSPropertyOp30
 70
     1
102
RTVSPropertyOp31
 70
     1
102
RTVSPropertyOp32
 70
     1
102
RTVSPropertyOp33
 70
     1
102
RTVSPropertyOp34
 70
     1
102
RTVSPropertyOp35
 70
     1
102
RTVSPropertyOp36
 70
     1
102
RTVSPropertyOp37
 70
     1
102
RTVSPropertyOp38
 70
     1
102
RTVSPropertyOp39
 70
     1
102
RTVSPropertyOp40
 70
     1
102
RTVSPropertyOp41
 70
     1
102
RTVSPropertyOp42
 70
     1
102
RTVSPropertyOp43
 70
     1
102
RTVSPropertyOp44
 70
     1
102
RTVSPropertyOp45
 70
     1
102
RTVSPropertyOp46
 70
     1
102
RTVSPropertyOp47
 70
     1
102
RTVSPropertyOp48
 70
     1
102
RTVSPropertyOp49
 70
     1
102
RTVSPropertyOp50
 70
     1
102
RTVSPropertyOp51
 70
     0
102
RTVSPropertyOp52
 70
     0
102
RTVSPropertyOp53
 70
     1
102
RTVSPropertyOp54
 70
     1
102
RTVSPropertyOp55
 70
     1
102
RTVSPropertyOp56
 70
     1
102
RTVSPropertyOp57
 70
     1
102
RTVSPost2010Prop28
280
     1
102
RTVSPost2010PropOp28
 70
     1
102
RTVSPost2010Prop29
280
     1
102
RTVSPost2010PropOp29
 70
     1
102
RTVSPost2010Prop30
280
     0
102
RTVSPost2010PropOp30
 70
     1
102
RTVSPost2010Prop31
280
     0
102
RTVSPost2010PropOp31
 70
     1
102
RTVSPost2010Prop32
280
     0
102
RTVSPost2010PropOp32
 70
     1
102
RTVSPost2010Prop33
280
     0
102
RTVSPost2010PropOp33
 70
     1
102
RTVSPost2010Prop34
280
     0
102
RTVSPost2010PropOp34
 70
     1
102
RTVSPost2010Prop35
280
     0
102
RTVSPost2010PropOp35
 70
     1
102
RTVSPost2010Prop36
280
     0
102
RTVSPost2010PropOp36
 70
     1
102
RTVSPost2010Prop37
 90
       50
102
RTVSPost2010PropOp37
 70
     1
102
RTVSPost2010Prop38
140
0.0
102
RTVSPost2010PropOp38
 70
     1
102
RTVSPost2010Prop39
140
1.0
102
RTVSPost2010PropOp39
 70
     1
102
RTVSPost2010Prop40
 90
        0
102
RTVSPost2010PropOp40
 70
     1
102
RTVSPost2010Prop41ColorIndex
 90
      178
102
RTVSPost2010Prop41ColorRGB
 90
        0
102
RTVSPost2010PropOp41
 70
     1
102
RTVSPost2010Prop42
 90
       50
102
RTVSPost2010PropOp42
 70
     1
102
RTVSPost2010Prop43
 90
        3
102
RTVSPost2010PropOp43
 70
     1
102
RTVSPost2010Prop44ColorIndex
 90
        5
102
RTVSPost2010Prop44ColorRGB
 90
      255
102
RTVSPost2010PropOp44
 70
     1
102
RTVSPost2010Prop45
280
     0
102
RTVSPost2010PropOp45
 70
     1
102
RTVSPost2010Prop46
 90
       50
102
RTVSPost2010PropOp46
 70
     1
102
RTVSPost2010Prop47
 90
       50
102
RTVSPost2010PropOp47
 70
     1
102
RTVSPost2010Prop48
 90
       50
102
RTVSPost2010PropOp48
 70
     1
102
RTVSPost2010Prop49
280
     0
102
RTVSPost2010PropOp49
 70
     1
102
RTVSPost2010Prop50
 90
       50
102
RTVSPost2010PropOp50
 70
     1
102
RTVSPost2010Prop51ColorIndex
 90
      256
102
RTVSPost2010Prop51ColorRGB
 90
-16777216
102
RTVSPost2010PropOp51
 70
     0
102
RTVSPost2010Prop52
140
1.0
102
RTVSPost2010PropOp52
 70
     0
102
RTVSPost2010Prop53
 90
        2
102
RTVSPost2010PropOp53
 70
     1
102
RTVSPost2010Prop54
  1
strokes_ogs.tif
102
RTVSPost2010PropOp54
 70
     1
102
RTVSPost2010Prop55
280
     0
102
RTVSPost2010PropOp55
 70
     1
102
RTVSPost2010Prop56
140
1.0
102
RTVSPost2010PropOp56
 70
     1
102
RTVSPost2010Prop57
140
1.0
102
RTVSPost2010PropOp57
 70
     1
  0
XRECORD
  5
365
102
{ACAD_REACTORS
330
364
102
}
330
364
100
AcDbXrecord
280
     1
102
RTVSPropertyOp0
 70
     1
102
RTVSPropertyOp1
 70
     1
102
RTVSPropertyOp2
 70
     1
102
RTVSPropertyOp3
 70
     1
102
RTVSPropertyOp4
 70
     1
102
RTVSPropertyOp5
 70
     1
102
RTVSPropertyOp6
 70
     1
102
RTVSPropertyOp7
 70
     1
102
RTVSPropertyOp8
 70
     1
102
RTVSPropertyOp9
 70
     1
102
RTVSPropertyOp10
 70
     1
102
RTVSPropertyOp11
 70
     1
102
RTVSPropertyOp12
 70
     1
102
RTVSPropertyOp13
 70
     1
102
RTVSPropertyOp14
 70
     1
102
RTVSPropertyOp15
 70
     1
102
RTVSPropertyOp16
 70
     1
102
RTVSPropertyOp17
 70
     1
102
RTVSPropertyOp18
 70
     1
102
RTVSPropertyOp19
 70
     1
102
RTVSPropertyOp20
 70
     1
102
RTVSPropertyOp21
 70
     1
102
RTVSPropertyOp22
 70
     1
102
RTVSPropertyOp23
 70
     1
102
RTVSPropertyOp24
 70
     1
102
RTVSPropertyOp25
 70
     1
102
RTVSPropertyOp26
 70
     1
102
RTVSPropertyOp27
 70
     1
102
RTVSPropertyOp28
 70
     1
102
RTVSPropertyOp29
 70
     1
102
RTVSPropertyOp30
 70
     1
102
RTVSPropertyOp31
 70
     1
102
RTVSPropertyOp32
 70
     1
102
RTVSPropertyOp33
 70
     1
102
RTVSPropertyOp34
 70
     1
102
RTVSPropertyOp35
 70
     1
102
RTVSPropertyOp36
 70
     1
102
RTVSPropertyOp37
 70
     1
102
RTVSPropertyOp38
 70
     1
102
RTVSPropertyOp39
 70
     1
102
RTVSPropertyOp40
 70
     1
102
RTVSPropertyOp41
 70
     1
102
RTVSPropertyOp42
 70
     1
102
RTVSPropertyOp43
 70
     1
102
RTVSPropertyOp44
 70
     1
102
RTVSPropertyOp45
 70
     1
102
RTVSPropertyOp46
 70
     1
102
RTVSPropertyOp47
 70
     1
102
RTVSPropertyOp48
 70
     1
102
RTVSPropertyOp49
 70
     1
102
RTVSPropertyOp50
 70
     1
102
RTVSPropertyOp51
 70
     0
102
RTVSPropertyOp52
 70
     0
102
RTVSPropertyOp53
 70
     1
102
RTVSPropertyOp54
 70
     1
102
RTVSPropertyOp55
 70
     1
102
RTVSPropertyOp56
 70
     1
102
RTVSPropertyOp57
 70
     1
102
RTVSPost2010Prop28
280
     0
102
RTVSPost2010PropOp28
 70
     1
102
RTVSPost2010Prop29
280
     1
102
RTVSPost2010PropOp29
 70
     1
102
RTVSPost2010Prop30
280
     1
102
RTVSPost2010PropOp30
 70
     1
102
RTVSPost2010Prop31
280
     0
102
RTVSPost2010PropOp31
 70
     1
102
RTVSPost2010Prop32
280
     0
102
RTVSPost2010PropOp32
 70
     1
102
RTVSPost2010Prop33
280
     0
102
RTVSPost2010PropOp33
 70
     1
102
RTVSPost2010Prop34
280
     0
102
RTVSPost2010PropOp34
 70
     1
102
RTVSPost2010Prop35
280
     0
102
RTVSPost2010PropOp35
 70
     1
102
RTVSPost2010Prop36
280
     0
102
RTVSPost2010PropOp36
 70
     1
102
RTVSPost2010Prop37
 90
       50
102
RTVSPost2010PropOp37
 70
     1
102
RTVSPost2010Prop38
140
0.0
102
RTVSPost2010PropOp38
 70
     1
102
RTVSPost2010Prop39
140
1.0
102
RTVSPost2010PropOp39
 70
     1
102
RTVSPost2010Prop40
 90
        0
102
RTVSPost2010PropOp40
 70
     1
102
RTVSPost2010Prop41ColorIndex
 90
      178
102
RTVSPost2010Prop41ColorRGB
 90
        0
102
RTVSPost2010PropOp41
 70
     1
102
RTVSPost2010Prop42
 90
       50
102
RTVSPost2010PropOp42
 70
     1
102
RTVSPost2010Prop43
 90
        3
102
RTVSPost2010PropOp43
 70
     1
102
RTVSPost2010Prop44ColorIndex
 90
        5
102
RTVSPost2010Prop44ColorRGB
 90
      255
102
RTVSPost2010PropOp44
 70
     1
102
RTVSPost2010Prop45
280
     0
102
RTVSPost2010PropOp45
 70
     1
102
RTVSPost2010Prop46
 90
       50
102
RTVSPost2010PropOp46
 70
     1
102
RTVSPost2010Prop47
 90
       50
102
RTVSPost2010PropOp47
 70
     1
102
RTVSPost2010Prop48
 90
       50
102
RTVSPost2010PropOp48
 70
     1
102
RTVSPost2010Prop49
280
     0
102
RTVSPost2010PropOp49
 70
     1
102
RTVSPost2010Prop50
 90
       50
102
RTVSPost2010PropOp50
 70
     1
102
RTVSPost2010Prop51ColorIndex
 90
      256
102
RTVSPost2010Prop51ColorRGB
 90
-16777216
102
RTVSPost2010PropOp51
 70
     0
102
RTVSPost2010Prop52
140
1.0
102
RTVSPost2010PropOp52
 70
     0
102
RTVSPost2010Prop53
 90
        2
102
RTVSPost2010PropOp53
 70
     1
102
RTVSPost2010Prop54
  1
strokes_ogs.tif
102
RTVSPost2010PropOp54
 70
     1
102
RTVSPost2010Prop55
280
     0
102
RTVSPost2010PropOp55
 70
     1
102
RTVSPost2010Prop56
140
1.0
102
RTVSPost2010PropOp56
 70
     1
102
RTVSPost2010Prop57
140
1.0
102
RTVSPost2010PropOp57
 70
     1
  0
XRECORD
  5
36D
102
{ACAD_REACTORS
330
36C
102
}
330
36C
100
AcDbXrecord
280
     1
102
RTVSPropertyOp0
 70
     1
102
RTVSPropertyOp1
 70
     1
102
RTVSPropertyOp2
 70
     1
102
RTVSPropertyOp3
 70
     1
102
RTVSPropertyOp4
 70
     1
102
RTVSPropertyOp5
 70
     1
102
RTVSPropertyOp6
 70
     1
102
RTVSPropertyOp7
 70
     1
102
RTVSPropertyOp8
 70
     1
102
RTVSPropertyOp9
 70
     1
102
RTVSPropertyOp10
 70
     1
102
RTVSPropertyOp11
 70
     1
102
RTVSPropertyOp12
 70
     1
102
RTVSPropertyOp13
 70
     1
102
RTVSPropertyOp14
 70
     1
102
RTVSPropertyOp15
 70
     1
102
RTVSPropertyOp16
 70
     1
102
RTVSPropertyOp17
 70
     1
102
RTVSPropertyOp18
 70
     1
102
RTVSPropertyOp19
 70
     1
102
RTVSPropertyOp20
 70
     1
102
RTVSPropertyOp21
 70
     1
102
RTVSPropertyOp22
 70
     1
102
RTVSPropertyOp23
 70
     1
102
RTVSPropertyOp24
 70
     1
102
RTVSPropertyOp25
 70
     1
102
RTVSPropertyOp26
 70
     1
102
RTVSPropertyOp27
 70
     1
102
RTVSPropertyOp28
 70
     1
102
RTVSPropertyOp29
 70
     1
102
RTVSPropertyOp30
 70
     1
102
RTVSPropertyOp31
 70
     1
102
RTVSPropertyOp32
 70
     1
102
RTVSPropertyOp33
 70
     1
102
RTVSPropertyOp34
 70
     1
102
RTVSPropertyOp35
 70
     1
102
RTVSPropertyOp36
 70
     1
102
RTVSPropertyOp37
 70
     1
102
RTVSPropertyOp38
 70
     1
102
RTVSPropertyOp39
 70
     1
102
RTVSPropertyOp40
 70
     1
102
RTVSPropertyOp41
 70
     1
102
RTVSPropertyOp42
 70
     1
102
RTVSPropertyOp43
 70
     1
102
RTVSPropertyOp44
 70
     1
102
RTVSPropertyOp45
 70
     1
102
RTVSPropertyOp46
 70
     1
102
RTVSPropertyOp47
 70
     1
102
RTVSPropertyOp48
 70
     1
102
RTVSPropertyOp49
 70
     1
102
RTVSPropertyOp50
 70
     1
102
RTVSPropertyOp51
 70
     0
102
RTVSPropertyOp52
 70
     0
102
RTVSPropertyOp53
 70
     1
102
RTVSPropertyOp54
 70
     1
102
RTVSPropertyOp55
 70
     1
102
RTVSPropertyOp56
 70
     1
102
RTVSPropertyOp57
 70
     1
102
RTVSPost2010Prop28
280
     0
102
RTVSPost2010PropOp28
 70
     1
102
RTVSPost2010Prop29
280
     1
102
RTVSPost2010PropOp29
 70
     1
102
RTVSPost2010Prop30
280
     1
102
RTVSPost2010PropOp30
 70
     1
102
RTVSPost2010Prop31
280
     0
102
RTVSPost2010PropOp31
 70
     1
102
RTVSPost2010Prop32
280
     0
102
RTVSPost2010PropOp32
 70
     1
102
RTVSPost2010Prop33
280
     0
102
RTVSPost2010PropOp33
 70
     1
102
RTVSPost2010Prop34
280
     0
102
RTVSPost2010PropOp34
 70
     1
102
RTVSPost2010Prop35
280
     0
102
RTVSPost2010PropOp35
 70
     1
102
RTVSPost2010Prop36
280
     0
102
RTVSPost2010PropOp36
 70
     1
102
RTVSPost2010Prop37
 90
       50
102
RTVSPost2010PropOp37
 70
     1
102
RTVSPost2010Prop38
140
0.0
102
RTVSPost2010PropOp38
 70
     1
102
RTVSPost2010Prop39
140
1.0
102
RTVSPost2010PropOp39
 70
     1
102
RTVSPost2010Prop40
 90
        0
102
RTVSPost2010PropOp40
 70
     1
102
RTVSPost2010Prop41ColorIndex
 90
      178
102
RTVSPost2010Prop41ColorRGB
 90
        0
102
RTVSPost2010PropOp41
 70
     1
102
RTVSPost2010Prop42
 90
       50
102
RTVSPost2010PropOp42
 70
     1
102
RTVSPost2010Prop43
 90
        3
102
RTVSPost2010PropOp43
 70
     1
102
RTVSPost2010Prop44ColorIndex
 90
        5
102
RTVSPost2010Prop44ColorRGB
 90
      255
102
RTVSPost2010PropOp44
 70
     1
102
RTVSPost2010Prop45
280
     0
102
RTVSPost2010PropOp45
 70
     1
102
RTVSPost2010Prop46
 90
       50
102
RTVSPost2010PropOp46
 70
     1
102
RTVSPost2010Prop47
 90
       50
102
RTVSPost2010PropOp47
 70
     1
102
RTVSPost2010Prop48
 90
       50
102
RTVSPost2010PropOp48
 70
     1
102
RTVSPost2010Prop49
280
     0
102
RTVSPost2010PropOp49
 70
     1
102
RTVSPost2010Prop50
 90
       50
102
RTVSPost2010PropOp50
 70
     1
102
RTVSPost2010Prop51ColorIndex
 90
      256
102
RTVSPost2010Prop51ColorRGB
 90
-16777216
102
RTVSPost2010PropOp51
 70
     0
102
RTVSPost2010Prop52
140
1.0
102
RTVSPost2010PropOp52
 70
     0
102
RTVSPost2010Prop53
 90
        2
102
RTVSPost2010PropOp53
 70
     1
102
RTVSPost2010Prop54
  1
strokes_ogs.tif
102
RTVSPost2010PropOp54
 70
     1
102
RTVSPost2010Prop55
280
     0
102
RTVSPost2010PropOp55
 70
     1
102
RTVSPost2010Prop56
140
1.0
102
RTVSPost2010PropOp56
 70
     1
102
RTVSPost2010Prop57
140
1.0
102
RTVSPost2010PropOp57
 70
     1
  0
XRECORD
  5
375
102
{ACAD_REACTORS
330
374
102
}
330
374
100
AcDbXrecord
280
     1
102
RTVSPropertyOp0
 70
     1
102
RTVSPropertyOp1
 70
     1
102
RTVSPropertyOp2
 70
     1
102
RTVSPropertyOp3
 70
     1
102
RTVSPropertyOp4
 70
     1
102
RTVSPropertyOp5
 70
     1
102
RTVSPropertyOp6
 70
     1
102
RTVSPropertyOp7
 70
     1
102
RTVSPropertyOp8
 70
     1
102
RTVSPropertyOp9
 70
     1
102
RTVSPropertyOp10
 70
     1
102
RTVSPropertyOp11
 70
     1
102
RTVSPropertyOp12
 70
     1
102
RTVSPropertyOp13
 70
     1
102
RTVSPropertyOp14
 70
     1
102
RTVSPropertyOp15
 70
     1
102
RTVSPropertyOp16
 70
     1
102
RTVSPropertyOp17
 70
     1
102
RTVSPropertyOp18
 70
     1
102
RTVSPropertyOp19
 70
     1
102
RTVSPropertyOp20
 70
     1
102
RTVSPropertyOp21
 70
     1
102
RTVSPropertyOp22
 70
     1
102
RTVSPropertyOp23
 70
     1
102
RTVSPropertyOp24
 70
     1
102
RTVSPropertyOp25
 70
     1
102
RTVSPropertyOp26
 70
     1
102
RTVSPropertyOp27
 70
     1
102
RTVSPropertyOp28
 70
     1
102
RTVSPropertyOp29
 70
     1
102
RTVSPropertyOp30
 70
     1
102
RTVSPropertyOp31
 70
     1
102
RTVSPropertyOp32
 70
     1
102
RTVSPropertyOp33
 70
     1
102
RTVSPropertyOp34
 70
     1
102
RTVSPropertyOp35
 70
     1
102
RTVSPropertyOp36
 70
     1
102
RTVSPropertyOp37
 70
     1
102
RTVSPropertyOp38
 70
     1
102
RTVSPropertyOp39
 70
     1
102
RTVSPropertyOp40
 70
     1
102
RTVSPropertyOp41
 70
     1
102
RTVSPropertyOp42
 70
     1
102
RTVSPropertyOp43
 70
     1
102
RTVSPropertyOp44
 70
     1
102
RTVSPropertyOp45
 70
     1
102
RTVSPropertyOp46
 70
     1
102
RTVSPropertyOp47
 70
     1
102
RTVSPropertyOp48
 70
     1
102
RTVSPropertyOp49
 70
     1
102
RTVSPropertyOp50
 70
     1
102
RTVSPropertyOp51
 70
     0
102
RTVSPropertyOp52
 70
     0
102
RTVSPropertyOp53
 70
     1
102
RTVSPropertyOp54
 70
     1
102
RTVSPropertyOp55
 70
     1
102
RTVSPropertyOp56
 70
     1
102
RTVSPropertyOp57
 70
     1
102
RTVSPost2010Prop28
280
     0
102
RTVSPost2010PropOp28
 70
     1
102
RTVSPost2010Prop29
280
     1
102
RTVSPost2010PropOp29
 70
     1
102
RTVSPost2010Prop30
280
     1
102
RTVSPost2010PropOp30
 70
     1
102
RTVSPost2010Prop31
280
     0
102
RTVSPost2010PropOp31
 70
     1
102
RTVSPost2010Prop32
280
     0
102
RTVSPost2010PropOp32
 70
     1
102
RTVSPost2010Prop33
280
     0
102
RTVSPost2010PropOp33
 70
     1
102
RTVSPost2010Prop34
280
     0
102
RTVSPost2010PropOp34
 70
     1
102
RTVSPost2010Prop35
280
     0
102
RTVSPost2010PropOp35
 70
     1
102
RTVSPost2010Prop36
280
     0
102
RTVSPost2010PropOp36
 70
     1
102
RTVSPost2010Prop37
 90
       50
102
RTVSPost2010PropOp37
 70
     1
102
RTVSPost2010Prop38
140
0.0
102
RTVSPost2010PropOp38
 70
     1
102
RTVSPost2010Prop39
140
1.0
102
RTVSPost2010PropOp39
 70
     1
102
RTVSPost2010Prop40
 90
        0
102
RTVSPost2010PropOp40
 70
     1
102
RTVSPost2010Prop41ColorIndex
 90
      178
102
RTVSPost2010Prop41ColorRGB
 90
        0
102
RTVSPost2010PropOp41
 70
     1
102
RTVSPost2010Prop42
 90
       50
102
RTVSPost2010PropOp42
 70
     1
102
RTVSPost2010Prop43
 90
        3
102
RTVSPost2010PropOp43
 70
     1
102
RTVSPost2010Prop44ColorIndex
 90
        5
102
RTVSPost2010Prop44ColorRGB
 90
      255
102
RTVSPost2010PropOp44
 70
     1
102
RTVSPost2010Prop45
280
     0
102
RTVSPost2010PropOp45
 70
     1
102
RTVSPost2010Prop46
 90
       50
102
RTVSPost2010PropOp46
 70
     1
102
RTVSPost2010Prop47
 90
       50
102
RTVSPost2010PropOp47
 70
     1
102
RTVSPost2010Prop48
 90
       50
102
RTVSPost2010PropOp48
 70
     1
102
RTVSPost2010Prop49
280
     0
102
RTVSPost2010PropOp49
 70
     1
102
RTVSPost2010Prop50
 90
       50
102
RTVSPost2010PropOp50
 70
     1
102
RTVSPost2010Prop51ColorIndex
 90
      256
102
RTVSPost2010Prop51ColorRGB
 90
-16777216
102
RTVSPost2010PropOp51
 70
     0
102
RTVSPost2010Prop52
140
1.0
102
RTVSPost2010PropOp52
 70
     0
102
RTVSPost2010Prop53
 90
        2
102
RTVSPost2010PropOp53
 70
     1
102
RTVSPost2010Prop54
  1
strokes_ogs.tif
102
RTVSPost2010PropOp54
 70
     1
102
RTVSPost2010Prop55
280
     0
102
RTVSPost2010PropOp55
 70
     1
102
RTVSPost2010Prop56
140
1.0
102
RTVSPost2010PropOp56
 70
     1
102
RTVSPost2010Prop57
140
1.0
102
RTVSPost2010PropOp57
 70
     1
  0
XRECORD
  5
369
102
{ACAD_REACTORS
330
368
102
}
330
368
100
AcDbXrecord
280
     1
102
RTVSPropertyOp0
 70
     1
102
RTVSPropertyOp1
 70
     1
102
RTVSPropertyOp2
 70
     1
102
RTVSPropertyOp3
 70
     1
102
RTVSPropertyOp4
 70
     1
102
RTVSPropertyOp5
 70
     1
102
RTVSPropertyOp6
 70
     1
102
RTVSPropertyOp7
 70
     1
102
RTVSPropertyOp8
 70
     1
102
RTVSPropertyOp9
 70
     1
102
RTVSPropertyOp10
 70
     1
102
RTVSPropertyOp11
 70
     1
102
RTVSPropertyOp12
 70
     1
102
RTVSPropertyOp13
 70
     1
102
RTVSPropertyOp14
 70
     1
102
RTVSPropertyOp15
 70
     1
102
RTVSPropertyOp16
 70
     1
102
RTVSPropertyOp17
 70
     1
102
RTVSPropertyOp18
 70
     1
102
RTVSPropertyOp19
 70
     1
102
RTVSPropertyOp20
 70
     1
102
RTVSPropertyOp21
 70
     1
102
RTVSPropertyOp22
 70
     1
102
RTVSPropertyOp23
 70
     1
102
RTVSPropertyOp24
 70
     1
102
RTVSPropertyOp25
 70
     1
102
RTVSPropertyOp26
 70
     1
102
RTVSPropertyOp27
 70
     1
102
RTVSPropertyOp28
 70
     1
102
RTVSPropertyOp29
 70
     1
102
RTVSPropertyOp30
 70
     1
102
RTVSPropertyOp31
 70
     1
102
RTVSPropertyOp32
 70
     1
102
RTVSPropertyOp33
 70
     1
102
RTVSPropertyOp34
 70
     1
102
RTVSPropertyOp35
 70
     1
102
RTVSPropertyOp36
 70
     1
102
RTVSPropertyOp37
 70
     1
102
RTVSPropertyOp38
 70
     1
102
RTVSPropertyOp39
 70
     1
102
RTVSPropertyOp40
 70
     1
102
RTVSPropertyOp41
 70
     1
102
RTVSPropertyOp42
 70
     1
102
RTVSPropertyOp43
 70
     1
102
RTVSPropertyOp44
 70
     1
102
RTVSPropertyOp45
 70
     1
102
RTVSPropertyOp46
 70
     1
102
RTVSPropertyOp47
 70
     1
102
RTVSPropertyOp48
 70
     1
102
RTVSPropertyOp49
 70
     1
102
RTVSPropertyOp50
 70
     1
102
RTVSPropertyOp51
 70
     0
102
RTVSPropertyOp52
 70
     0
102
RTVSPropertyOp53
 70
     1
102
RTVSPropertyOp54
 70
     1
102
RTVSPropertyOp55
 70
     1
102
RTVSPropertyOp56
 70
     1
102
RTVSPropertyOp57
 70
     1
102
RTVSPost2010Prop28
280
     0
102
RTVSPost2010PropOp28
 70
     1
102
RTVSPost2010Prop29
280
     1
102
RTVSPost2010PropOp29
 70
     1
102
RTVSPost2010Prop30
280
     1
102
RTVSPost2010PropOp30
 70
     1
102
RTVSPost2010Prop31
280
     0
102
RTVSPost2010PropOp31
 70
     1
102
RTVSPost2010Prop32
280
     0
102
RTVSPost2010PropOp32
 70
     1
102
RTVSPost2010Prop33
280
     0
102
RTVSPost2010PropOp33
 70
     1
102
RTVSPost2010Prop34
280
     0
102
RTVSPost2010PropOp34
 70
     1
102
RTVSPost2010Prop35
280
     0
102
RTVSPost2010PropOp35
 70
     1
102
RTVSPost2010Prop36
280
     0
102
RTVSPost2010PropOp36
 70
     1
102
RTVSPost2010Prop37
 90
       50
102
RTVSPost2010PropOp37
 70
     1
102
RTVSPost2010Prop38
140
0.0
102
RTVSPost2010PropOp38
 70
     1
102
RTVSPost2010Prop39
140
1.0
102
RTVSPost2010PropOp39
 70
     1
102
RTVSPost2010Prop40
 90
        0
102
RTVSPost2010PropOp40
 70
     1
102
RTVSPost2010Prop41ColorIndex
 90
      178
102
RTVSPost2010Prop41ColorRGB
 90
        0
102
RTVSPost2010PropOp41
 70
     1
102
RTVSPost2010Prop42
 90
       50
102
RTVSPost2010PropOp42
 70
     1
102
RTVSPost2010Prop43
 90
        3
102
RTVSPost2010PropOp43
 70
     1
102
RTVSPost2010Prop44ColorIndex
 90
        5
102
RTVSPost2010Prop44ColorRGB
 90
      255
102
RTVSPost2010PropOp44
 70
     1
102
RTVSPost2010Prop45
280
     0
102
RTVSPost2010PropOp45
 70
     1
102
RTVSPost2010Prop46
 90
       50
102
RTVSPost2010PropOp46
 70
     1
102
RTVSPost2010Prop47
 90
       50
102
RTVSPost2010PropOp47
 70
     1
102
RTVSPost2010Prop48
 90
       50
102
RTVSPost2010PropOp48
 70
     1
102
RTVSPost2010Prop49
280
     0
102
RTVSPost2010PropOp49
 70
     1
102
RTVSPost2010Prop50
 90
       50
102
RTVSPost2010PropOp50
 70
     1
102
RTVSPost2010Prop51ColorIndex
 90
      256
102
RTVSPost2010Prop51ColorRGB
 90
-16777216
102
RTVSPost2010PropOp51
 70
     0
102
RTVSPost2010Prop52
140
1.0
102
RTVSPost2010PropOp52
 70
     0
102
RTVSPost2010Prop53
 90
        2
102
RTVSPost2010PropOp53
 70
     1
102
RTVSPost2010Prop54
  1
strokes_ogs.tif
102
RTVSPost2010PropOp54
 70
     1
102
RTVSPost2010Prop55
280
     0
102
RTVSPost2010PropOp55
 70
     1
102
RTVSPost2010Prop56
140
1.0
102
RTVSPost2010PropOp56
 70
     1
102
RTVSPost2010Prop57
140
1.0
102
RTVSPost2010PropOp57
 70
     1
  0
XRECORD
  5
36B
102
{ACAD_REACTORS
330
36A
102
}
330
36A
100
AcDbXrecord
280
     1
102
RTVSPropertyOp0
 70
     1
102
RTVSPropertyOp1
 70
     1
102
RTVSPropertyOp2
 70
     1
102
RTVSPropertyOp3
 70
     1
102
RTVSPropertyOp4
 70
     1
102
RTVSPropertyOp5
 70
     1
102
RTVSPropertyOp6
 70
     1
102
RTVSPropertyOp7
 70
     1
102
RTVSPropertyOp8
 70
     1
102
RTVSPropertyOp9
 70
     1
102
RTVSPropertyOp10
 70
     1
102
RTVSPropertyOp11
 70
     1
102
RTVSPropertyOp12
 70
     1
102
RTVSPropertyOp13
 70
     1
102
RTVSPropertyOp14
 70
     1
102
RTVSPropertyOp15
 70
     1
102
RTVSPropertyOp16
 70
     1
102
RTVSPropertyOp17
 70
     1
102
RTVSPropertyOp18
 70
     1
102
RTVSPropertyOp19
 70
     1
102
RTVSPropertyOp20
 70
     1
102
RTVSPropertyOp21
 70
     1
102
RTVSPropertyOp22
 70
     1
102
RTVSPropertyOp23
 70
     1
102
RTVSPropertyOp24
 70
     1
102
RTVSPropertyOp25
 70
     1
102
RTVSPropertyOp26
 70
     1
102
RTVSPropertyOp27
 70
     1
102
RTVSPropertyOp28
 70
     1
102
RTVSPropertyOp29
 70
     1
102
RTVSPropertyOp30
 70
     1
102
RTVSPropertyOp31
 70
     1
102
RTVSPropertyOp32
 70
     1
102
RTVSPropertyOp33
 70
     1
102
RTVSPropertyOp34
 70
     1
102
RTVSPropertyOp35
 70
     1
102
RTVSPropertyOp36
 70
     1
102
RTVSPropertyOp37
 70
     1
102
RTVSPropertyOp38
 70
     1
102
RTVSPropertyOp39
 70
     1
102
RTVSPropertyOp40
 70
     1
102
RTVSPropertyOp41
 70
     1
102
RTVSPropertyOp42
 70
     1
102
RTVSPropertyOp43
 70
     1
102
RTVSPropertyOp44
 70
     1
102
RTVSPropertyOp45
 70
     1
102
RTVSPropertyOp46
 70
     1
102
RTVSPropertyOp47
 70
     1
102
RTVSPropertyOp48
 70
     1
102
RTVSPropertyOp49
 70
     1
102
RTVSPropertyOp50
 70
     1
102
RTVSPropertyOp51
 70
     0
102
RTVSPropertyOp52
 70
     0
102
RTVSPropertyOp53
 70
     1
102
RTVSPropertyOp54
 70
     1
102
RTVSPropertyOp55
 70
     1
102
RTVSPropertyOp56
 70
     1
102
RTVSPropertyOp57
 70
     1
102
RTVSPost2010Prop28
280
     0
102
RTVSPost2010PropOp28
 70
     1
102
RTVSPost2010Prop29
280
     1
102
RTVSPost2010PropOp29
 70
     1
102
RTVSPost2010Prop30
280
     1
102
RTVSPost2010PropOp30
 70
     1
102
RTVSPost2010Prop31
280
     0
102
RTVSPost2010PropOp31
 70
     1
102
RTVSPost2010Prop32
280
     0
102
RTVSPost2010PropOp32
 70
     1
102
RTVSPost2010Prop33
280
     0
102
RTVSPost2010PropOp33
 70
     1
102
RTVSPost2010Prop34
280
     0
102
RTVSPost2010PropOp34
 70
     1
102
RTVSPost2010Prop35
280
     0
102
RTVSPost2010PropOp35
 70
     1
102
RTVSPost2010Prop36
280
     0
102
RTVSPost2010PropOp36
 70
     1
102
RTVSPost2010Prop37
 90
       50
102
RTVSPost2010PropOp37
 70
     1
102
RTVSPost2010Prop38
140
0.0
102
RTVSPost2010PropOp38
 70
     1
102
RTVSPost2010Prop39
140
1.0
102
RTVSPost2010PropOp39
 70
     1
102
RTVSPost2010Prop40
 90
        0
102
RTVSPost2010PropOp40
 70
     1
102
RTVSPost2010Prop41ColorIndex
 90
      178
102
RTVSPost2010Prop41ColorRGB
 90
        0
102
RTVSPost2010PropOp41
 70
     1
102
RTVSPost2010Prop42
 90
       50
102
RTVSPost2010PropOp42
 70
     1
102
RTVSPost2010Prop43
 90
        3
102
RTVSPost2010PropOp43
 70
     1
102
RTVSPost2010Prop44ColorIndex
 90
        5
102
RTVSPost2010Prop44ColorRGB
 90
      255
102
RTVSPost2010PropOp44
 70
     1
102
RTVSPost2010Prop45
280
     0
102
RTVSPost2010PropOp45
 70
     1
102
RTVSPost2010Prop46
 90
       50
102
RTVSPost2010PropOp46
 70
     1
102
RTVSPost2010Prop47
 90
       50
102
RTVSPost2010PropOp47
 70
     1
102
RTVSPost2010Prop48
 90
       50
102
RTVSPost2010PropOp48
 70
     1
102
RTVSPost2010Prop49
280
     0
102
RTVSPost2010PropOp49
 70
     1
102
RTVSPost2010Prop50
 90
       50
102
RTVSPost2010PropOp50
 70
     1
102
RTVSPost2010Prop51ColorIndex
 90
      256
102
RTVSPost2010Prop51ColorRGB
 90
-16777216
102
RTVSPost2010PropOp51
 70
     0
102
RTVSPost2010Prop52
140
1.0
102
RTVSPost2010PropOp52
 70
     0
102
RTVSPost2010Prop53
 90
        2
102
RTVSPost2010PropOp53
 70
     1
102
RTVSPost2010Prop54
  1
strokes_ogs.tif
102
RTVSPost2010PropOp54
 70
     1
102
RTVSPost2010Prop55
280
     0
102
RTVSPost2010PropOp55
 70
     1
102
RTVSPost2010Prop56
140
1.0
102
RTVSPost2010PropOp56
 70
     1
102
RTVSPost2010Prop57
140
1.0
102
RTVSPost2010PropOp57
 70
     1
  0
XRECORD
  5
37B
102
{ACAD_REACTORS
330
37A
102
}
330
37A
100
AcDbXrecord
280
     1
102
RTVSPropertyOp0
 70
     0
102
RTVSPropertyOp1
 70
     0
102
RTVSPropertyOp2
 70
     0
102
RTVSPropertyOp3
 70
     0
102
RTVSPropertyOp4
 70
     0
102
RTVSPropertyOp5
 70
     0
102
RTVSPropertyOp6
 70
     0
102
RTVSPropertyOp7
 70
     0
102
RTVSPropertyOp8
 70
     0
102
RTVSPropertyOp9
 70
     0
102
RTVSPropertyOp10
 70
     0
102
RTVSPropertyOp11
 70
     0
102
RTVSPropertyOp12
 70
     0
102
RTVSPropertyOp13
 70
     0
102
RTVSPropertyOp14
 70
     2
102
RTVSPropertyOp15
 70
     0
102
RTVSPropertyOp16
 70
     0
102
RTVSPropertyOp17
 70
     0
102
RTVSPropertyOp18
 70
     0
102
RTVSPropertyOp19
 70
     0
102
RTVSPropertyOp20
 70
     0
102
RTVSPropertyOp21
 70
     0
102
RTVSPropertyOp22
 70
     0
102
RTVSPropertyOp23
 70
     0
102
RTVSPropertyOp24
 70
     0
102
RTVSPropertyOp25
 70
     0
102
RTVSPropertyOp26
 70
     0
102
RTVSPropertyOp27
 70
     0
102
RTVSPropertyOp28
 70
     0
102
RTVSPropertyOp29
 70
     0
102
RTVSPropertyOp30
 70
     0
102
RTVSPropertyOp31
 70
     0
102
RTVSPropertyOp32
 70
     0
102
RTVSPropertyOp33
 70
     0
102
RTVSPropertyOp34
 70
     0
102
RTVSPropertyOp35
 70
     0
102
RTVSPropertyOp36
 70
     0
102
RTVSPropertyOp37
 70
     0
102
RTVSPropertyOp38
 70
     0
102
RTVSPropertyOp39
 70
     0
102
RTVSPropertyOp40
 70
     0
102
RTVSPropertyOp41
 70
     0
102
RTVSPropertyOp42
 70
     0
102
RTVSPropertyOp43
 70
     0
102
RTVSPropertyOp44
 70
     0
102
RTVSPropertyOp45
 70
     0
102
RTVSPropertyOp46
 70
     0
102
RTVSPropertyOp47
 70
     0
102
RTVSPropertyOp48
 70
     0
102
RTVSPropertyOp49
 70
     0
102
RTVSPropertyOp50
 70
     0
102
RTVSPropertyOp51
 70
     0
102
RTVSPropertyOp52
 70
     0
102
RTVSPropertyOp53
 70
     0
102
RTVSPropertyOp54
 70
     0
102
RTVSPropertyOp55
 70
     0
102
RTVSPropertyOp56
 70
     0
102
RTVSPropertyOp57
 70
     0
102
RTVSPost2010Prop28
280
     0
102
RTVSPost2010PropOp28
 70
     0
102
RTVSPost2010Prop29
280
     1
102
RTVSPost2010PropOp29
 70
     0
102
RTVSPost2010Prop30
280
     1
102
RTVSPost2010PropOp30
 70
     0
102
RTVSPost2010Prop31
280
     0
102
RTVSPost2010PropOp31
 70
     0
102
RTVSPost2010Prop32
280
     0
102
RTVSPost2010PropOp32
 70
     0
102
RTVSPost2010Prop33
280
     0
102
RTVSPost2010PropOp33
 70
     0
102
RTVSPost2010Prop34
280
     0
102
RTVSPost2010PropOp34
 70
     0
102
RTVSPost2010Prop35
280
     0
102
RTVSPost2010PropOp35
 70
     0
102
RTVSPost2010Prop36
280
     0
102
RTVSPost2010PropOp36
 70
     0
102
RTVSPost2010Prop37
 90
       50
102
RTVSPost2010PropOp37
 70
     0
102
RTVSPost2010Prop38
140
0.0
102
RTVSPost2010PropOp38
 70
     0
102
RTVSPost2010Prop39
140
1.0
102
RTVSPost2010PropOp39
 70
     0
102
RTVSPost2010Prop40
 90
        0
102
RTVSPost2010PropOp40
 70
     0
102
RTVSPost2010Prop41ColorIndex
 90
      178
102
RTVSPost2010Prop41ColorRGB
 90
        0
102
RTVSPost2010PropOp41
 70
     0
102
RTVSPost2010Prop42
 90
       50
102
RTVSPost2010PropOp42
 70
     0
102
RTVSPost2010Prop43
 90
        3
102
RTVSPost2010PropOp43
 70
     0
102
RTVSPost2010Prop44ColorIndex
 90
        5
102
RTVSPost2010Prop44ColorRGB
 90
      255
102
RTVSPost2010PropOp44
 70
     0
102
RTVSPost2010Prop45
280
     0
102
RTVSPost2010PropOp45
 70
     0
102
RTVSPost2010Prop46
 90
       50
102
RTVSPost2010PropOp46
 70
     0
102
RTVSPost2010Prop47
 90
       50
102
RTVSPost2010PropOp47
 70
     0
102
RTVSPost2010Prop48
 90
       50
102
RTVSPost2010PropOp48
 70
     0
102
RTVSPost2010Prop49
280
     0
102
RTVSPost2010PropOp49
 70
     0
102
RTVSPost2010Prop50
 90
       50
102
RTVSPost2010PropOp50
 70
     0
102
RTVSPost2010Prop51ColorIndex
 90
      256
102
RTVSPost2010Prop51ColorRGB
 90
-16777216
102
RTVSPost2010PropOp51
 70
     0
102
RTVSPost2010Prop52
140
1.0
102
RTVSPost2010PropOp52
 70
     0
102
RTVSPost2010Prop53
 90
        2
102
RTVSPost2010PropOp53
 70
     0
102
RTVSPost2010Prop54
  1
strokes_ogs.tif
102
RTVSPost2010PropOp54
 70
     0
102
RTVSPost2010Prop55
280
     0
102
RTVSPost2010PropOp55
 70
     0
102
RTVSPost2010Prop56
140
1.0
102
RTVSPost2010PropOp56
 70
     0
102
RTVSPost2010Prop57
140
1.0
102
RTVSPost2010PropOp57
 70
     0
  0
XRECORD
  5
373
102
{ACAD_REACTORS
330
372
102
}
330
372
100
AcDbXrecord
280
     1
102
RTVSPropertyOp0
 70
     1
102
RTVSPropertyOp1
 70
     1
102
RTVSPropertyOp2
 70
     1
102
RTVSPropertyOp3
 70
     1
102
RTVSPropertyOp4
 70
     1
102
RTVSPropertyOp5
 70
     1
102
RTVSPropertyOp6
 70
     1
102
RTVSPropertyOp7
 70
     1
102
RTVSPropertyOp8
 70
     1
102
RTVSPropertyOp9
 70
     1
102
RTVSPropertyOp10
 70
     1
102
RTVSPropertyOp11
 70
     1
102
RTVSPropertyOp12
 70
     1
102
RTVSPropertyOp13
 70
     1
102
RTVSPropertyOp14
 70
     1
102
RTVSPropertyOp15
 70
     1
102
RTVSPropertyOp16
 70
     1
102
RTVSPropertyOp17
 70
     1
102
RTVSPropertyOp18
 70
     1
102
RTVSPropertyOp19
 70
     1
102
RTVSPropertyOp20
 70
     1
102
RTVSPropertyOp21
 70
     1
102
RTVSPropertyOp22
 70
     1
102
RTVSPropertyOp23
 70
     1
102
RTVSPropertyOp24
 70
     1
102
RTVSPropertyOp25
 70
     1
102
RTVSPropertyOp26
 70
     1
102
RTVSPropertyOp27
 70
     1
102
RTVSPropertyOp28
 70
     1
102
RTVSPropertyOp29
 70
     1
102
RTVSPropertyOp30
 70
     1
102
RTVSPropertyOp31
 70
     1
102
RTVSPropertyOp32
 70
     1
102
RTVSPropertyOp33
 70
     1
102
RTVSPropertyOp34
 70
     1
102
RTVSPropertyOp35
 70
     1
102
RTVSPropertyOp36
 70
     1
102
RTVSPropertyOp37
 70
     1
102
RTVSPropertyOp38
 70
     1
102
RTVSPropertyOp39
 70
     1
102
RTVSPropertyOp40
 70
     1
102
RTVSPropertyOp41
 70
     1
102
RTVSPropertyOp42
 70
     1
102
RTVSPropertyOp43
 70
     1
102
RTVSPropertyOp44
 70
     1
102
RTVSPropertyOp45
 70
     1
102
RTVSPropertyOp46
 70
     1
102
RTVSPropertyOp47
 70
     1
102
RTVSPropertyOp48
 70
     1
102
RTVSPropertyOp49
 70
     1
102
RTVSPropertyOp50
 70
     1
102
RTVSPropertyOp51
 70
     0
102
RTVSPropertyOp52
 70
     0
102
RTVSPropertyOp53
 70
     1
102
RTVSPropertyOp54
 70
     1
102
RTVSPropertyOp55
 70
     1
102
RTVSPropertyOp56
 70
     1
102
RTVSPropertyOp57
 70
     1
102
RTVSPost2010Prop28
280
     0
102
RTVSPost2010PropOp28
 70
     1
102
RTVSPost2010Prop29
280
     1
102
RTVSPost2010PropOp29
 70
     1
102
RTVSPost2010Prop30
280
     1
102
RTVSPost2010PropOp30
 70
     1
102
RTVSPost2010Prop31
280
     0
102
RTVSPost2010PropOp31
 70
     1
102
RTVSPost2010Prop32
280
     0
102
RTVSPost2010PropOp32
 70
     1
102
RTVSPost2010Prop33
280
     0
102
RTVSPost2010PropOp33
 70
     1
102
RTVSPost2010Prop34
280
     0
102
RTVSPost2010PropOp34
 70
     1
102
RTVSPost2010Prop35
280
     0
102
RTVSPost2010PropOp35
 70
     1
102
RTVSPost2010Prop36
280
     0
102
RTVSPost2010PropOp36
 70
     1
102
RTVSPost2010Prop37
 90
       50
102
RTVSPost2010PropOp37
 70
     1
102
RTVSPost2010Prop38
140
0.0
102
RTVSPost2010PropOp38
 70
     1
102
RTVSPost2010Prop39
140
1.0
102
RTVSPost2010PropOp39
 70
     1
102
RTVSPost2010Prop40
 90
        0
102
RTVSPost2010PropOp40
 70
     1
102
RTVSPost2010Prop41ColorIndex
 90
      178
102
RTVSPost2010Prop41ColorRGB
 90
        0
102
RTVSPost2010PropOp41
 70
     1
102
RTVSPost2010Prop42
 90
       50
102
RTVSPost2010PropOp42
 70
     1
102
RTVSPost2010Prop43
 90
        3
102
RTVSPost2010PropOp43
 70
     1
102
RTVSPost2010Prop44ColorIndex
 90
        5
102
RTVSPost2010Prop44ColorRGB
 90
      255
102
RTVSPost2010PropOp44
 70
     1
102
RTVSPost2010Prop45
280
     0
102
RTVSPost2010PropOp45
 70
     1
102
RTVSPost2010Prop46
 90
       50
102
RTVSPost2010PropOp46
 70
     1
102
RTVSPost2010Prop47
 90
       50
102
RTVSPost2010PropOp47
 70
     1
102
RTVSPost2010Prop48
 90
       50
102
RTVSPost2010PropOp48
 70
     1
102
RTVSPost2010Prop49
280
     0
102
RTVSPost2010PropOp49
 70
     1
102
RTVSPost2010Prop50
 90
       50
102
RTVSPost2010PropOp50
 70
     1
102
RTVSPost2010Prop51ColorIndex
 90
      256
102
RTVSPost2010Prop51ColorRGB
 90
-16777216
102
RTVSPost2010PropOp51
 70
     0
102
RTVSPost2010Prop52
140
1.0
102
RTVSPost2010PropOp52
 70
     0
102
RTVSPost2010Prop53
 90
        2
102
RTVSPost2010PropOp53
 70
     1
102
RTVSPost2010Prop54
  1
strokes_ogs.tif
102
RTVSPost2010PropOp54
 70
     1
102
RTVSPost2010Prop55
280
     0
102
RTVSPost2010PropOp55
 70
     1
102
RTVSPost2010Prop56
140
1.0
102
RTVSPost2010PropOp56
 70
     1
102
RTVSPost2010Prop57
140
1.0
102
RTVSPost2010PropOp57
 70
     1
  0
XRECORD
  5
357
102
{ACAD_REACTORS
330
356
102
}
330
356
100
AcDbXrecord
280
     1
102
RTVSPropertyOp0
 70
     1
102
RTVSPropertyOp1
 70
     1
102
RTVSPropertyOp2
 70
     1
102
RTVSPropertyOp3
 70
     1
102
RTVSPropertyOp4
 70
     1
102
RTVSPropertyOp5
 70
     1
102
RTVSPropertyOp6
 70
     1
102
RTVSPropertyOp7
 70
     1
102
RTVSPropertyOp8
 70
     1
102
RTVSPropertyOp9
 70
     1
102
RTVSPropertyOp10
 70
     1
102
RTVSPropertyOp11
 70
     1
102
RTVSPropertyOp12
 70
     1
102
RTVSPropertyOp13
 70
     1
102
RTVSPropertyOp14
 70
     1
102
RTVSPropertyOp15
 70
     1
102
RTVSPropertyOp16
 70
     1
102
RTVSPropertyOp17
 70
     1
102
RTVSPropertyOp18
 70
     1
102
RTVSPropertyOp19
 70
     1
102
RTVSPropertyOp20
 70
     1
102
RTVSPropertyOp21
 70
     1
102
RTVSPropertyOp22
 70
     1
102
RTVSPropertyOp23
 70
     1
102
RTVSPropertyOp24
 70
     1
102
RTVSPropertyOp25
 70
     1
102
RTVSPropertyOp26
 70
     1
102
RTVSPropertyOp27
 70
     1
102
RTVSPropertyOp28
 70
     1
102
RTVSPropertyOp29
 70
     1
102
RTVSPropertyOp30
 70
     1
102
RTVSPropertyOp31
 70
     1
102
RTVSPropertyOp32
 70
     1
102
RTVSPropertyOp33
 70
     1
102
RTVSPropertyOp34
 70
     1
102
RTVSPropertyOp35
 70
     1
102
RTVSPropertyOp36
 70
     1
102
RTVSPropertyOp37
 70
     1
102
RTVSPropertyOp38
 70
     1
102
RTVSPropertyOp39
 70
     1
102
RTVSPropertyOp40
 70
     1
102
RTVSPropertyOp41
 70
     1
102
RTVSPropertyOp42
 70
     1
102
RTVSPropertyOp43
 70
     1
102
RTVSPropertyOp44
 70
     1
102
RTVSPropertyOp45
 70
     1
102
RTVSPropertyOp46
 70
     1
102
RTVSPropertyOp47
 70
     1
102
RTVSPropertyOp48
 70
     1
102
RTVSPropertyOp49
 70
     1
102
RTVSPropertyOp50
 70
     1
102
RTVSPropertyOp51
 70
     0
102
RTVSPropertyOp52
 70
     0
102
RTVSPropertyOp53
 70
     1
102
RTVSPropertyOp54
 70
     1
102
RTVSPropertyOp55
 70
     1
102
RTVSPropertyOp56
 70
     1
102
RTVSPropertyOp57
 70
     1
102
RTVSPost2010Prop28
280
     0
102
RTVSPost2010PropOp28
 70
     1
102
RTVSPost2010Prop29
280
     1
102
RTVSPost2010PropOp29
 70
     1
102
RTVSPost2010Prop30
280
     1
102
RTVSPost2010PropOp30
 70
     1
102
RTVSPost2010Prop31
280
     0
102
RTVSPost2010PropOp31
 70
     1
102
RTVSPost2010Prop32
280
     0
102
RTVSPost2010PropOp32
 70
     1
102
RTVSPost2010Prop33
280
     0
102
RTVSPost2010PropOp33
 70
     1
102
RTVSPost2010Prop34
280
     0
102
RTVSPost2010PropOp34
 70
     1
102
RTVSPost2010Prop35
280
     0
102
RTVSPost2010PropOp35
 70
     1
102
RTVSPost2010Prop36
280
     0
102
RTVSPost2010PropOp36
 70
     1
102
RTVSPost2010Prop37
 90
       50
102
RTVSPost2010PropOp37
 70
     1
102
RTVSPost2010Prop38
140
0.0
102
RTVSPost2010PropOp38
 70
     1
102
RTVSPost2010Prop39
140
1.0
102
RTVSPost2010PropOp39
 70
     1
102
RTVSPost2010Prop40
 90
        0
102
RTVSPost2010PropOp40
 70
     1
102
RTVSPost2010Prop41ColorIndex
 90
      178
102
RTVSPost2010Prop41ColorRGB
 90
        0
102
RTVSPost2010PropOp41
 70
     1
102
RTVSPost2010Prop42
 90
       50
102
RTVSPost2010PropOp42
 70
     1
102
RTVSPost2010Prop43
 90
        3
102
RTVSPost2010PropOp43
 70
     1
102
RTVSPost2010Prop44ColorIndex
 90
        5
102
RTVSPost2010Prop44ColorRGB
 90
      255
102
RTVSPost2010PropOp44
 70
     1
102
RTVSPost2010Prop45
280
     0
102
RTVSPost2010PropOp45
 70
     1
102
RTVSPost2010Prop46
 90
       50
102
RTVSPost2010PropOp46
 70
     1
102
RTVSPost2010Prop47
 90
       50
102
RTVSPost2010PropOp47
 70
     1
102
RTVSPost2010Prop48
 90
       50
102
RTVSPost2010PropOp48
 70
     1
102
RTVSPost2010Prop49
280
     0
102
RTVSPost2010PropOp49
 70
     1
102
RTVSPost2010Prop50
 90
       50
102
RTVSPost2010PropOp50
 70
     1
102
RTVSPost2010Prop51ColorIndex
 90
      256
102
RTVSPost2010Prop51ColorRGB
 90
-16777216
102
RTVSPost2010PropOp51
 70
     0
102
RTVSPost2010Prop52
140
1.0
102
RTVSPost2010PropOp52
 70
     0
102
RTVSPost2010Prop53
 90
        2
102
RTVSPost2010PropOp53
 70
     1
102
RTVSPost2010Prop54
  1
strokes_ogs.tif
102
RTVSPost2010PropOp54
 70
     1
102
RTVSPost2010Prop55
280
     0
102
RTVSPost2010PropOp55
 70
     1
102
RTVSPost2010Prop56
140
1.0
102
RTVSPost2010PropOp56
 70
     1
102
RTVSPost2010Prop57
140
1.0
102
RTVSPost2010PropOp57
 70
     1
  0
XRECORD
  5
359
102
{ACAD_REACTORS
330
358
102
}
330
358
100
AcDbXrecord
280
     1
102
RTVSPropertyOp0
 70
     1
102
RTVSPropertyOp1
 70
     1
102
RTVSPropertyOp2
 70
     1
102
RTVSPropertyOp3
 70
     1
102
RTVSPropertyOp4
 70
     1
102
RTVSPropertyOp5
 70
     1
102
RTVSPropertyOp6
 70
     1
102
RTVSPropertyOp7
 70
     1
102
RTVSPropertyOp8
 70
     1
102
RTVSPropertyOp9
 70
     1
102
RTVSPropertyOp10
 70
     1
102
RTVSPropertyOp11
 70
     1
102
RTVSPropertyOp12
 70
     1
102
RTVSPropertyOp13
 70
     1
102
RTVSPropertyOp14
 70
     1
102
RTVSPropertyOp15
 70
     1
102
RTVSPropertyOp16
 70
     1
102
RTVSPropertyOp17
 70
     1
102
RTVSPropertyOp18
 70
     1
102
RTVSPropertyOp19
 70
     1
102
RTVSPropertyOp20
 70
     1
102
RTVSPropertyOp21
 70
     1
102
RTVSPropertyOp22
 70
     1
102
RTVSPropertyOp23
 70
     1
102
RTVSPropertyOp24
 70
     1
102
RTVSPropertyOp25
 70
     1
102
RTVSPropertyOp26
 70
     1
102
RTVSPropertyOp27
 70
     1
102
RTVSPropertyOp28
 70
     1
102
RTVSPropertyOp29
 70
     1
102
RTVSPropertyOp30
 70
     1
102
RTVSPropertyOp31
 70
     1
102
RTVSPropertyOp32
 70
     1
102
RTVSPropertyOp33
 70
     1
102
RTVSPropertyOp34
 70
     1
102
RTVSPropertyOp35
 70
     1
102
RTVSPropertyOp36
 70
     1
102
RTVSPropertyOp37
 70
     1
102
RTVSPropertyOp38
 70
     1
102
RTVSPropertyOp39
 70
     1
102
RTVSPropertyOp40
 70
     1
102
RTVSPropertyOp41
 70
     1
102
RTVSPropertyOp42
 70
     1
102
RTVSPropertyOp43
 70
     1
102
RTVSPropertyOp44
 70
     1
102
RTVSPropertyOp45
 70
     1
102
RTVSPropertyOp46
 70
     1
102
RTVSPropertyOp47
 70
     1
102
RTVSPropertyOp48
 70
     1
102
RTVSPropertyOp49
 70
     1
102
RTVSPropertyOp50
 70
     1
102
RTVSPropertyOp51
 70
     0
102
RTVSPropertyOp52
 70
     0
102
RTVSPropertyOp53
 70
     1
102
RTVSPropertyOp54
 70
     1
102
RTVSPropertyOp55
 70
     1
102
RTVSPropertyOp56
 70
     1
102
RTVSPropertyOp57
 70
     1
102
RTVSPost2010Prop28
280
     0
102
RTVSPost2010PropOp28
 70
     1
102
RTVSPost2010Prop29
280
     1
102
RTVSPost2010PropOp29
 70
     1
102
RTVSPost2010Prop30
280
     1
102
RTVSPost2010PropOp30
 70
     1
102
RTVSPost2010Prop31
280
     0
102
RTVSPost2010PropOp31
 70
     1
102
RTVSPost2010Prop32
280
     0
102
RTVSPost2010PropOp32
 70
     1
102
RTVSPost2010Prop33
280
     0
102
RTVSPost2010PropOp33
 70
     1
102
RTVSPost2010Prop34
280
     0
102
RTVSPost2010PropOp34
 70
     1
102
RTVSPost2010Prop35
280
     0
102
RTVSPost2010PropOp35
 70
     1
102
RTVSPost2010Prop36
280
     0
102
RTVSPost2010PropOp36
 70
     1
102
RTVSPost2010Prop37
 90
       50
102
RTVSPost2010PropOp37
 70
     1
102
RTVSPost2010Prop38
140
0.0
102
RTVSPost2010PropOp38
 70
     1
102
RTVSPost2010Prop39
140
1.0
102
RTVSPost2010PropOp39
 70
     1
102
RTVSPost2010Prop40
 90
        0
102
RTVSPost2010PropOp40
 70
     1
102
RTVSPost2010Prop41ColorIndex
 90
      178
102
RTVSPost2010Prop41ColorRGB
 90
        0
102
RTVSPost2010PropOp41
 70
     1
102
RTVSPost2010Prop42
 90
       50
102
RTVSPost2010PropOp42
 70
     1
102
RTVSPost2010Prop43
 90
        3
102
RTVSPost2010PropOp43
 70
     1
102
RTVSPost2010Prop44ColorIndex
 90
        5
102
RTVSPost2010Prop44ColorRGB
 90
      255
102
RTVSPost2010PropOp44
 70
     1
102
RTVSPost2010Prop45
280
     0
102
RTVSPost2010PropOp45
 70
     1
102
RTVSPost2010Prop46
 90
       50
102
RTVSPost2010PropOp46
 70
     1
102
RTVSPost2010Prop47
 90
       50
102
RTVSPost2010PropOp47
 70
     1
102
RTVSPost2010Prop48
 90
       50
102
RTVSPost2010PropOp48
 70
     1
102
RTVSPost2010Prop49
280
     0
102
RTVSPost2010PropOp49
 70
     1
102
RTVSPost2010Prop50
 90
       50
102
RTVSPost2010PropOp50
 70
     1
102
RTVSPost2010Prop51ColorIndex
 90
      256
102
RTVSPost2010Prop51ColorRGB
 90
-16777216
102
RTVSPost2010PropOp51
 70
     0
102
RTVSPost2010Prop52
140
1.0
102
RTVSPost2010PropOp52
 70
     0
102
RTVSPost2010Prop53
 90
        2
102
RTVSPost2010PropOp53
 70
     1
102
RTVSPost2010Prop54
  1
strokes_ogs.tif
102
RTVSPost2010PropOp54
 70
     1
102
RTVSPost2010Prop55
280
     0
102
RTVSPost2010PropOp55
 70
     1
102
RTVSPost2010Prop56
140
1.0
102
RTVSPost2010PropOp56
 70
     1
102
RTVSPost2010Prop57
140
1.0
102
RTVSPost2010PropOp57
 70
     1
  0
XRECORD
  5
35B
102
{ACAD_REACTORS
330
35A
102
}
330
35A
100
AcDbXrecord
280
     1
102
RTVSPropertyOp0
 70
     1
102
RTVSPropertyOp1
 70
     1
102
RTVSPropertyOp2
 70
     1
102
RTVSPropertyOp3
 70
     1
102
RTVSPropertyOp4
 70
     1
102
RTVSPropertyOp5
 70
     1
102
RTVSPropertyOp6
 70
     1
102
RTVSPropertyOp7
 70
     1
102
RTVSPropertyOp8
 70
     1
102
RTVSPropertyOp9
 70
     1
102
RTVSPropertyOp10
 70
     1
102
RTVSPropertyOp11
 70
     1
102
RTVSPropertyOp12
 70
     1
102
RTVSPropertyOp13
 70
     1
102
RTVSPropertyOp14
 70
     1
102
RTVSPropertyOp15
 70
     1
102
RTVSPropertyOp16
 70
     1
102
RTVSPropertyOp17
 70
     1
102
RTVSPropertyOp18
 70
     1
102
RTVSPropertyOp19
 70
     1
102
RTVSPropertyOp20
 70
     1
102
RTVSPropertyOp21
 70
     1
102
RTVSPropertyOp22
 70
     1
102
RTVSPropertyOp23
 70
     1
102
RTVSPropertyOp24
 70
     1
102
RTVSPropertyOp25
 70
     1
102
RTVSPropertyOp26
 70
     1
102
RTVSPropertyOp27
 70
     1
102
RTVSPropertyOp28
 70
     1
102
RTVSPropertyOp29
 70
     1
102
RTVSPropertyOp30
 70
     1
102
RTVSPropertyOp31
 70
     1
102
RTVSPropertyOp32
 70
     1
102
RTVSPropertyOp33
 70
     1
102
RTVSPropertyOp34
 70
     1
102
RTVSPropertyOp35
 70
     1
102
RTVSPropertyOp36
 70
     1
102
RTVSPropertyOp37
 70
     1
102
RTVSPropertyOp38
 70
     1
102
RTVSPropertyOp39
 70
     1
102
RTVSPropertyOp40
 70
     1
102
RTVSPropertyOp41
 70
     1
102
RTVSPropertyOp42
 70
     1
102
RTVSPropertyOp43
 70
     1
102
RTVSPropertyOp44
 70
     1
102
RTVSPropertyOp45
 70
     1
102
RTVSPropertyOp46
 70
     1
102
RTVSPropertyOp47
 70
     1
102
RTVSPropertyOp48
 70
     1
102
RTVSPropertyOp49
 70
     1
102
RTVSPropertyOp50
 70
     1
102
RTVSPropertyOp51
 70
     0
102
RTVSPropertyOp52
 70
     0
102
RTVSPropertyOp53
 70
     1
102
RTVSPropertyOp54
 70
     1
102
RTVSPropertyOp55
 70
     1
102
RTVSPropertyOp56
 70
     1
102
RTVSPropertyOp57
 70
     1
102
RTVSPost2010Prop28
280
     0
102
RTVSPost2010PropOp28
 70
     1
102
RTVSPost2010Prop29
280
     1
102
RTVSPost2010PropOp29
 70
     1
102
RTVSPost2010Prop30
280
     1
102
RTVSPost2010PropOp30
 70
     1
102
RTVSPost2010Prop31
280
     0
102
RTVSPost2010PropOp31
 70
     1
102
RTVSPost2010Prop32
280
     0
102
RTVSPost2010PropOp32
 70
     1
102
RTVSPost2010Prop33
280
     0
102
RTVSPost2010PropOp33
 70
     1
102
RTVSPost2010Prop34
280
     0
102
RTVSPost2010PropOp34
 70
     1
102
RTVSPost2010Prop35
280
     0
102
RTVSPost2010PropOp35
 70
     1
102
RTVSPost2010Prop36
280
     0
102
RTVSPost2010PropOp36
 70
     1
102
RTVSPost2010Prop37
 90
       50
102
RTVSPost2010PropOp37
 70
     1
102
RTVSPost2010Prop38
140
0.0
102
RTVSPost2010PropOp38
 70
     1
102
RTVSPost2010Prop39
140
1.0
102
RTVSPost2010PropOp39
 70
     1
102
RTVSPost2010Prop40
 90
        0
102
RTVSPost2010PropOp40
 70
     1
102
RTVSPost2010Prop41ColorIndex
 90
      178
102
RTVSPost2010Prop41ColorRGB
 90
        0
102
RTVSPost2010PropOp41
 70
     1
102
RTVSPost2010Prop42
 90
       50
102
RTVSPost2010PropOp42
 70
     1
102
RTVSPost2010Prop43
 90
        3
102
RTVSPost2010PropOp43
 70
     1
102
RTVSPost2010Prop44ColorIndex
 90
        5
102
RTVSPost2010Prop44ColorRGB
 90
      255
102
RTVSPost2010PropOp44
 70
     1
102
RTVSPost2010Prop45
280
     0
102
RTVSPost2010PropOp45
 70
     1
102
RTVSPost2010Prop46
 90
       50
102
RTVSPost2010PropOp46
 70
     1
102
RTVSPost2010Prop47
 90
       50
102
RTVSPost2010PropOp47
 70
     1
102
RTVSPost2010Prop48
 90
       50
102
RTVSPost2010PropOp48
 70
     1
102
RTVSPost2010Prop49
280
     0
102
RTVSPost2010PropOp49
 70
     1
102
RTVSPost2010Prop50
 90
       50
102
RTVSPost2010PropOp50
 70
     1
102
RTVSPost2010Prop51ColorIndex
 90
      256
102
RTVSPost2010Prop51ColorRGB
 90
-16777216
102
RTVSPost2010PropOp51
 70
     0
102
RTVSPost2010Prop52
140
1.0
102
RTVSPost2010PropOp52
 70
     0
102
RTVSPost2010Prop53
 90
        2
102
RTVSPost2010PropOp53
 70
     1
102
RTVSPost2010Prop54
  1
strokes_ogs.tif
102
RTVSPost2010PropOp54
 70
     1
102
RTVSPost2010Prop55
280
     0
102
RTVSPost2010PropOp55
 70
     1
102
RTVSPost2010Prop56
140
1.0
102
RTVSPost2010PropOp56
 70
     1
102
RTVSPost2010Prop57
140
1.0
102
RTVSPost2010PropOp57
 70
     1
  0
XRECORD
  5
35D
102
{ACAD_REACTORS
330
35C
102
}
330
35C
100
AcDbXrecord
280
     1
102
RTVSPropertyOp0
 70
     1
102
RTVSPropertyOp1
 70
     1
102
RTVSPropertyOp2
 70
     1
102
RTVSPropertyOp3
 70
     1
102
RTVSPropertyOp4
 70
     1
102
RTVSPropertyOp5
 70
     1
102
RTVSPropertyOp6
 70
     1
102
RTVSPropertyOp7
 70
     1
102
RTVSPropertyOp8
 70
     1
102
RTVSPropertyOp9
 70
     1
102
RTVSPropertyOp10
 70
     1
102
RTVSPropertyOp11
 70
     1
102
RTVSPropertyOp12
 70
     1
102
RTVSPropertyOp13
 70
     1
102
RTVSPropertyOp14
 70
     1
102
RTVSPropertyOp15
 70
     1
102
RTVSPropertyOp16
 70
     1
102
RTVSPropertyOp17
 70
     1
102
RTVSPropertyOp18
 70
     1
102
RTVSPropertyOp19
 70
     1
102
RTVSPropertyOp20
 70
     1
102
RTVSPropertyOp21
 70
     1
102
RTVSPropertyOp22
 70
     1
102
RTVSPropertyOp23
 70
     1
102
RTVSPropertyOp24
 70
     1
102
RTVSPropertyOp25
 70
     1
102
RTVSPropertyOp26
 70
     1
102
RTVSPropertyOp27
 70
     1
102
RTVSPropertyOp28
 70
     1
102
RTVSPropertyOp29
 70
     1
102
RTVSPropertyOp30
 70
     1
102
RTVSPropertyOp31
 70
     1
102
RTVSPropertyOp32
 70
     1
102
RTVSPropertyOp33
 70
     1
102
RTVSPropertyOp34
 70
     1
102
RTVSPropertyOp35
 70
     1
102
RTVSPropertyOp36
 70
     1
102
RTVSPropertyOp37
 70
     1
102
RTVSPropertyOp38
 70
     1
102
RTVSPropertyOp39
 70
     1
102
RTVSPropertyOp40
 70
     1
102
RTVSPropertyOp41
 70
     1
102
RTVSPropertyOp42
 70
     1
102
RTVSPropertyOp43
 70
     1
102
RTVSPropertyOp44
 70
     1
102
RTVSPropertyOp45
 70
     1
102
RTVSPropertyOp46
 70
     1
102
RTVSPropertyOp47
 70
     1
102
RTVSPropertyOp48
 70
     1
102
RTVSPropertyOp49
 70
     1
102
RTVSPropertyOp50
 70
     1
102
RTVSPropertyOp51
 70
     0
102
RTVSPropertyOp52
 70
     0
102
RTVSPropertyOp53
 70
     1
102
RTVSPropertyOp54
 70
     1
102
RTVSPropertyOp55
 70
     1
102
RTVSPropertyOp56
 70
     1
102
RTVSPropertyOp57
 70
     1
102
RTVSPost2010Prop28
280
     0
102
RTVSPost2010PropOp28
 70
     1
102
RTVSPost2010Prop29
280
     1
102
RTVSPost2010PropOp29
 70
     1
102
RTVSPost2010Prop30
280
     1
102
RTVSPost2010PropOp30
 70
     1
102
RTVSPost2010Prop31
280
     0
102
RTVSPost2010PropOp31
 70
     1
102
RTVSPost2010Prop32
280
     0
102
RTVSPost2010PropOp32
 70
     1
102
RTVSPost2010Prop33
280
     0
102
RTVSPost2010PropOp33
 70
     1
102
RTVSPost2010Prop34
280
     0
102
RTVSPost2010PropOp34
 70
     1
102
RTVSPost2010Prop35
280
     0
102
RTVSPost2010PropOp35
 70
     1
102
RTVSPost2010Prop36
280
     0
102
RTVSPost2010PropOp36
 70
     1
102
RTVSPost2010Prop37
 90
       50
102
RTVSPost2010PropOp37
 70
     1
102
RTVSPost2010Prop38
140
0.0
102
RTVSPost2010PropOp38
 70
     1
102
RTVSPost2010Prop39
140
1.0
102
RTVSPost2010PropOp39
 70
     1
102
RTVSPost2010Prop40
 90
        0
102
RTVSPost2010PropOp40
 70
     1
102
RTVSPost2010Prop41ColorIndex
 90
      178
102
RTVSPost2010Prop41ColorRGB
 90
        0
102
RTVSPost2010PropOp41
 70
     1
102
RTVSPost2010Prop42
 90
       50
102
RTVSPost2010PropOp42
 70
     1
102
RTVSPost2010Prop43
 90
        3
102
RTVSPost2010PropOp43
 70
     1
102
RTVSPost2010Prop44ColorIndex
 90
        5
102
RTVSPost2010Prop44ColorRGB
 90
      255
102
RTVSPost2010PropOp44
 70
     1
102
RTVSPost2010Prop45
280
     0
102
RTVSPost2010PropOp45
 70
     1
102
RTVSPost2010Prop46
 90
       50
102
RTVSPost2010PropOp46
 70
     1
102
RTVSPost2010Prop47
 90
       50
102
RTVSPost2010PropOp47
 70
     1
102
RTVSPost2010Prop48
 90
       50
102
RTVSPost2010PropOp48
 70
     1
102
RTVSPost2010Prop49
280
     0
102
RTVSPost2010PropOp49
 70
     1
102
RTVSPost2010Prop50
 90
       50
102
RTVSPost2010PropOp50
 70
     1
102
RTVSPost2010Prop51ColorIndex
 90
      256
102
RTVSPost2010Prop51ColorRGB
 90
-16777216
102
RTVSPost2010PropOp51
 70
     0
102
RTVSPost2010Prop52
140
1.0
102
RTVSPost2010PropOp52
 70
     0
102
RTVSPost2010Prop53
 90
        2
102
RTVSPost2010PropOp53
 70
     1
102
RTVSPost2010Prop54
  1
strokes_ogs.tif
102
RTVSPost2010PropOp54
 70
     1
102
RTVSPost2010Prop55
280
     0
102
RTVSPost2010PropOp55
 70
     1
102
RTVSPost2010Prop56
140
1.0
102
RTVSPost2010PropOp56
 70
     1
102
RTVSPost2010Prop57
140
1.0
102
RTVSPost2010PropOp57
 70
     1
  0
XRECORD
  5
363
102
{ACAD_REACTORS
330
362
102
}
330
362
100
AcDbXrecord
280
     1
102
RTVSPropertyOp0
 70
     1
102
RTVSPropertyOp1
 70
     1
102
RTVSPropertyOp2
 70
     1
102
RTVSPropertyOp3
 70
     1
102
RTVSPropertyOp4
 70
     1
102
RTVSPropertyOp5
 70
     1
102
RTVSPropertyOp6
 70
     1
102
RTVSPropertyOp7
 70
     1
102
RTVSPropertyOp8
 70
     1
102
RTVSPropertyOp9
 70
     1
102
RTVSPropertyOp10
 70
     1
102
RTVSPropertyOp11
 70
     1
102
RTVSPropertyOp12
 70
     1
102
RTVSPropertyOp13
 70
     1
102
RTVSPropertyOp14
 70
     1
102
RTVSPropertyOp15
 70
     1
102
RTVSPropertyOp16
 70
     1
102
RTVSPropertyOp17
 70
     1
102
RTVSPropertyOp18
 70
     1
102
RTVSPropertyOp19
 70
     1
102
RTVSPropertyOp20
 70
     1
102
RTVSPropertyOp21
 70
     1
102
RTVSPropertyOp22
 70
     1
102
RTVSPropertyOp23
 70
     1
102
RTVSPropertyOp24
 70
     1
102
RTVSPropertyOp25
 70
     1
102
RTVSPropertyOp26
 70
     1
102
RTVSPropertyOp27
 70
     1
102
RTVSPropertyOp28
 70
     1
102
RTVSPropertyOp29
 70
     1
102
RTVSPropertyOp30
 70
     1
102
RTVSPropertyOp31
 70
     1
102
RTVSPropertyOp32
 70
     1
102
RTVSPropertyOp33
 70
     1
102
RTVSPropertyOp34
 70
     1
102
RTVSPropertyOp35
 70
     1
102
RTVSPropertyOp36
 70
     1
102
RTVSPropertyOp37
 70
     1
102
RTVSPropertyOp38
 70
     1
102
RTVSPropertyOp39
 70
     1
102
RTVSPropertyOp40
 70
     1
102
RTVSPropertyOp41
 70
     1
102
RTVSPropertyOp42
 70
     1
102
RTVSPropertyOp43
 70
     1
102
RTVSPropertyOp44
 70
     1
102
RTVSPropertyOp45
 70
     1
102
RTVSPropertyOp46
 70
     1
102
RTVSPropertyOp47
 70
     1
102
RTVSPropertyOp48
 70
     1
102
RTVSPropertyOp49
 70
     1
102
RTVSPropertyOp50
 70
     1
102
RTVSPropertyOp51
 70
     0
102
RTVSPropertyOp52
 70
     0
102
RTVSPropertyOp53
 70
     1
102
RTVSPropertyOp54
 70
     1
102
RTVSPropertyOp55
 70
     1
102
RTVSPropertyOp56
 70
     1
102
RTVSPropertyOp57
 70
     1
102
RTVSPost2010Prop28
280
     0
102
RTVSPost2010PropOp28
 70
     1
102
RTVSPost2010Prop29
280
     1
102
RTVSPost2010PropOp29
 70
     1
102
RTVSPost2010Prop30
280
     1
102
RTVSPost2010PropOp30
 70
     1
102
RTVSPost2010Prop31
280
     0
102
RTVSPost2010PropOp31
 70
     1
102
RTVSPost2010Prop32
280
     0
102
RTVSPost2010PropOp32
 70
     1
102
RTVSPost2010Prop33
280
     0
102
RTVSPost2010PropOp33
 70
     1
102
RTVSPost2010Prop34
280
     0
102
RTVSPost2010PropOp34
 70
     1
102
RTVSPost2010Prop35
280
     0
102
RTVSPost2010PropOp35
 70
     1
102
RTVSPost2010Prop36
280
     0
102
RTVSPost2010PropOp36
 70
     1
102
RTVSPost2010Prop37
 90
       50
102
RTVSPost2010PropOp37
 70
     1
102
RTVSPost2010Prop38
140
0.0
102
RTVSPost2010PropOp38
 70
     1
102
RTVSPost2010Prop39
140
1.0
102
RTVSPost2010PropOp39
 70
     1
102
RTVSPost2010Prop40
 90
        0
102
RTVSPost2010PropOp40
 70
     1
102
RTVSPost2010Prop41ColorIndex
 90
      178
102
RTVSPost2010Prop41ColorRGB
 90
        0
102
RTVSPost2010PropOp41
 70
     1
102
RTVSPost2010Prop42
 90
       50
102
RTVSPost2010PropOp42
 70
     1
102
RTVSPost2010Prop43
 90
        3
102
RTVSPost2010PropOp43
 70
     1
102
RTVSPost2010Prop44ColorIndex
 90
        5
102
RTVSPost2010Prop44ColorRGB
 90
      255
102
RTVSPost2010PropOp44
 70
     1
102
RTVSPost2010Prop45
280
     0
102
RTVSPost2010PropOp45
 70
     1
102
RTVSPost2010Prop46
 90
       50
102
RTVSPost2010PropOp46
 70
     1
102
RTVSPost2010Prop47
 90
       50
102
RTVSPost2010PropOp47
 70
     1
102
RTVSPost2010Prop48
 90
       50
102
RTVSPost2010PropOp48
 70
     1
102
RTVSPost2010Prop49
280
     0
102
RTVSPost2010PropOp49
 70
     1
102
RTVSPost2010Prop50
 90
       50
102
RTVSPost2010PropOp50
 70
     1
102
RTVSPost2010Prop51ColorIndex
 90
      256
102
RTVSPost2010Prop51ColorRGB
 90
-16777216
102
RTVSPost2010PropOp51
 70
     0
102
RTVSPost2010Prop52
140
1.0
102
RTVSPost2010PropOp52
 70
     0
102
RTVSPost2010Prop53
 90
        2
102
RTVSPost2010PropOp53
 70
     1
102
RTVSPost2010Prop54
  1
strokes_ogs.tif
102
RTVSPost2010PropOp54
 70
     1
102
RTVSPost2010Prop55
280
     0
102
RTVSPost2010PropOp55
 70
     1
102
RTVSPost2010Prop56
140
1.0
102
RTVSPost2010PropOp56
 70
     1
102
RTVSPost2010Prop57
140
1.0
102
RTVSPost2010PropOp57
 70
     1
  0
XRECORD
  5
377
102
{ACAD_REACTORS
330
376
102
}
330
376
100
AcDbXrecord
280
     1
102
RTVSPropertyOp0
 70
     0
102
RTVSPropertyOp1
 70
     0
102
RTVSPropertyOp2
 70
     0
102
RTVSPropertyOp3
 70
     0
102
RTVSPropertyOp4
 70
     0
102
RTVSPropertyOp5
 70
     0
102
RTVSPropertyOp6
 70
     0
102
RTVSPropertyOp7
 70
     0
102
RTVSPropertyOp8
 70
     0
102
RTVSPropertyOp9
 70
     0
102
RTVSPropertyOp10
 70
     0
102
RTVSPropertyOp11
 70
     0
102
RTVSPropertyOp12
 70
     0
102
RTVSPropertyOp13
 70
     0
102
RTVSPropertyOp14
 70
     2
102
RTVSPropertyOp15
 70
     0
102
RTVSPropertyOp16
 70
     0
102
RTVSPropertyOp17
 70
     0
102
RTVSPropertyOp18
 70
     0
102
RTVSPropertyOp19
 70
     0
102
RTVSPropertyOp20
 70
     0
102
RTVSPropertyOp21
 70
     0
102
RTVSPropertyOp22
 70
     0
102
RTVSPropertyOp23
 70
     0
102
RTVSPropertyOp24
 70
     0
102
RTVSPropertyOp25
 70
     0
102
RTVSPropertyOp26
 70
     0
102
RTVSPropertyOp27
 70
     0
102
RTVSPropertyOp28
 70
     0
102
RTVSPropertyOp29
 70
     0
102
RTVSPropertyOp30
 70
     0
102
RTVSPropertyOp31
 70
     0
102
RTVSPropertyOp32
 70
     0
102
RTVSPropertyOp33
 70
     0
102
RTVSPropertyOp34
 70
     0
102
RTVSPropertyOp35
 70
     0
102
RTVSPropertyOp36
 70
     0
102
RTVSPropertyOp37
 70
     0
102
RTVSPropertyOp38
 70
     0
102
RTVSPropertyOp39
 70
     0
102
RTVSPropertyOp40
 70
     0
102
RTVSPropertyOp41
 70
     0
102
RTVSPropertyOp42
 70
     0
102
RTVSPropertyOp43
 70
     0
102
RTVSPropertyOp44
 70
     0
102
RTVSPropertyOp45
 70
     0
102
RTVSPropertyOp46
 70
     0
102
RTVSPropertyOp47
 70
     0
102
RTVSPropertyOp48
 70
     0
102
RTVSPropertyOp49
 70
     0
102
RTVSPropertyOp50
 70
     0
102
RTVSPropertyOp51
 70
     0
102
RTVSPropertyOp52
 70
     0
102
RTVSPropertyOp53
 70
     0
102
RTVSPropertyOp54
 70
     0
102
RTVSPropertyOp55
 70
     0
102
RTVSPropertyOp56
 70
     0
102
RTVSPropertyOp57
 70
     0
102
RTVSPost2010Prop28
280
     0
102
RTVSPost2010PropOp28
 70
     0
102
RTVSPost2010Prop29
280
     1
102
RTVSPost2010PropOp29
 70
     0
102
RTVSPost2010Prop30
280
     1
102
RTVSPost2010PropOp30
 70
     0
102
RTVSPost2010Prop31
280
     0
102
RTVSPost2010PropOp31
 70
     0
102
RTVSPost2010Prop32
280
     0
102
RTVSPost2010PropOp32
 70
     0
102
RTVSPost2010Prop33
280
     0
102
RTVSPost2010PropOp33
 70
     0
102
RTVSPost2010Prop34
280
     0
102
RTVSPost2010PropOp34
 70
     0
102
RTVSPost2010Prop35
280
     0
102
RTVSPost2010PropOp35
 70
     0
102
RTVSPost2010Prop36
280
     0
102
RTVSPost2010PropOp36
 70
     0
102
RTVSPost2010Prop37
 90
       50
102
RTVSPost2010PropOp37
 70
     0
102
RTVSPost2010Prop38
140
0.0
102
RTVSPost2010PropOp38
 70
     0
102
RTVSPost2010Prop39
140
1.0
102
RTVSPost2010PropOp39
 70
     0
102
RTVSPost2010Prop40
 90
        0
102
RTVSPost2010PropOp40
 70
     0
102
RTVSPost2010Prop41ColorIndex
 90
      178
102
RTVSPost2010Prop41ColorRGB
 90
        0
102
RTVSPost2010PropOp41
 70
     0
102
RTVSPost2010Prop42
 90
       50
102
RTVSPost2010PropOp42
 70
     0
102
RTVSPost2010Prop43
 90
        3
102
RTVSPost2010PropOp43
 70
     0
102
RTVSPost2010Prop44ColorIndex
 90
        5
102
RTVSPost2010Prop44ColorRGB
 90
      255
102
RTVSPost2010PropOp44
 70
     0
102
RTVSPost2010Prop45
280
     0
102
RTVSPost2010PropOp45
 70
     0
102
RTVSPost2010Prop46
 90
       50
102
RTVSPost2010PropOp46
 70
     0
102
RTVSPost2010Prop47
 90
       50
102
RTVSPost2010PropOp47
 70
     0
102
RTVSPost2010Prop48
 90
       50
102
RTVSPost2010PropOp48
 70
     0
102
RTVSPost2010Prop49
280
     0
102
RTVSPost2010PropOp49
 70
     0
102
RTVSPost2010Prop50
 90
       50
102
RTVSPost2010PropOp50
 70
     0
102
RTVSPost2010Prop51ColorIndex
 90
      256
102
RTVSPost2010Prop51ColorRGB
 90
-16777216
102
RTVSPost2010PropOp51
 70
     0
102
RTVSPost2010Prop52
140
1.0
102
RTVSPost2010PropOp52
 70
     0
102
RTVSPost2010Prop53
 90
        2
102
RTVSPost2010PropOp53
 70
     0
102
RTVSPost2010Prop54
  1
strokes_ogs.tif
102
RTVSPost2010PropOp54
 70
     0
102
RTVSPost2010Prop55
280
     0
102
RTVSPost2010PropOp55
 70
     0
102
RTVSPost2010Prop56
140
1.0
102
RTVSPost2010PropOp56
 70
     0
102
RTVSPost2010Prop57
140
1.0
102
RTVSPost2010PropOp57
 70
     0
  0
XRECORD
  5
371
102
{ACAD_REACTORS
330
370
102
}
330
370
100
AcDbXrecord
280
     1
102
RTVSPropertyOp0
 70
     1
102
RTVSPropertyOp1
 70
     1
102
RTVSPropertyOp2
 70
     1
102
RTVSPropertyOp3
 70
     1
102
RTVSPropertyOp4
 70
     1
102
RTVSPropertyOp5
 70
     1
102
RTVSPropertyOp6
 70
     1
102
RTVSPropertyOp7
 70
     1
102
RTVSPropertyOp8
 70
     1
102
RTVSPropertyOp9
 70
     1
102
RTVSPropertyOp10
 70
     1
102
RTVSPropertyOp11
 70
     1
102
RTVSPropertyOp12
 70
     1
102
RTVSPropertyOp13
 70
     1
102
RTVSPropertyOp14
 70
     1
102
RTVSPropertyOp15
 70
     1
102
RTVSPropertyOp16
 70
     1
102
RTVSPropertyOp17
 70
     1
102
RTVSPropertyOp18
 70
     1
102
RTVSPropertyOp19
 70
     1
102
RTVSPropertyOp20
 70
     1
102
RTVSPropertyOp21
 70
     1
102
RTVSPropertyOp22
 70
     1
102
RTVSPropertyOp23
 70
     1
102
RTVSPropertyOp24
 70
     1
102
RTVSPropertyOp25
 70
     1
102
RTVSPropertyOp26
 70
     1
102
RTVSPropertyOp27
 70
     1
102
RTVSPropertyOp28
 70
     1
102
RTVSPropertyOp29
 70
     1
102
RTVSPropertyOp30
 70
     1
102
RTVSPropertyOp31
 70
     1
102
RTVSPropertyOp32
 70
     1
102
RTVSPropertyOp33
 70
     1
102
RTVSPropertyOp34
 70
     1
102
RTVSPropertyOp35
 70
     1
102
RTVSPropertyOp36
 70
     1
102
RTVSPropertyOp37
 70
     1
102
RTVSPropertyOp38
 70
     1
102
RTVSPropertyOp39
 70
     1
102
RTVSPropertyOp40
 70
     1
102
RTVSPropertyOp41
 70
     1
102
RTVSPropertyOp42
 70
     1
102
RTVSPropertyOp43
 70
     1
102
RTVSPropertyOp44
 70
     1
102
RTVSPropertyOp45
 70
     1
102
RTVSPropertyOp46
 70
     1
102
RTVSPropertyOp47
 70
     1
102
RTVSPropertyOp48
 70
     1
102
RTVSPropertyOp49
 70
     1
102
RTVSPropertyOp50
 70
     1
102
RTVSPropertyOp51
 70
     0
102
RTVSPropertyOp52
 70
     0
102
RTVSPropertyOp53
 70
     1
102
RTVSPropertyOp54
 70
     1
102
RTVSPropertyOp55
 70
     1
102
RTVSPropertyOp56
 70
     1
102
RTVSPropertyOp57
 70
     1
102
RTVSPost2010Prop28
280
     0
102
RTVSPost2010PropOp28
 70
     1
102
RTVSPost2010Prop29
280
     1
102
RTVSPost2010PropOp29
 70
     1
102
RTVSPost2010Prop30
280
     1
102
RTVSPost2010PropOp30
 70
     1
102
RTVSPost2010Prop31
280
     0
102
RTVSPost2010PropOp31
 70
     1
102
RTVSPost2010Prop32
280
     0
102
RTVSPost2010PropOp32
 70
     1
102
RTVSPost2010Prop33
280
     0
102
RTVSPost2010PropOp33
 70
     1
102
RTVSPost2010Prop34
280
     0
102
RTVSPost2010PropOp34
 70
     1
102
RTVSPost2010Prop35
280
     0
102
RTVSPost2010PropOp35
 70
     1
102
RTVSPost2010Prop36
280
     0
102
RTVSPost2010PropOp36
 70
     1
102
RTVSPost2010Prop37
 90
       50
102
RTVSPost2010PropOp37
 70
     1
102
RTVSPost2010Prop38
140
0.0
102
RTVSPost2010PropOp38
 70
     1
102
RTVSPost2010Prop39
140
1.0
102
RTVSPost2010PropOp39
 70
     1
102
RTVSPost2010Prop40
 90
        0
102
RTVSPost2010PropOp40
 70
     1
102
RTVSPost2010Prop41ColorIndex
 90
      178
102
RTVSPost2010Prop41ColorRGB
 90
        0
102
RTVSPost2010PropOp41
 70
     1
102
RTVSPost2010Prop42
 90
       50
102
RTVSPost2010PropOp42
 70
     1
102
RTVSPost2010Prop43
 90
        3
102
RTVSPost2010PropOp43
 70
     1
102
RTVSPost2010Prop44ColorIndex
 90
        5
102
RTVSPost2010Prop44ColorRGB
 90
      255
102
RTVSPost2010PropOp44
 70
     1
102
RTVSPost2010Prop45
280
     0
102
RTVSPost2010PropOp45
 70
     1
102
RTVSPost2010Prop46
 90
       50
102
RTVSPost2010PropOp46
 70
     1
102
RTVSPost2010Prop47
 90
       50
102
RTVSPost2010PropOp47
 70
     1
102
RTVSPost2010Prop48
 90
       50
102
RTVSPost2010PropOp48
 70
     1
102
RTVSPost2010Prop49
280
     0
102
RTVSPost2010PropOp49
 70
     1
102
RTVSPost2010Prop50
 90
       50
102
RTVSPost2010PropOp50
 70
     1
102
RTVSPost2010Prop51ColorIndex
 90
      256
102
RTVSPost2010Prop51ColorRGB
 90
-16777216
102
RTVSPost2010PropOp51
 70
     0
102
RTVSPost2010Prop52
140
1.0
102
RTVSPost2010PropOp52
 70
     0
102
RTVSPost2010Prop53
 90
        2
102
RTVSPost2010PropOp53
 70
     1
102
RTVSPost2010Prop54
  1
strokes_ogs.tif
102
RTVSPost2010PropOp54
 70
     1
102
RTVSPost2010Prop55
280
     0
102
RTVSPost2010PropOp55
 70
     1
102
RTVSPost2010Prop56
140
1.0
102
RTVSPost2010PropOp56
 70
     1
102
RTVSPost2010Prop57
140
1.0
102
RTVSPost2010PropOp57
 70
     1
  0
XRECORD
  5
379
102
{ACAD_REACTORS
330
378
102
}
330
378
100
AcDbXrecord
280
     1
102
RTVSPropertyOp0
 70
     0
102
RTVSPropertyOp1
 70
     0
102
RTVSPropertyOp2
 70
     0
102
RTVSPropertyOp3
 70
     0
102
RTVSPropertyOp4
 70
     0
102
RTVSPropertyOp5
 70
     0
102
RTVSPropertyOp6
 70
     0
102
RTVSPropertyOp7
 70
     0
102
RTVSPropertyOp8
 70
     0
102
RTVSPropertyOp9
 70
     0
102
RTVSPropertyOp10
 70
     0
102
RTVSPropertyOp11
 70
     0
102
RTVSPropertyOp12
 70
     0
102
RTVSPropertyOp13
 70
     0
102
RTVSPropertyOp14
 70
     2
102
RTVSPropertyOp15
 70
     0
102
RTVSPropertyOp16
 70
     0
102
RTVSPropertyOp17
 70
     0
102
RTVSPropertyOp18
 70
     0
102
RTVSPropertyOp19
 70
     0
102
RTVSPropertyOp20
 70
     0
102
RTVSPropertyOp21
 70
     0
102
RTVSPropertyOp22
 70
     0
102
RTVSPropertyOp23
 70
     0
102
RTVSPropertyOp24
 70
     0
102
RTVSPropertyOp25
 70
     0
102
RTVSPropertyOp26
 70
     0
102
RTVSPropertyOp27
 70
     0
102
RTVSPropertyOp28
 70
     0
102
RTVSPropertyOp29
 70
     0
102
RTVSPropertyOp30
 70
     0
102
RTVSPropertyOp31
 70
     0
102
RTVSPropertyOp32
 70
     0
102
RTVSPropertyOp33
 70
     0
102
RTVSPropertyOp34
 70
     0
102
RTVSPropertyOp35
 70
     0
102
RTVSPropertyOp36
 70
     0
102
RTVSPropertyOp37
 70
     0
102
RTVSPropertyOp38
 70
     0
102
RTVSPropertyOp39
 70
     0
102
RTVSPropertyOp40
 70
     0
102
RTVSPropertyOp41
 70
     0
102
RTVSPropertyOp42
 70
     0
102
RTVSPropertyOp43
 70
     0
102
RTVSPropertyOp44
 70
     0
102
RTVSPropertyOp45
 70
     0
102
RTVSPropertyOp46
 70
     0
102
RTVSPropertyOp47
 70
     0
102
RTVSPropertyOp48
 70
     0
102
RTVSPropertyOp49
 70
     0
102
RTVSPropertyOp50
 70
     0
102
RTVSPropertyOp51
 70
     0
102
RTVSPropertyOp52
 70
     0
102
RTVSPropertyOp53
 70
     0
102
RTVSPropertyOp54
 70
     0
102
RTVSPropertyOp55
 70
     0
102
RTVSPropertyOp56
 70
     0
102
RTVSPropertyOp57
 70
     0
102
RTVSPost2010Prop28
280
     0
102
RTVSPost2010PropOp28
 70
     0
102
RTVSPost2010Prop29
280
     1
102
RTVSPost2010PropOp29
 70
     0
102
RTVSPost2010Prop30
280
     1
102
RTVSPost2010PropOp30
 70
     0
102
RTVSPost2010Prop31
280
     0
102
RTVSPost2010PropOp31
 70
     0
102
RTVSPost2010Prop32
280
     0
102
RTVSPost2010PropOp32
 70
     0
102
RTVSPost2010Prop33
280
     0
102
RTVSPost2010PropOp33
 70
     0
102
RTVSPost2010Prop34
280
     0
102
RTVSPost2010PropOp34
 70
     0
102
RTVSPost2010Prop35
280
     0
102
RTVSPost2010PropOp35
 70
     0
102
RTVSPost2010Prop36
280
     0
102
RTVSPost2010PropOp36
 70
     0
102
RTVSPost2010Prop37
 90
       50
102
RTVSPost2010PropOp37
 70
     0
102
RTVSPost2010Prop38
140
0.0
102
RTVSPost2010PropOp38
 70
     0
102
RTVSPost2010Prop39
140
1.0
102
RTVSPost2010PropOp39
 70
     0
102
RTVSPost2010Prop40
 90
        0
102
RTVSPost2010PropOp40
 70
     0
102
RTVSPost2010Prop41ColorIndex
 90
      178
102
RTVSPost2010Prop41ColorRGB
 90
        0
102
RTVSPost2010PropOp41
 70
     0
102
RTVSPost2010Prop42
 90
       50
102
RTVSPost2010PropOp42
 70
     0
102
RTVSPost2010Prop43
 90
        3
102
RTVSPost2010PropOp43
 70
     0
102
RTVSPost2010Prop44ColorIndex
 90
        5
102
RTVSPost2010Prop44ColorRGB
 90
      255
102
RTVSPost2010PropOp44
 70
     0
102
RTVSPost2010Prop45
280
     0
102
RTVSPost2010PropOp45
 70
     0
102
RTVSPost2010Prop46
 90
       50
102
RTVSPost2010PropOp46
 70
     0
102
RTVSPost2010Prop47
 90
       50
102
RTVSPost2010PropOp47
 70
     0
102
RTVSPost2010Prop48
 90
       50
102
RTVSPost2010PropOp48
 70
     0
102
RTVSPost2010Prop49
280
     0
102
RTVSPost2010PropOp49
 70
     0
102
RTVSPost2010Prop50
 90
       50
102
RTVSPost2010PropOp50
 70
     0
102
RTVSPost2010Prop51ColorIndex
 90
      256
102
RTVSPost2010Prop51ColorRGB
 90
-16777216
102
RTVSPost2010PropOp51
 70
     0
102
RTVSPost2010Prop52
140
1.0
102
RTVSPost2010PropOp52
 70
     0
102
RTVSPost2010Prop53
 90
        2
102
RTVSPost2010PropOp53
 70
     0
102
RTVSPost2010Prop54
  1
strokes_ogs.tif
102
RTVSPost2010PropOp54
 70
     0
102
RTVSPost2010Prop55
280
     0
102
RTVSPost2010PropOp55
 70
     0
102
RTVSPost2010Prop56
140
1.0
102
RTVSPost2010PropOp56
 70
     0
102
RTVSPost2010Prop57
140
1.0
102
RTVSPost2010PropOp57
 70
     0
  0
XRECORD
  5
367
102
{ACAD_REACTORS
330
366
102
}
330
366
100
AcDbXrecord
280
     1
102
RTVSPropertyOp0
 70
     1
102
RTVSPropertyOp1
 70
     1
102
RTVSPropertyOp2
 70
     1
102
RTVSPropertyOp3
 70
     1
102
RTVSPropertyOp4
 70
     1
102
RTVSPropertyOp5
 70
     1
102
RTVSPropertyOp6
 70
     1
102
RTVSPropertyOp7
 70
     1
102
RTVSPropertyOp8
 70
     1
102
RTVSPropertyOp9
 70
     1
102
RTVSPropertyOp10
 70
     1
102
RTVSPropertyOp11
 70
     1
102
RTVSPropertyOp12
 70
     1
102
RTVSPropertyOp13
 70
     1
102
RTVSPropertyOp14
 70
     1
102
RTVSPropertyOp15
 70
     1
102
RTVSPropertyOp16
 70
     1
102
RTVSPropertyOp17
 70
     1
102
RTVSPropertyOp18
 70
     1
102
RTVSPropertyOp19
 70
     1
102
RTVSPropertyOp20
 70
     1
102
RTVSPropertyOp21
 70
     1
102
RTVSPropertyOp22
 70
     1
102
RTVSPropertyOp23
 70
     1
102
RTVSPropertyOp24
 70
     1
102
RTVSPropertyOp25
 70
     1
102
RTVSPropertyOp26
 70
     1
102
RTVSPropertyOp27
 70
     1
102
RTVSPropertyOp28
 70
     1
102
RTVSPropertyOp29
 70
     1
102
RTVSPropertyOp30
 70
     1
102
RTVSPropertyOp31
 70
     1
102
RTVSPropertyOp32
 70
     1
102
RTVSPropertyOp33
 70
     1
102
RTVSPropertyOp34
 70
     1
102
RTVSPropertyOp35
 70
     1
102
RTVSPropertyOp36
 70
     1
102
RTVSPropertyOp37
 70
     1
102
RTVSPropertyOp38
 70
     1
102
RTVSPropertyOp39
 70
     1
102
RTVSPropertyOp40
 70
     1
102
RTVSPropertyOp41
 70
     1
102
RTVSPropertyOp42
 70
     1
102
RTVSPropertyOp43
 70
     1
102
RTVSPropertyOp44
 70
     1
102
RTVSPropertyOp45
 70
     1
102
RTVSPropertyOp46
 70
     1
102
RTVSPropertyOp47
 70
     1
102
RTVSPropertyOp48
 70
     1
102
RTVSPropertyOp49
 70
     1
102
RTVSPropertyOp50
 70
     1
102
RTVSPropertyOp51
 70
     0
102
RTVSPropertyOp52
 70
     0
102
RTVSPropertyOp53
 70
     1
102
RTVSPropertyOp54
 70
     1
102
RTVSPropertyOp55
 70
     1
102
RTVSPropertyOp56
 70
     1
102
RTVSPropertyOp57
 70
     1
102
RTVSPost2010Prop28
280
     0
102
RTVSPost2010PropOp28
 70
     1
102
RTVSPost2010Prop29
280
     1
102
RTVSPost2010PropOp29
 70
     1
102
RTVSPost2010Prop30
280
     1
102
RTVSPost2010PropOp30
 70
     1
102
RTVSPost2010Prop31
280
     0
102
RTVSPost2010PropOp31
 70
     1
102
RTVSPost2010Prop32
280
     0
102
RTVSPost2010PropOp32
 70
     1
102
RTVSPost2010Prop33
280
     0
102
RTVSPost2010PropOp33
 70
     1
102
RTVSPost2010Prop34
280
     0
102
RTVSPost2010PropOp34
 70
     1
102
RTVSPost2010Prop35
280
     0
102
RTVSPost2010PropOp35
 70
     1
102
RTVSPost2010Prop36
280
     0
102
RTVSPost2010PropOp36
 70
     1
102
RTVSPost2010Prop37
 90
       50
102
RTVSPost2010PropOp37
 70
     1
102
RTVSPost2010Prop38
140
0.0
102
RTVSPost2010PropOp38
 70
     1
102
RTVSPost2010Prop39
140
1.0
102
RTVSPost2010PropOp39
 70
     1
102
RTVSPost2010Prop40
 90
        0
102
RTVSPost2010PropOp40
 70
     1
102
RTVSPost2010Prop41ColorIndex
 90
      178
102
RTVSPost2010Prop41ColorRGB
 90
        0
102
RTVSPost2010PropOp41
 70
     1
102
RTVSPost2010Prop42
 90
       50
102
RTVSPost2010PropOp42
 70
     1
102
RTVSPost2010Prop43
 90
        3
102
RTVSPost2010PropOp43
 70
     1
102
RTVSPost2010Prop44ColorIndex
 90
        5
102
RTVSPost2010Prop44ColorRGB
 90
      255
102
RTVSPost2010PropOp44
 70
     1
102
RTVSPost2010Prop45
280
     0
102
RTVSPost2010PropOp45
 70
     1
102
RTVSPost2010Prop46
 90
       50
102
RTVSPost2010PropOp46
 70
     1
102
RTVSPost2010Prop47
 90
       50
102
RTVSPost2010PropOp47
 70
     1
102
RTVSPost2010Prop48
 90
       50
102
RTVSPost2010PropOp48
 70
     1
102
RTVSPost2010Prop49
280
     0
102
RTVSPost2010PropOp49
 70
     1
102
RTVSPost2010Prop50
 90
       50
102
RTVSPost2010PropOp50
 70
     1
102
RTVSPost2010Prop51ColorIndex
 90
      256
102
RTVSPost2010Prop51ColorRGB
 90
-16777216
102
RTVSPost2010PropOp51
 70
     0
102
RTVSPost2010Prop52
140
1.0
102
RTVSPost2010PropOp52
 70
     0
102
RTVSPost2010Prop53
 90
        2
102
RTVSPost2010PropOp53
 70
     1
102
RTVSPost2010Prop54
  1
strokes_ogs.tif
102
RTVSPost2010PropOp54
 70
     1
102
RTVSPost2010Prop55
280
     0
102
RTVSPost2010PropOp55
 70
     1
102
RTVSPost2010Prop56
140
1.0
102
RTVSPost2010PropOp56
 70
     1
102
RTVSPost2010Prop57
140
1.0
102
RTVSPost2010PropOp57
 70
     1
  0
XRECORD
  5
385
102
{ACAD_REACTORS
330
384
102
}
330
384
100
AcDbXrecord
280
     1
102
RTVSPropertyOp0
 70
     1
102
RTVSPropertyOp1
 70
     1
102
RTVSPropertyOp2
 70
     1
102
RTVSPropertyOp3
 70
     1
102
RTVSPropertyOp4
 70
     1
102
RTVSPropertyOp5
 70
     1
102
RTVSPropertyOp6
 70
     1
102
RTVSPropertyOp7
 70
     1
102
RTVSPropertyOp8
 70
     1
102
RTVSPropertyOp9
 70
     1
102
RTVSPropertyOp10
 70
     1
102
RTVSPropertyOp11
 70
     1
102
RTVSPropertyOp12
 70
     1
102
RTVSPropertyOp13
 70
     1
102
RTVSPropertyOp14
 70
     1
102
RTVSPropertyOp15
 70
     1
102
RTVSPropertyOp16
 70
     1
102
RTVSPropertyOp17
 70
     1
102
RTVSPropertyOp18
 70
     1
102
RTVSPropertyOp19
 70
     1
102
RTVSPropertyOp20
 70
     1
102
RTVSPropertyOp21
 70
     1
102
RTVSPropertyOp22
 70
     1
102
RTVSPropertyOp23
 70
     1
102
RTVSPropertyOp24
 70
     1
102
RTVSPropertyOp25
 70
     1
102
RTVSPropertyOp26
 70
     1
102
RTVSPropertyOp27
 70
     1
102
RTVSPropertyOp28
 70
     1
102
RTVSPropertyOp29
 70
     1
102
RTVSPropertyOp30
 70
     1
102
RTVSPropertyOp31
 70
     1
102
RTVSPropertyOp32
 70
     1
102
RTVSPropertyOp33
 70
     1
102
RTVSPropertyOp34
 70
     1
102
RTVSPropertyOp35
 70
     1
102
RTVSPropertyOp36
 70
     1
102
RTVSPropertyOp37
 70
     1
102
RTVSPropertyOp38
 70
     1
102
RTVSPropertyOp39
 70
     1
102
RTVSPropertyOp40
 70
     1
102
RTVSPropertyOp41
 70
     1
102
RTVSPropertyOp42
 70
     1
102
RTVSPropertyOp43
 70
     1
102
RTVSPropertyOp44
 70
     1
102
RTVSPropertyOp45
 70
     1
102
RTVSPropertyOp46
 70
     1
102
RTVSPropertyOp47
 70
     1
102
RTVSPropertyOp48
 70
     1
102
RTVSPropertyOp49
 70
     1
102
RTVSPropertyOp50
 70
     1
102
RTVSPropertyOp51
 70
     0
102
RTVSPropertyOp52
 70
     0
102
RTVSPropertyOp53
 70
     1
102
RTVSPropertyOp54
 70
     1
102
RTVSPropertyOp55
 70
     1
102
RTVSPropertyOp56
 70
     1
102
RTVSPropertyOp57
 70
     1
102
RTVSPost2010Prop28
280
     0
102
RTVSPost2010PropOp28
 70
     1
102
RTVSPost2010Prop29
280
     1
102
RTVSPost2010PropOp29
 70
     1
102
RTVSPost2010Prop30
280
     1
102
RTVSPost2010PropOp30
 70
     1
102
RTVSPost2010Prop31
280
     0
102
RTVSPost2010PropOp31
 70
     1
102
RTVSPost2010Prop32
280
     0
102
RTVSPost2010PropOp32
 70
     1
102
RTVSPost2010Prop33
280
     0
102
RTVSPost2010PropOp33
 70
     1
102
RTVSPost2010Prop34
280
     0
102
RTVSPost2010PropOp34
 70
     1
102
RTVSPost2010Prop35
280
     0
102
RTVSPost2010PropOp35
 70
     1
102
RTVSPost2010Prop36
280
     0
102
RTVSPost2010PropOp36
 70
     1
102
RTVSPost2010Prop37
 90
       50
102
RTVSPost2010PropOp37
 70
     1
102
RTVSPost2010Prop38
140
0.0
102
RTVSPost2010PropOp38
 70
     1
102
RTVSPost2010Prop39
140
1.0
102
RTVSPost2010PropOp39
 70
     1
102
RTVSPost2010Prop40
 90
        0
102
RTVSPost2010PropOp40
 70
     1
102
RTVSPost2010Prop41ColorIndex
 90
      178
102
RTVSPost2010Prop41ColorRGB
 90
        0
102
RTVSPost2010PropOp41
 70
     1
102
RTVSPost2010Prop42
 90
       50
102
RTVSPost2010PropOp42
 70
     1
102
RTVSPost2010Prop43
 90
        3
102
RTVSPost2010PropOp43
 70
     1
102
RTVSPost2010Prop44ColorIndex
 90
        5
102
RTVSPost2010Prop44ColorRGB
 90
      255
102
RTVSPost2010PropOp44
 70
     1
102
RTVSPost2010Prop45
280
     0
102
RTVSPost2010PropOp45
 70
     1
102
RTVSPost2010Prop46
 90
       50
102
RTVSPost2010PropOp46
 70
     1
102
RTVSPost2010Prop47
 90
       50
102
RTVSPost2010PropOp47
 70
     1
102
RTVSPost2010Prop48
 90
       50
102
RTVSPost2010PropOp48
 70
     1
102
RTVSPost2010Prop49
280
     0
102
RTVSPost2010PropOp49
 70
     1
102
RTVSPost2010Prop50
 90
       50
102
RTVSPost2010PropOp50
 70
     1
102
RTVSPost2010Prop51ColorIndex
 90
      256
102
RTVSPost2010Prop51ColorRGB
 90
-16777216
102
RTVSPost2010PropOp51
 70
     0
102
RTVSPost2010Prop52
140
1.0
102
RTVSPost2010PropOp52
 70
     0
102
RTVSPost2010Prop53
 90
        2
102
RTVSPost2010PropOp53
 70
     1
102
RTVSPost2010Prop54
  1
strokes_ogs.tif
102
RTVSPost2010PropOp54
 70
     1
102
RTVSPost2010Prop55
280
     0
102
RTVSPost2010PropOp55
 70
     1
102
RTVSPost2010Prop56
140
1.0
102
RTVSPost2010PropOp56
 70
     1
102
RTVSPost2010Prop57
140
1.0
102
RTVSPost2010PropOp57
 70
     1
  0
XRECORD
  5
383
102
{ACAD_REACTORS
330
382
102
}
330
382
100
AcDbXrecord
280
     1
102
RTVSPropertyOp0
 70
     1
102
RTVSPropertyOp1
 70
     1
102
RTVSPropertyOp2
 70
     1
102
RTVSPropertyOp3
 70
     1
102
RTVSPropertyOp4
 70
     1
102
RTVSPropertyOp5
 70
     1
102
RTVSPropertyOp6
 70
     1
102
RTVSPropertyOp7
 70
     1
102
RTVSPropertyOp8
 70
     1
102
RTVSPropertyOp9
 70
     1
102
RTVSPropertyOp10
 70
     1
102
RTVSPropertyOp11
 70
     1
102
RTVSPropertyOp12
 70
     1
102
RTVSPropertyOp13
 70
     1
102
RTVSPropertyOp14
 70
     1
102
RTVSPropertyOp15
 70
     1
102
RTVSPropertyOp16
 70
     1
102
RTVSPropertyOp17
 70
     1
102
RTVSPropertyOp18
 70
     1
102
RTVSPropertyOp19
 70
     1
102
RTVSPropertyOp20
 70
     1
102
RTVSPropertyOp21
 70
     1
102
RTVSPropertyOp22
 70
     1
102
RTVSPropertyOp23
 70
     1
102
RTVSPropertyOp24
 70
     1
102
RTVSPropertyOp25
 70
     1
102
RTVSPropertyOp26
 70
     1
102
RTVSPropertyOp27
 70
     1
102
RTVSPropertyOp28
 70
     1
102
RTVSPropertyOp29
 70
     1
102
RTVSPropertyOp30
 70
     1
102
RTVSPropertyOp31
 70
     1
102
RTVSPropertyOp32
 70
     1
102
RTVSPropertyOp33
 70
     1
102
RTVSPropertyOp34
 70
     1
102
RTVSPropertyOp35
 70
     1
102
RTVSPropertyOp36
 70
     1
102
RTVSPropertyOp37
 70
     1
102
RTVSPropertyOp38
 70
     1
102
RTVSPropertyOp39
 70
     1
102
RTVSPropertyOp40
 70
     1
102
RTVSPropertyOp41
 70
     1
102
RTVSPropertyOp42
 70
     1
102
RTVSPropertyOp43
 70
     1
102
RTVSPropertyOp44
 70
     1
102
RTVSPropertyOp45
 70
     1
102
RTVSPropertyOp46
 70
     1
102
RTVSPropertyOp47
 70
     1
102
RTVSPropertyOp48
 70
     1
102
RTVSPropertyOp49
 70
     1
102
RTVSPropertyOp50
 70
     1
102
RTVSPropertyOp51
 70
     0
102
RTVSPropertyOp52
 70
     0
102
RTVSPropertyOp53
 70
     1
102
RTVSPropertyOp54
 70
     1
102
RTVSPropertyOp55
 70
     1
102
RTVSPropertyOp56
 70
     1
102
RTVSPropertyOp57
 70
     1
102
RTVSPost2010Prop28
280
     0
102
RTVSPost2010PropOp28
 70
     1
102
RTVSPost2010Prop29
280
     1
102
RTVSPost2010PropOp29
 70
     1
102
RTVSPost2010Prop30
280
     1
102
RTVSPost2010PropOp30
 70
     1
102
RTVSPost2010Prop31
280
     0
102
RTVSPost2010PropOp31
 70
     1
102
RTVSPost2010Prop32
280
     0
102
RTVSPost2010PropOp32
 70
     1
102
RTVSPost2010Prop33
280
     0
102
RTVSPost2010PropOp33
 70
     1
102
RTVSPost2010Prop34
280
     0
102
RTVSPost2010PropOp34
 70
     1
102
RTVSPost2010Prop35
280
     0
102
RTVSPost2010PropOp35
 70
     1
102
RTVSPost2010Prop36
280
     0
102
RTVSPost2010PropOp36
 70
     1
102
RTVSPost2010Prop37
 90
       50
102
RTVSPost2010PropOp37
 70
     1
102
RTVSPost2010Prop38
140
0.0
102
RTVSPost2010PropOp38
 70
     1
102
RTVSPost2010Prop39
140
1.0
102
RTVSPost2010PropOp39
 70
     1
102
RTVSPost2010Prop40
 90
        0
102
RTVSPost2010PropOp40
 70
     1
102
RTVSPost2010Prop41ColorIndex
 90
      178
102
RTVSPost2010Prop41ColorRGB
 90
        0
102
RTVSPost2010PropOp41
 70
     1
102
RTVSPost2010Prop42
 90
       50
102
RTVSPost2010PropOp42
 70
     1
102
RTVSPost2010Prop43
 90
        3
102
RTVSPost2010PropOp43
 70
     1
102
RTVSPost2010Prop44ColorIndex
 90
        5
102
RTVSPost2010Prop44ColorRGB
 90
      255
102
RTVSPost2010PropOp44
 70
     1
102
RTVSPost2010Prop45
280
     0
102
RTVSPost2010PropOp45
 70
     1
102
RTVSPost2010Prop46
 90
       50
102
RTVSPost2010PropOp46
 70
     1
102
RTVSPost2010Prop47
 90
       50
102
RTVSPost2010PropOp47
 70
     1
102
RTVSPost2010Prop48
 90
       50
102
RTVSPost2010PropOp48
 70
     1
102
RTVSPost2010Prop49
280
     0
102
RTVSPost2010PropOp49
 70
     1
102
RTVSPost2010Prop50
 90
       50
102
RTVSPost2010PropOp50
 70
     1
102
RTVSPost2010Prop51ColorIndex
 90
      256
102
RTVSPost2010Prop51ColorRGB
 90
-16777216
102
RTVSPost2010PropOp51
 70
     0
102
RTVSPost2010Prop52
140
1.0
102
RTVSPost2010PropOp52
 70
     0
102
RTVSPost2010Prop53
 90
        2
102
RTVSPost2010PropOp53
 70
     1
102
RTVSPost2010Prop54
  1
strokes_ogs.tif
102
RTVSPost2010PropOp54
 70
     1
102
RTVSPost2010Prop55
280
     0
102
RTVSPost2010PropOp55
 70
     1
102
RTVSPost2010Prop56
140
1.0
102
RTVSPost2010PropOp56
 70
     1
102
RTVSPost2010Prop57
140
1.0
102
RTVSPost2010PropOp57
 70
     1
  0
XRECORD
  5
37D
102
{ACAD_REACTORS
330
37C
102
}
330
37C
100
AcDbXrecord
280
     1
102
RTVSPropertyOp0
 70
     1
102
RTVSPropertyOp1
 70
     1
102
RTVSPropertyOp2
 70
     1
102
RTVSPropertyOp3
 70
     1
102
RTVSPropertyOp4
 70
     1
102
RTVSPropertyOp5
 70
     1
102
RTVSPropertyOp6
 70
     1
102
RTVSPropertyOp7
 70
     1
102
RTVSPropertyOp8
 70
     1
102
RTVSPropertyOp9
 70
     1
102
RTVSPropertyOp10
 70
     1
102
RTVSPropertyOp11
 70
     1
102
RTVSPropertyOp12
 70
     1
102
RTVSPropertyOp13
 70
     1
102
RTVSPropertyOp14
 70
     1
102
RTVSPropertyOp15
 70
     1
102
RTVSPropertyOp16
 70
     1
102
RTVSPropertyOp17
 70
     1
102
RTVSPropertyOp18
 70
     1
102
RTVSPropertyOp19
 70
     1
102
RTVSPropertyOp20
 70
     1
102
RTVSPropertyOp21
 70
     1
102
RTVSPropertyOp22
 70
     1
102
RTVSPropertyOp23
 70
     1
102
RTVSPropertyOp24
 70
     1
102
RTVSPropertyOp25
 70
     1
102
RTVSPropertyOp26
 70
     1
102
RTVSPropertyOp27
 70
     1
102
RTVSPropertyOp28
 70
     1
102
RTVSPropertyOp29
 70
     1
102
RTVSPropertyOp30
 70
     1
102
RTVSPropertyOp31
 70
     1
102
RTVSPropertyOp32
 70
     1
102
RTVSPropertyOp33
 70
     1
102
RTVSPropertyOp34
 70
     1
102
RTVSPropertyOp35
 70
     1
102
RTVSPropertyOp36
 70
     1
102
RTVSPropertyOp37
 70
     1
102
RTVSPropertyOp38
 70
     1
102
RTVSPropertyOp39
 70
     1
102
RTVSPropertyOp40
 70
     1
102
RTVSPropertyOp41
 70
     1
102
RTVSPropertyOp42
 70
     1
102
RTVSPropertyOp43
 70
     1
102
RTVSPropertyOp44
 70
     1
102
RTVSPropertyOp45
 70
     1
102
RTVSPropertyOp46
 70
     1
102
RTVSPropertyOp47
 70
     1
102
RTVSPropertyOp48
 70
     1
102
RTVSPropertyOp49
 70
     1
102
RTVSPropertyOp50
 70
     1
102
RTVSPropertyOp51
 70
     0
102
RTVSPropertyOp52
 70
     0
102
RTVSPropertyOp53
 70
     1
102
RTVSPropertyOp54
 70
     1
102
RTVSPropertyOp55
 70
     1
102
RTVSPropertyOp56
 70
     1
102
RTVSPropertyOp57
 70
     1
102
RTVSPost2010Prop28
280
     0
102
RTVSPost2010PropOp28
 70
     1
102
RTVSPost2010Prop29
280
     1
102
RTVSPost2010PropOp29
 70
     1
102
RTVSPost2010Prop30
280
     1
102
RTVSPost2010PropOp30
 70
     1
102
RTVSPost2010Prop31
280
     0
102
RTVSPost2010PropOp31
 70
     1
102
RTVSPost2010Prop32
280
     0
102
RTVSPost2010PropOp32
 70
     1
102
RTVSPost2010Prop33
280
     0
102
RTVSPost2010PropOp33
 70
     1
102
RTVSPost2010Prop34
280
     0
102
RTVSPost2010PropOp34
 70
     1
102
RTVSPost2010Prop35
280
     0
102
RTVSPost2010PropOp35
 70
     1
102
RTVSPost2010Prop36
280
     0
102
RTVSPost2010PropOp36
 70
     1
102
RTVSPost2010Prop37
 90
       50
102
RTVSPost2010PropOp37
 70
     1
102
RTVSPost2010Prop38
140
0.0
102
RTVSPost2010PropOp38
 70
     1
102
RTVSPost2010Prop39
140
1.0
102
RTVSPost2010PropOp39
 70
     1
102
RTVSPost2010Prop40
 90
        0
102
RTVSPost2010PropOp40
 70
     1
102
RTVSPost2010Prop41ColorIndex
 90
      178
102
RTVSPost2010Prop41ColorRGB
 90
        0
102
RTVSPost2010PropOp41
 70
     1
102
RTVSPost2010Prop42
 90
       50
102
RTVSPost2010PropOp42
 70
     1
102
RTVSPost2010Prop43
 90
        3
102
RTVSPost2010PropOp43
 70
     1
102
RTVSPost2010Prop44ColorIndex
 90
        5
102
RTVSPost2010Prop44ColorRGB
 90
      255
102
RTVSPost2010PropOp44
 70
     1
102
RTVSPost2010Prop45
280
     0
102
RTVSPost2010PropOp45
 70
     1
102
RTVSPost2010Prop46
 90
       50
102
RTVSPost2010PropOp46
 70
     1
102
RTVSPost2010Prop47
 90
       50
102
RTVSPost2010PropOp47
 70
     1
102
RTVSPost2010Prop48
 90
       50
102
RTVSPost2010PropOp48
 70
     1
102
RTVSPost2010Prop49
280
     0
102
RTVSPost2010PropOp49
 70
     1
102
RTVSPost2010Prop50
 90
       50
102
RTVSPost2010PropOp50
 70
     1
102
RTVSPost2010Prop51ColorIndex
 90
      256
102
RTVSPost2010Prop51ColorRGB
 90
-16777216
102
RTVSPost2010PropOp51
 70
     0
102
RTVSPost2010Prop52
140
1.0
102
RTVSPost2010PropOp52
 70
     0
102
RTVSPost2010Prop53
 90
        2
102
RTVSPost2010PropOp53
 70
     1
102
RTVSPost2010Prop54
  1
strokes_ogs.tif
102
RTVSPost2010PropOp54
 70
     1
102
RTVSPost2010Prop55
280
     0
102
RTVSPost2010PropOp55
 70
     1
102
RTVSPost2010Prop56
140
1.0
102
RTVSPost2010PropOp56
 70
     1
102
RTVSPost2010Prop57
140
1.0
102
RTVSPost2010PropOp57
 70
     1
  0
XRECORD
  5
37F
102
{ACAD_REACTORS
330
37E
102
}
330
37E
100
AcDbXrecord
280
     1
102
RTVSPropertyOp0
 70
     1
102
RTVSPropertyOp1
 70
     1
102
RTVSPropertyOp2
 70
     1
102
RTVSPropertyOp3
 70
     1
102
RTVSPropertyOp4
 70
     1
102
RTVSPropertyOp5
 70
     1
102
RTVSPropertyOp6
 70
     1
102
RTVSPropertyOp7
 70
     1
102
RTVSPropertyOp8
 70
     1
102
RTVSPropertyOp9
 70
     1
102
RTVSPropertyOp10
 70
     1
102
RTVSPropertyOp11
 70
     1
102
RTVSPropertyOp12
 70
     1
102
RTVSPropertyOp13
 70
     1
102
RTVSPropertyOp14
 70
     1
102
RTVSPropertyOp15
 70
     1
102
RTVSPropertyOp16
 70
     1
102
RTVSPropertyOp17
 70
     1
102
RTVSPropertyOp18
 70
     1
102
RTVSPropertyOp19
 70
     1
102
RTVSPropertyOp20
 70
     1
102
RTVSPropertyOp21
 70
     1
102
RTVSPropertyOp22
 70
     1
102
RTVSPropertyOp23
 70
     1
102
RTVSPropertyOp24
 70
     1
102
RTVSPropertyOp25
 70
     1
102
RTVSPropertyOp26
 70
     1
102
RTVSPropertyOp27
 70
     1
102
RTVSPropertyOp28
 70
     1
102
RTVSPropertyOp29
 70
     1
102
RTVSPropertyOp30
 70
     1
102
RTVSPropertyOp31
 70
     1
102
RTVSPropertyOp32
 70
     1
102
RTVSPropertyOp33
 70
     1
102
RTVSPropertyOp34
 70
     1
102
RTVSPropertyOp35
 70
     1
102
RTVSPropertyOp36
 70
     1
102
RTVSPropertyOp37
 70
     1
102
RTVSPropertyOp38
 70
     1
102
RTVSPropertyOp39
 70
     1
102
RTVSPropertyOp40
 70
     1
102
RTVSPropertyOp41
 70
     1
102
RTVSPropertyOp42
 70
     1
102
RTVSPropertyOp43
 70
     1
102
RTVSPropertyOp44
 70
     1
102
RTVSPropertyOp45
 70
     1
102
RTVSPropertyOp46
 70
     1
102
RTVSPropertyOp47
 70
     1
102
RTVSPropertyOp48
 70
     1
102
RTVSPropertyOp49
 70
     1
102
RTVSPropertyOp50
 70
     1
102
RTVSPropertyOp51
 70
     0
102
RTVSPropertyOp52
 70
     0
102
RTVSPropertyOp53
 70
     1
102
RTVSPropertyOp54
 70
     1
102
RTVSPropertyOp55
 70
     1
102
RTVSPropertyOp56
 70
     1
102
RTVSPropertyOp57
 70
     1
102
RTVSPost2010Prop28
280
     0
102
RTVSPost2010PropOp28
 70
     1
102
RTVSPost2010Prop29
280
     1
102
RTVSPost2010PropOp29
 70
     1
102
RTVSPost2010Prop30
280
     1
102
RTVSPost2010PropOp30
 70
     1
102
RTVSPost2010Prop31
280
     0
102
RTVSPost2010PropOp31
 70
     1
102
RTVSPost2010Prop32
280
     0
102
RTVSPost2010PropOp32
 70
     1
102
RTVSPost2010Prop33
280
     0
102
RTVSPost2010PropOp33
 70
     1
102
RTVSPost2010Prop34
280
     0
102
RTVSPost2010PropOp34
 70
     1
102
RTVSPost2010Prop35
280
     0
102
RTVSPost2010PropOp35
 70
     1
102
RTVSPost2010Prop36
280
     0
102
RTVSPost2010PropOp36
 70
     1
102
RTVSPost2010Prop37
 90
       50
102
RTVSPost2010PropOp37
 70
     1
102
RTVSPost2010Prop38
140
0.0
102
RTVSPost2010PropOp38
 70
     1
102
RTVSPost2010Prop39
140
1.0
102
RTVSPost2010PropOp39
 70
     1
102
RTVSPost2010Prop40
 90
        0
102
RTVSPost2010PropOp40
 70
     1
102
RTVSPost2010Prop41ColorIndex
 90
      178
102
RTVSPost2010Prop41ColorRGB
 90
        0
102
RTVSPost2010PropOp41
 70
     1
102
RTVSPost2010Prop42
 90
       50
102
RTVSPost2010PropOp42
 70
     1
102
RTVSPost2010Prop43
 90
        3
102
RTVSPost2010PropOp43
 70
     1
102
RTVSPost2010Prop44ColorIndex
 90
        5
102
RTVSPost2010Prop44ColorRGB
 90
      255
102
RTVSPost2010PropOp44
 70
     1
102
RTVSPost2010Prop45
280
     0
102
RTVSPost2010PropOp45
 70
     1
102
RTVSPost2010Prop46
 90
       50
102
RTVSPost2010PropOp46
 70
     1
102
RTVSPost2010Prop47
 90
       50
102
RTVSPost2010PropOp47
 70
     1
102
RTVSPost2010Prop48
 90
       50
102
RTVSPost2010PropOp48
 70
     1
102
RTVSPost2010Prop49
280
     0
102
RTVSPost2010PropOp49
 70
     1
102
RTVSPost2010Prop50
 90
       50
102
RTVSPost2010PropOp50
 70
     1
102
RTVSPost2010Prop51ColorIndex
 90
      256
102
RTVSPost2010Prop51ColorRGB
 90
-16777216
102
RTVSPost2010PropOp51
 70
     0
102
RTVSPost2010Prop52
140
1.0
102
RTVSPost2010PropOp52
 70
     0
102
RTVSPost2010Prop53
 90
        2
102
RTVSPost2010PropOp53
 70
     1
102
RTVSPost2010Prop54
  1
strokes_ogs.tif
102
RTVSPost2010PropOp54
 70
     1
102
RTVSPost2010Prop55
280
     0
102
RTVSPost2010PropOp55
 70
     1
102
RTVSPost2010Prop56
140
1.0
102
RTVSPost2010PropOp56
 70
     1
102
RTVSPost2010Prop57
140
1.0
102
RTVSPost2010PropOp57
 70
     1
  0
XRECORD
  5
36F
102
{ACAD_REACTORS
330
36E
102
}
330
36E
100
AcDbXrecord
280
     1
102
RTVSPropertyOp0
 70
     1
102
RTVSPropertyOp1
 70
     1
102
RTVSPropertyOp2
 70
     1
102
RTVSPropertyOp3
 70
     1
102
RTVSPropertyOp4
 70
     1
102
RTVSPropertyOp5
 70
     1
102
RTVSPropertyOp6
 70
     1
102
RTVSPropertyOp7
 70
     1
102
RTVSPropertyOp8
 70
     1
102
RTVSPropertyOp9
 70
     1
102
RTVSPropertyOp10
 70
     1
102
RTVSPropertyOp11
 70
     1
102
RTVSPropertyOp12
 70
     1
102
RTVSPropertyOp13
 70
     1
102
RTVSPropertyOp14
 70
     1
102
RTVSPropertyOp15
 70
     1
102
RTVSPropertyOp16
 70
     1
102
RTVSPropertyOp17
 70
     1
102
RTVSPropertyOp18
 70
     1
102
RTVSPropertyOp19
 70
     1
102
RTVSPropertyOp20
 70
     1
102
RTVSPropertyOp21
 70
     1
102
RTVSPropertyOp22
 70
     1
102
RTVSPropertyOp23
 70
     1
102
RTVSPropertyOp24
 70
     1
102
RTVSPropertyOp25
 70
     1
102
RTVSPropertyOp26
 70
     1
102
RTVSPropertyOp27
 70
     1
102
RTVSPropertyOp28
 70
     1
102
RTVSPropertyOp29
 70
     1
102
RTVSPropertyOp30
 70
     1
102
RTVSPropertyOp31
 70
     1
102
RTVSPropertyOp32
 70
     1
102
RTVSPropertyOp33
 70
     1
102
RTVSPropertyOp34
 70
     1
102
RTVSPropertyOp35
 70
     1
102
RTVSPropertyOp36
 70
     1
102
RTVSPropertyOp37
 70
     1
102
RTVSPropertyOp38
 70
     1
102
RTVSPropertyOp39
 70
     1
102
RTVSPropertyOp40
 70
     1
102
RTVSPropertyOp41
 70
     1
102
RTVSPropertyOp42
 70
     1
102
RTVSPropertyOp43
 70
     1
102
RTVSPropertyOp44
 70
     1
102
RTVSPropertyOp45
 70
     1
102
RTVSPropertyOp46
 70
     1
102
RTVSPropertyOp47
 70
     1
102
RTVSPropertyOp48
 70
     1
102
RTVSPropertyOp49
 70
     1
102
RTVSPropertyOp50
 70
     1
102
RTVSPropertyOp51
 70
     0
102
RTVSPropertyOp52
 70
     0
102
RTVSPropertyOp53
 70
     1
102
RTVSPropertyOp54
 70
     1
102
RTVSPropertyOp55
 70
     1
102
RTVSPropertyOp56
 70
     1
102
RTVSPropertyOp57
 70
     1
102
RTVSPost2010Prop28
280
     0
102
RTVSPost2010PropOp28
 70
     1
102
RTVSPost2010Prop29
280
     1
102
RTVSPost2010PropOp29
 70
     1
102
RTVSPost2010Prop30
280
     1
102
RTVSPost2010PropOp30
 70
     1
102
RTVSPost2010Prop31
280
     0
102
RTVSPost2010PropOp31
 70
     1
102
RTVSPost2010Prop32
280
     0
102
RTVSPost2010PropOp32
 70
     1
102
RTVSPost2010Prop33
280
     0
102
RTVSPost2010PropOp33
 70
     1
102
RTVSPost2010Prop34
280
     0
102
RTVSPost2010PropOp34
 70
     1
102
RTVSPost2010Prop35
280
     0
102
RTVSPost2010PropOp35
 70
     1
102
RTVSPost2010Prop36
280
     0
102
RTVSPost2010PropOp36
 70
     1
102
RTVSPost2010Prop37
 90
       50
102
RTVSPost2010PropOp37
 70
     1
102
RTVSPost2010Prop38
140
0.0
102
RTVSPost2010PropOp38
 70
     1
102
RTVSPost2010Prop39
140
1.0
102
RTVSPost2010PropOp39
 70
     1
102
RTVSPost2010Prop40
 90
        0
102
RTVSPost2010PropOp40
 70
     1
102
RTVSPost2010Prop41ColorIndex
 90
      178
102
RTVSPost2010Prop41ColorRGB
 90
        0
102
RTVSPost2010PropOp41
 70
     1
102
RTVSPost2010Prop42
 90
       50
102
RTVSPost2010PropOp42
 70
     1
102
RTVSPost2010Prop43
 90
        3
102
RTVSPost2010PropOp43
 70
     1
102
RTVSPost2010Prop44ColorIndex
 90
        5
102
RTVSPost2010Prop44ColorRGB
 90
      255
102
RTVSPost2010PropOp44
 70
     1
102
RTVSPost2010Prop45
280
     0
102
RTVSPost2010PropOp45
 70
     1
102
RTVSPost2010Prop46
 90
       50
102
RTVSPost2010PropOp46
 70
     1
102
RTVSPost2010Prop47
 90
       50
102
RTVSPost2010PropOp47
 70
     1
102
RTVSPost2010Prop48
 90
       50
102
RTVSPost2010PropOp48
 70
     1
102
RTVSPost2010Prop49
280
     0
102
RTVSPost2010PropOp49
 70
     1
102
RTVSPost2010Prop50
 90
       50
102
RTVSPost2010PropOp50
 70
     1
102
RTVSPost2010Prop51ColorIndex
 90
      256
102
RTVSPost2010Prop51ColorRGB
 90
-16777216
102
RTVSPost2010PropOp51
 70
     0
102
RTVSPost2010Prop52
140
1.0
102
RTVSPost2010PropOp52
 70
     0
102
RTVSPost2010Prop53
 90
        2
102
RTVSPost2010PropOp53
 70
     1
102
RTVSPost2010Prop54
  1
strokes_ogs.tif
102
RTVSPost2010PropOp54
 70
     1
102
RTVSPost2010Prop55
280
     0
102
RTVSPost2010PropOp55
 70
     1
102
RTVSPost2010Prop56
140
1.0
102
RTVSPost2010PropOp56
 70
     1
102
RTVSPost2010Prop57
140
1.0
102
RTVSPost2010PropOp57
 70
     1
  0
XRECORD
  5
361
102
{ACAD_REACTORS
330
360
102
}
330
360
100
AcDbXrecord
280
     1
102
RTVSPropertyOp0
 70
     1
102
RTVSPropertyOp1
 70
     1
102
RTVSPropertyOp2
 70
     1
102
RTVSPropertyOp3
 70
     1
102
RTVSPropertyOp4
 70
     1
102
RTVSPropertyOp5
 70
     1
102
RTVSPropertyOp6
 70
     1
102
RTVSPropertyOp7
 70
     1
102
RTVSPropertyOp8
 70
     1
102
RTVSPropertyOp9
 70
     1
102
RTVSPropertyOp10
 70
     1
102
RTVSPropertyOp11
 70
     1
102
RTVSPropertyOp12
 70
     1
102
RTVSPropertyOp13
 70
     1
102
RTVSPropertyOp14
 70
     1
102
RTVSPropertyOp15
 70
     1
102
RTVSPropertyOp16
 70
     1
102
RTVSPropertyOp17
 70
     1
102
RTVSPropertyOp18
 70
     1
102
RTVSPropertyOp19
 70
     1
102
RTVSPropertyOp20
 70
     1
102
RTVSPropertyOp21
 70
     1
102
RTVSPropertyOp22
 70
     1
102
RTVSPropertyOp23
 70
     1
102
RTVSPropertyOp24
 70
     1
102
RTVSPropertyOp25
 70
     1
102
RTVSPropertyOp26
 70
     1
102
RTVSPropertyOp27
 70
     1
102
RTVSPropertyOp28
 70
     1
102
RTVSPropertyOp29
 70
     1
102
RTVSPropertyOp30
 70
     1
102
RTVSPropertyOp31
 70
     1
102
RTVSPropertyOp32
 70
     1
102
RTVSPropertyOp33
 70
     1
102
RTVSPropertyOp34
 70
     1
102
RTVSPropertyOp35
 70
     1
102
RTVSPropertyOp36
 70
     1
102
RTVSPropertyOp37
 70
     1
102
RTVSPropertyOp38
 70
     1
102
RTVSPropertyOp39
 70
     1
102
RTVSPropertyOp40
 70
     1
102
RTVSPropertyOp41
 70
     1
102
RTVSPropertyOp42
 70
     1
102
RTVSPropertyOp43
 70
     1
102
RTVSPropertyOp44
 70
     1
102
RTVSPropertyOp45
 70
     1
102
RTVSPropertyOp46
 70
     1
102
RTVSPropertyOp47
 70
     1
102
RTVSPropertyOp48
 70
     1
102
RTVSPropertyOp49
 70
     1
102
RTVSPropertyOp50
 70
     1
102
RTVSPropertyOp51
 70
     0
102
RTVSPropertyOp52
 70
     0
102
RTVSPropertyOp53
 70
     1
102
RTVSPropertyOp54
 70
     1
102
RTVSPropertyOp55
 70
     1
102
RTVSPropertyOp56
 70
     1
102
RTVSPropertyOp57
 70
     1
102
RTVSPost2010Prop28
280
     0
102
RTVSPost2010PropOp28
 70
     1
102
RTVSPost2010Prop29
280
     1
102
RTVSPost2010PropOp29
 70
     1
102
RTVSPost2010Prop30
280
     1
102
RTVSPost2010PropOp30
 70
     1
102
RTVSPost2010Prop31
280
     0
102
RTVSPost2010PropOp31
 70
     1
102
RTVSPost2010Prop32
280
     0
102
RTVSPost2010PropOp32
 70
     1
102
RTVSPost2010Prop33
280
     0
102
RTVSPost2010PropOp33
 70
     1
102
RTVSPost2010Prop34
280
     0
102
RTVSPost2010PropOp34
 70
     1
102
RTVSPost2010Prop35
280
     0
102
RTVSPost2010PropOp35
 70
     1
102
RTVSPost2010Prop36
280
     0
102
RTVSPost2010PropOp36
 70
     1
102
RTVSPost2010Prop37
 90
       50
102
RTVSPost2010PropOp37
 70
     1
102
RTVSPost2010Prop38
140
0.0
102
RTVSPost2010PropOp38
 70
     1
102
RTVSPost2010Prop39
140
1.0
102
RTVSPost2010PropOp39
 70
     1
102
RTVSPost2010Prop40
 90
        0
102
RTVSPost2010PropOp40
 70
     1
102
RTVSPost2010Prop41ColorIndex
 90
      178
102
RTVSPost2010Prop41ColorRGB
 90
        0
102
RTVSPost2010PropOp41
 70
     1
102
RTVSPost2010Prop42
 90
       50
102
RTVSPost2010PropOp42
 70
     1
102
RTVSPost2010Prop43
 90
        3
102
RTVSPost2010PropOp43
 70
     1
102
RTVSPost2010Prop44ColorIndex
 90
        5
102
RTVSPost2010Prop44ColorRGB
 90
      255
102
RTVSPost2010PropOp44
 70
     1
102
RTVSPost2010Prop45
280
     0
102
RTVSPost2010PropOp45
 70
     1
102
RTVSPost2010Prop46
 90
       50
102
RTVSPost2010PropOp46
 70
     1
102
RTVSPost2010Prop47
 90
       50
102
RTVSPost2010PropOp47
 70
     1
102
RTVSPost2010Prop48
 90
       50
102
RTVSPost2010PropOp48
 70
     1
102
RTVSPost2010Prop49
280
     0
102
RTVSPost2010PropOp49
 70
     1
102
RTVSPost2010Prop50
 90
       50
102
RTVSPost2010PropOp50
 70
     1
102
RTVSPost2010Prop51ColorIndex
 90
      256
102
RTVSPost2010Prop51ColorRGB
 90
-16777216
102
RTVSPost2010PropOp51
 70
     0
102
RTVSPost2010Prop52
140
1.0
102
RTVSPost2010PropOp52
 70
     0
102
RTVSPost2010Prop53
 90
        2
102
RTVSPost2010PropOp53
 70
     1
102
RTVSPost2010Prop54
  1
strokes_ogs.tif
102
RTVSPost2010PropOp54
 70
     1
102
RTVSPost2010Prop55
280
     0
102
RTVSPost2010PropOp55
 70
     1
102
RTVSPost2010Prop56
140
1.0
102
RTVSPost2010PropOp56
 70
     1
102
RTVSPost2010Prop57
140
1.0
102
RTVSPost2010PropOp57
 70
     1
  0
XRECORD
  5
381
102
{ACAD_REACTORS
330
380
102
}
330
380
100
AcDbXrecord
280
     1
102
RTVSPropertyOp0
 70
     1
102
RTVSPropertyOp1
 70
     1
102
RTVSPropertyOp2
 70
     1
102
RTVSPropertyOp3
 70
     1
102
RTVSPropertyOp4
 70
     1
102
RTVSPropertyOp5
 70
     1
102
RTVSPropertyOp6
 70
     1
102
RTVSPropertyOp7
 70
     1
102
RTVSPropertyOp8
 70
     1
102
RTVSPropertyOp9
 70
     1
102
RTVSPropertyOp10
 70
     1
102
RTVSPropertyOp11
 70
     1
102
RTVSPropertyOp12
 70
     1
102
RTVSPropertyOp13
 70
     1
102
RTVSPropertyOp14
 70
     1
102
RTVSPropertyOp15
 70
     1
102
RTVSPropertyOp16
 70
     1
102
RTVSPropertyOp17
 70
     1
102
RTVSPropertyOp18
 70
     1
102
RTVSPropertyOp19
 70
     1
102
RTVSPropertyOp20
 70
     1
102
RTVSPropertyOp21
 70
     1
102
RTVSPropertyOp22
 70
     1
102
RTVSPropertyOp23
 70
     1
102
RTVSPropertyOp24
 70
     1
102
RTVSPropertyOp25
 70
     1
102
RTVSPropertyOp26
 70
     1
102
RTVSPropertyOp27
 70
     1
102
RTVSPropertyOp28
 70
     1
102
RTVSPropertyOp29
 70
     1
102
RTVSPropertyOp30
 70
     1
102
RTVSPropertyOp31
 70
     1
102
RTVSPropertyOp32
 70
     1
102
RTVSPropertyOp33
 70
     1
102
RTVSPropertyOp34
 70
     1
102
RTVSPropertyOp35
 70
     1
102
RTVSPropertyOp36
 70
     1
102
RTVSPropertyOp37
 70
     1
102
RTVSPropertyOp38
 70
     1
102
RTVSPropertyOp39
 70
     1
102
RTVSPropertyOp40
 70
     1
102
RTVSPropertyOp41
 70
     1
102
RTVSPropertyOp42
 70
     1
102
RTVSPropertyOp43
 70
     1
102
RTVSPropertyOp44
 70
     1
102
RTVSPropertyOp45
 70
     1
102
RTVSPropertyOp46
 70
     1
102
RTVSPropertyOp47
 70
     1
102
RTVSPropertyOp48
 70
     1
102
RTVSPropertyOp49
 70
     1
102
RTVSPropertyOp50
 70
     1
102
RTVSPropertyOp51
 70
     0
102
RTVSPropertyOp52
 70
     0
102
RTVSPropertyOp53
 70
     1
102
RTVSPropertyOp54
 70
     1
102
RTVSPropertyOp55
 70
     1
102
RTVSPropertyOp56
 70
     1
102
RTVSPropertyOp57
 70
     1
102
RTVSPost2010Prop28
280
     0
102
RTVSPost2010PropOp28
 70
     1
102
RTVSPost2010Prop29
280
     1
102
RTVSPost2010PropOp29
 70
     1
102
RTVSPost2010Prop30
280
     1
102
RTVSPost2010PropOp30
 70
     1
102
RTVSPost2010Prop31
280
     0
102
RTVSPost2010PropOp31
 70
     1
102
RTVSPost2010Prop32
280
     0
102
RTVSPost2010PropOp32
 70
     1
102
RTVSPost2010Prop33
280
     0
102
RTVSPost2010PropOp33
 70
     1
102
RTVSPost2010Prop34
280
     0
102
RTVSPost2010PropOp34
 70
     1
102
RTVSPost2010Prop35
280
     0
102
RTVSPost2010PropOp35
 70
     1
102
RTVSPost2010Prop36
280
     0
102
RTVSPost2010PropOp36
 70
     1
102
RTVSPost2010Prop37
 90
       50
102
RTVSPost2010PropOp37
 70
     1
102
RTVSPost2010Prop38
140
0.0
102
RTVSPost2010PropOp38
 70
     1
102
RTVSPost2010Prop39
140
1.0
102
RTVSPost2010PropOp39
 70
     1
102
RTVSPost2010Prop40
 90
        0
102
RTVSPost2010PropOp40
 70
     1
102
RTVSPost2010Prop41ColorIndex
 90
      178
102
RTVSPost2010Prop41ColorRGB
 90
        0
102
RTVSPost2010PropOp41
 70
     1
102
RTVSPost2010Prop42
 90
       50
102
RTVSPost2010PropOp42
 70
     1
102
RTVSPost2010Prop43
 90
        3
102
RTVSPost2010PropOp43
 70
     1
102
RTVSPost2010Prop44ColorIndex
 90
        5
102
RTVSPost2010Prop44ColorRGB
 90
      255
102
RTVSPost2010PropOp44
 70
     1
102
RTVSPost2010Prop45
280
     0
102
RTVSPost2010PropOp45
 70
     1
102
RTVSPost2010Prop46
 90
       50
102
RTVSPost2010PropOp46
 70
     1
102
RTVSPost2010Prop47
 90
       50
102
RTVSPost2010PropOp47
 70
     1
102
RTVSPost2010Prop48
 90
       50
102
RTVSPost2010PropOp48
 70
     1
102
RTVSPost2010Prop49
280
     0
102
RTVSPost2010PropOp49
 70
     1
102
RTVSPost2010Prop50
 90
       50
102
RTVSPost2010PropOp50
 70
     1
102
RTVSPost2010Prop51ColorIndex
 90
      256
102
RTVSPost2010Prop51ColorRGB
 90
-16777216
102
RTVSPost2010PropOp51
 70
     0
102
RTVSPost2010Prop52
140
1.0
102
RTVSPost2010PropOp52
 70
     0
102
RTVSPost2010Prop53
 90
        2
102
RTVSPost2010PropOp53
 70
     1
102
RTVSPost2010Prop54
  1
strokes_ogs.tif
102
RTVSPost2010PropOp54
 70
     1
102
RTVSPost2010Prop55
280
     0
102
RTVSPost2010PropOp55
 70
     1
102
RTVSPost2010Prop56
140
1.0
102
RTVSPost2010PropOp56
 70
     1
102
RTVSPost2010Prop57
140
1.0
102
RTVSPost2010PropOp57
 70
     1
  0
ENDSEC
  0
EOF
