0
SECTION
2
HEADER
9
$INSUNITS
70
4
9
$ACADVER
1
AC1014
9
$HANDSEED
5
FFFF
0
ENDSEC
0
SECTION
2
TABLES
0
TABLE
2
VPORT
5
8
100
AcDbSymbolTable
0
ENDTAB
0
TABLE
2
LTYPE
5
5
100
AcDbSymbolTable
0
LTYPE
5
14
100
AcDbSymbolTableRecord
100
AcDbLinetypeTableRecord
2
BYBLOCK
70
0
0
LTYPE
5
15
100
AcDbSymbolTableRecord
100
AcDbLinetypeTableRecord
2
BYLAYER
70
0
0
ENDTAB
0
TABLE
2
LAYER
5
2
100
AcDbSymbolTable
70
2
0
LAYER
5
50
100
AcDbSymbolTableRecord
100
AcDbLayerTableRecord
2
0
70
0
6
CONTINUOUS
0
ENDTAB
0
TABLE
2
STYLE
5
3
100
AcDbSymbolTable
70
1
0
STYLE
5
11
100
AcDbSymbolTableRecord
100
AcDbTextStyleTableRecord
2
STANDARD
70
0
0
ENDTAB
0
TABLE
2
VIEW
5
6
100
AcDbSymbolTable
70
0
0
ENDTAB
0
TABLE
2
UCS
5
7
100
AcDbSymbolTable
70
0
0
ENDTAB
0
TABLE
2
APPID
5
9
100
AcDbSymbolTable
70
2
0
APPID
5
12
100
AcDbSymbolTableRecord
100
AcDbRegAppTableRecord
2
ACAD
70
0
0
ENDTAB
0
TABLE
2
DIMSTYLE
5
A
100
AcDbSymbolTable
70
1
0
ENDTAB
0
TABLE
2
BLOCK_RECORD
5
1
100
AcDbSymbolTable
70
1
0
BLOCK_RECORD
5
1F
100
AcDbSymbolTableRecord
100
AcDbBlockTableRecord
2
*MODEL_SPACE
0
BLOCK_RECORD
5
1B
100
AcDbSymbolTableRecord
100
AcDbBlockTableRecord
2
*PAPER_SPACE
0
ENDTAB
0
ENDSEC
0
SECTION
2
BLOCKS
0
BLOCK
5
20
100
AcDbEntity
100
AcDbBlockBegin
2
*MODEL_SPACE
0
ENDBLK
5
21
100
AcDbEntity
100
AcDbBlockEnd
0
BLOCK
5
1C
100
AcDbEntity
100
AcDbBlockBegin
2
*PAPER_SPACE
0
ENDBLK
5
1D
100
AcDbEntity
100
AcDbBlockEnd
0
ENDSEC
0
SECTION
2
ENTITIES
0
LWPOLYLINE
5
100
100
AcDbEntity
8
0
100
AcDbPolyline
90
8
70
1
43
0.0
10
12.476112498677621
20
-30.120000000000001
10
-12.476112498677626
20
-30.120000000000001
10
-30.120000000000005
20
-12.476112498677621
10
-30.11999999999999
20
12.47611249867763
10
-12.476112498677615
20
30.119999999999997
10
12.47611249867763
20
30.119999999999987
10
30.119999999999997
20
12.476112498677622
10
30.119999999999997
20
-12.476112498677628
0
LINE
5
101
100
AcDbEntity
8
0
100
AcDbLine
10
15.979999999999992
20
-1.4900000000000038
30
0
11
44.259999999999991
21
-1.4900000000000038
31
0
0
LINE
5
102
100
AcDbEntity
8
0
100
AcDbLine
10
44.259999999999991
20
-1.4900000000000038
30
0
11
44.259999999999991
21
1.4899999999999969
31
0
0
LINE
5
103
100
AcDbEntity
8
0
100
AcDbLine
10
44.259999999999991
20
1.4899999999999969
30
0
11
15.979999999999992
21
1.4899999999999969
31
0
0
LINE
5
104
100
AcDbEntity
8
0
100
AcDbLine
10
15.979999999999992
20
1.4899999999999969
30
0
11
15.979999999999992
21
-1.4900000000000038
31
0
0
LINE
5
105
100
AcDbEntity
8
0
100
AcDbLine
10
15.979999999999992
20
-1.4900000000000038
30
0
11
44.259999999999991
21
1.4899999999999969
31
0
0
LINE
5
106
100
AcDbEntity
8
0
100
AcDbLine
10
44.259999999999991
20
-1.4900000000000038
30
0
11
15.979999999999992
21
1.4899999999999969
31
0
0
LINE
5
107
100
AcDbEntity
8
0
100
AcDbLine
10
-15.979999999999992
20
-1.4899999999999958
30
0
11
-44.259999999999991
21
-1.4899999999999958
31
0
0
LINE
5
108
100
AcDbEntity
8
0
100
AcDbLine
10
-44.259999999999991
20
-1.4899999999999958
30
0
11
-44.259999999999991
21
1.4900000000000042
31
0
0
LINE
5
109
100
AcDbEntity
8
0
100
AcDbLine
10
-44.259999999999991
20
1.4900000000000042
30
0
11
-15.979999999999992
21
1.4900000000000044
31
0
0
LINE
5
110
100
AcDbEntity
8
0
100
AcDbLine
10
-15.979999999999992
20
1.4900000000000044
30
0
11
-15.979999999999992
21
-1.4899999999999958
31
0
0
LINE
5
111
100
AcDbEntity
8
0
100
AcDbLine
10
-15.979999999999992
20
-1.4899999999999958
30
0
11
-44.259999999999991
21
1.4900000000000042
31
0
0
LINE
5
112
100
AcDbEntity
8
0
100
AcDbLine
10
-44.259999999999991
20
-1.4899999999999958
30
0
11
-15.979999999999992
21
1.4900000000000044
31
0
0
LINE
5
113
100
AcDbEntity
8
0
100
AcDbLine
10
1.4900000000000047
20
15.980000000000011
30
0
11
-1.4899999999999927
21
15.980000000000011
31
0
0
LINE
5
114
100
AcDbEntity
8
0
100
AcDbLine
10
-1.4899999999999927
20
15.980000000000011
30
0
11
-1.4899999999999978
21
44.260000000000012
31
0
0
LINE
5
115
100
AcDbEntity
8
0
100
AcDbLine
10
-1.4899999999999978
20
44.260000000000012
30
0
11
1.4900000000000073
21
44.260000000000012
31
0
0
LINE
5
116
100
AcDbEntity
8
0
100
AcDbLine
10
1.4900000000000073
20
44.260000000000012
30
0
11
1.4900000000000047
21
15.980000000000011
31
0
0
LINE
5
117
100
AcDbEntity
8
0
100
AcDbLine
10
1.4900000000000047
20
15.980000000000011
30
0
11
-1.4899999999999978
21
44.260000000000012
31
0
0
LINE
5
118
100
AcDbEntity
8
0
100
AcDbLine
10
-1.4899999999999927
20
15.980000000000011
30
0
11
1.4900000000000073
21
44.260000000000012
31
0
0
LINE
5
119
100
AcDbEntity
8
0
100
AcDbLine
10
1.4899999999999969
20
-44.259999999999984
30
0
11
-1.4899999999999993
21
-44.259999999999984
31
0
0
LINE
5
120
100
AcDbEntity
8
0
100
AcDbLine
10
-1.4899999999999993
20
-44.259999999999984
30
0
11
-1.4900000000000044
21
-15.979999999999986
31
0
0
LINE
5
121
100
AcDbEntity
8
0
100
AcDbLine
10
-1.4900000000000044
20
-15.979999999999986
30
0
11
1.4899999999999998
21
-15.979999999999986
31
0
0
LINE
5
122
100
AcDbEntity
8
0
100
AcDbLine
10
1.4899999999999998
20
-15.979999999999986
30
0
11
1.4899999999999969
21
-44.259999999999984
31
0
0
LINE
5
123
100
AcDbEntity
8
0
100
AcDbLine
10
1.4899999999999969
20
-44.259999999999984
30
0
11
-1.4900000000000044
21
-15.979999999999986
31
0
0
LINE
5
124
100
AcDbEntity
8
0
100
AcDbLine
10
-1.4899999999999993
20
-44.259999999999984
30
0
11
1.4899999999999998
21
-15.979999999999986
31
0
0
LINE
5
125
100
AcDbEntity
8
0
100
AcDbLine
10
10.245977259393078
20
12.353155467328987
30
0
11
30.242957031348627
21
32.350135239284555
31
0
0
LINE
5
126
100
AcDbEntity
8
0
100
AcDbLine
10
30.242957031348627
20
32.350135239284555
30
0
11
32.350135239284555
21
30.242957031348652
31
0
0
LINE
5
127
100
AcDbEntity
8
0
100
AcDbLine
10
32.350135239284555
20
30.242957031348652
30
0
11
12.353155467328993
21
10.245977259393065
31
0
0
LINE
5
128
100
AcDbEntity
8
0
100
AcDbLine
10
12.353155467328993
20
10.245977259393065
30
0
11
10.245977259393078
21
12.353155467328987
31
0
0
LINE
5
129
100
AcDbEntity
8
0
100
AcDbLine
10
10.245977259393078
20
12.353155467328987
30
0
11
32.350135239284555
21
30.242957031348652
31
0
0
LINE
5
130
100
AcDbEntity
8
0
100
AcDbLine
10
30.242957031348627
20
32.350135239284555
30
0
11
12.353155467328993
21
10.245977259393065
31
0
0
LINE
5
131
100
AcDbEntity
8
0
100
AcDbLine
10
30.242957031348617
20
-32.350135239284526
30
0
11
10.245977259393042
21
-12.353155467328969
31
0
0
LINE
5
132
100
AcDbEntity
8
0
100
AcDbLine
10
10.245977259393042
20
-12.353155467328969
30
0
11
12.353155467328953
21
-10.245977259393053
31
0
0
LINE
5
133
100
AcDbEntity
8
0
100
AcDbLine
10
12.353155467328953
20
-10.245977259393053
30
0
11
32.350135239284526
21
-30.242957031348602
31
0
0
LINE
5
134
100
AcDbEntity
8
0
100
AcDbLine
10
32.350135239284526
20
-30.242957031348602
30
0
11
30.242957031348617
21
-32.350135239284526
31
0
0
LINE
5
135
100
AcDbEntity
8
0
100
AcDbLine
10
30.242957031348617
20
-32.350135239284526
30
0
11
12.353155467328953
21
-10.245977259393053
31
0
0
LINE
5
136
100
AcDbEntity
8
0
100
AcDbLine
10
10.245977259393042
20
-12.353155467328969
30
0
11
32.350135239284526
21
-30.242957031348602
31
0
0
LINE
5
137
100
AcDbEntity
8
0
100
AcDbLine
10
-30.242957031348663
20
-32.350135239284576
30
0
11
-10.245977259393113
21
-12.353155467329007
31
0
0
LINE
5
138
100
AcDbEntity
8
0
100
AcDbLine
10
-10.245977259393113
20
-12.353155467329007
30
0
11
-12.353155467329026
21
-10.245977259393095
31
0
0
LINE
5
139
100
AcDbEntity
8
0
100
AcDbLine
10
-12.353155467329026
20
-10.245977259393095
30
0
11
-32.350135239284576
21
-30.242957031348663
31
0
0
LINE
5
140
100
AcDbEntity
8
0
100
AcDbLine
10
-32.350135239284576
20
-30.242957031348663
30
0
11
-30.242957031348663
21
-32.350135239284576
31
0
0
LINE
5
141
100
AcDbEntity
8
0
100
AcDbLine
10
-30.242957031348663
20
-32.350135239284576
30
0
11
-12.353155467329026
21
-10.245977259393095
31
0
0
LINE
5
142
100
AcDbEntity
8
0
100
AcDbLine
10
-10.245977259393113
20
-12.353155467329007
30
0
11
-32.350135239284576
21
-30.242957031348663
31
0
0
LINE
5
143
100
AcDbEntity
8
0
100
AcDbLine
10
-12.353155467328953
20
10.245977259393019
30
0
11
-32.350135239284469
21
30.242957031348556
31
0
0
LINE
5
144
100
AcDbEntity
8
0
100
AcDbLine
10
-32.350135239284469
20
30.242957031348556
30
0
11
-30.242957031348578
21
32.350135239284505
31
0
0
LINE
5
145
100
AcDbEntity
8
0
100
AcDbLine
10
-30.242957031348578
20
32.350135239284505
30
0
11
-10.245977259393001
21
12.353155467328955
31
0
0
LINE
5
146
100
AcDbEntity
8
0
100
AcDbLine
10
-10.245977259393001
20
12.353155467328955
30
0
11
-12.353155467328953
21
10.245977259393019
31
0
0
LINE
5
147
100
AcDbEntity
8
0
100
AcDbLine
10
-12.353155467328953
20
10.245977259393019
30
0
11
-30.242957031348578
21
32.350135239284505
31
0
0
LINE
5
148
100
AcDbEntity
8
0
100
AcDbLine
10
-32.350135239284469
20
30.242957031348556
30
0
11
-10.245977259393001
21
12.353155467328955
31
0
0
ENDSEC
0
SECTION
2
OBJECTS
0
DICTIONARY
5
C
100
AcDbDictionary
3
ACAD_GROUP
350
D
3
ACAD_MLINESTYLE
350
17
0
DICTIONARY
5
D
100
AcDbDictionary
0
DICTIONARY
5
1A
330
C
100
AcDbDictionary
0
DICTIONARY
5
17
100
AcDbDictionary
0
ENDSEC
0
EOF
