0
SECTION
2
HEADER
9
$INSUNITS
70
4
9
$ACADVER
1
AC1014
9
$HANDSEED
5
FFFF
0
ENDSEC
0
SECTION
2
TABLES
0
TABLE
2
VPORT
5
8
100
AcDbSymbolTable
0
ENDTAB
0
TABLE
2
LTYPE
5
5
100
AcDbSymbolTable
0
LTYPE
5
14
100
AcDbSymbolTableRecord
100
AcDbLinetypeTableRecord
2
BYBLOCK
70
0
0
LTYPE
5
15
100
AcDbSymbolTableRecord
100
AcDbLinetypeTableRecord
2
BYLAYER
70
0
0
ENDTAB
0
TABLE
2
LAYER
5
2
100
AcDbSymbolTable
70
2
0
LAYER
5
50
100
AcDbSymbolTableRecord
100
AcDbLayerTableRecord
2
0
70
0
6
CONTINUOUS
0
ENDTAB
0
TABLE
2
STYLE
5
3
100
AcDbSymbolTable
70
1
0
STYLE
5
11
100
AcDbSymbolTableRecord
100
AcDbTextStyleTableRecord
2
STANDARD
70
0
0
ENDTAB
0
TABLE
2
VIEW
5
6
100
AcDbSymbolTable
70
0
0
ENDTAB
0
TABLE
2
UCS
5
7
100
AcDbSymbolTable
70
0
0
ENDTAB
0
TABLE
2
APPID
5
9
100
AcDbSymbolTable
70
2
0
APPID
5
12
100
AcDbSymbolTableRecord
100
AcDbRegAppTableRecord
2
ACAD
70
0
0
ENDTAB
0
TABLE
2
DIMSTYLE
5
A
100
AcDbSymbolTable
70
1
0
ENDTAB
0
TABLE
2
BLOCK_RECORD
5
1
100
AcDbSymbolTable
70
1
0
BLOCK_RECORD
5
1F
100
AcDbSymbolTableRecord
100
AcDbBlockTableRecord
2
*MODEL_SPACE
0
BLOCK_RECORD
5
1B
100
AcDbSymbolTableRecord
100
AcDbBlockTableRecord
2
*PAPER_SPACE
0
ENDTAB
0
ENDSEC
0
SECTION
2
BLOCKS
0
BLOCK
5
20
100
AcDbEntity
100
AcDbBlockBegin
2
*MODEL_SPACE
0
ENDBLK
5
21
100
AcDbEntity
100
AcDbBlockEnd
0
BLOCK
5
1C
100
AcDbEntity
100
AcDbBlockBegin
2
*PAPER_SPACE
0
ENDBLK
5
1D
100
AcDbEntity
100
AcDbBlockEnd
0
ENDSEC
0
SECTION
2
ENTITIES
0
LWPOLYLINE
5
100
100
AcDbEntity
8
0
100
AcDbPolyline
90
16
70
1
43
0.0
10
-49.82000000000005
20
23.400000000000006
10
-49.82000000000005
20
20.060000000000006
10
-15.060000000000038
20
20.059999999999999
10
-15.060000000000038
20
23.400000000000016
10
15.059999999999967
20
23.400000000000006
10
15.059999999999967
20
20.060000000000006
10
49.819999999999979
20
20.060000000000006
10
49.819999999999979
20
23.400000000000006
10
79.939999999999984
20
23.400000000000006
10
79.939999999999984
20
20.060000000000006
10
100.05999999999999
20
20.060000000000006
10
100.05999999999999
20
-20.059999999999999
10
-100.06000000000006
20
-20.059999999999995
10
-100.06000000000006
20
20.060000000000009
10
-79.940000000000055
20
20.060000000000006
10
-79.940000000000055
20
23.400000000000006
0
LINE
5
101
100
AcDbEntity
8
0
100
AcDbLine
10
96.839999999999989
20
10.060000000000004
30
0
11
100.05999999999999
21
10.060000000000004
31
0
0
LINE
5
102
100
AcDbEntity
8
0
100
AcDbLine
10
100.05999999999999
20
10.060000000000004
30
0
11
100.05999999999999
21
-10.059999999999995
31
0
0
LINE
5
103
100
AcDbEntity
8
0
100
AcDbLine
10
100.05999999999999
20
-10.059999999999995
30
0
11
96.839999999999989
21
-10.059999999999995
31
0
0
LINE
5
104
100
AcDbEntity
8
0
100
AcDbLine
10
96.839999999999989
20
-10.059999999999995
30
0
11
96.839999999999989
21
10.060000000000004
31
0
0
LINE
5
105
100
AcDbEntity
8
0
100
AcDbLine
10
96.839999999999989
20
10.060000000000004
30
0
11
100.05999999999999
21
-10.059999999999995
31
0
0
LINE
5
106
100
AcDbEntity
8
0
100
AcDbLine
10
100.05999999999999
20
10.060000000000004
30
0
11
96.839999999999989
21
-10.059999999999995
31
0
0
LINE
5
107
100
AcDbEntity
8
0
100
AcDbLine
10
-100.06000000000006
20
10.059999999999983
30
0
11
-96.840000000000089
21
10.059999999999983
31
0
0
LINE
5
108
100
AcDbEntity
8
0
100
AcDbLine
10
-96.840000000000089
20
10.059999999999983
30
0
11
-96.840000000000089
21
-10.059999999999965
31
0
0
LINE
5
109
100
AcDbEntity
8
0
100
AcDbLine
10
-96.840000000000089
20
-10.059999999999965
30
0
11
-100.06000000000006
21
-10.059999999999965
31
0
0
LINE
5
110
100
AcDbEntity
8
0
100
AcDbLine
10
-100.06000000000006
20
-10.059999999999965
30
0
11
-100.06000000000006
21
10.059999999999983
31
0
0
LINE
5
111
100
AcDbEntity
8
0
100
AcDbLine
10
-100.06000000000006
20
10.059999999999983
30
0
11
-96.840000000000089
21
-10.059999999999965
31
0
0
LINE
5
112
100
AcDbEntity
8
0
100
AcDbLine
10
-96.840000000000089
20
10.059999999999983
30
0
11
-100.06000000000006
21
-10.059999999999965
31
0
0
ENDSEC
0
SECTION
2
OBJECTS
0
DICTIONARY
5
C
100
AcDbDictionary
3
ACAD_GROUP
350
D
3
ACAD_MLINESTYLE
350
17
0
DICTIONARY
5
D
100
AcDbDictionary
0
DICTIONARY
5
1A
330
C
100
AcDbDictionary
0
DICTIONARY
5
17
100
AcDbDictionary
0
ENDSEC
0
EOF
