0
SECTION
2
HEADER
9
$INSUNITS
70
4
9
$ACADVER
1
AC1014
9
$HANDSEED
5
FFFF
0
ENDSEC
0
SECTION
2
TABLES
0
TABLE
2
VPORT
5
8
100
AcDbSymbolTable
0
ENDTAB
0
TABLE
2
LTYPE
5
5
100
AcDbSymbolTable
0
LTYPE
5
14
100
AcDbSymbolTableRecord
100
AcDbLinetypeTableRecord
2
BYBLOCK
70
0
0
LTYPE
5
15
100
AcDbSymbolTableRecord
100
AcDbLinetypeTableRecord
2
BYLAYER
70
0
0
ENDTAB
0
TABLE
2
LAYER
5
2
100
AcDbSymbolTable
70
2
0
LAYER
5
50
100
AcDbSymbolTableRecord
100
AcDbLayerTableRecord
2
0
70
0
6
CONTINUOUS
0
ENDTAB
0
TABLE
2
STYLE
5
3
100
AcDbSymbolTable
70
1
0
STYLE
5
11
100
AcDbSymbolTableRecord
100
AcDbTextStyleTableRecord
2
STANDARD
70
0
0
ENDTAB
0
TABLE
2
VIEW
5
6
100
AcDbSymbolTable
70
0
0
ENDTAB
0
TABLE
2
UCS
5
7
100
AcDbSymbolTable
70
0
0
ENDTAB
0
TABLE
2
APPID
5
9
100
AcDbSymbolTable
70
2
0
APPID
5
12
100
AcDbSymbolTableRecord
100
AcDbRegAppTableRecord
2
ACAD
70
0
0
ENDTAB
0
TABLE
2
DIMSTYLE
5
A
100
AcDbSymbolTable
70
1
0
ENDTAB
0
TABLE
2
BLOCK_RECORD
5
1
100
AcDbSymbolTable
70
1
0
BLOCK_RECORD
5
1F
100
AcDbSymbolTableRecord
100
AcDbBlockTableRecord
2
*MODEL_SPACE
0
BLOCK_RECORD
5
1B
100
AcDbSymbolTableRecord
100
AcDbBlockTableRecord
2
*PAPER_SPACE
0
ENDTAB
0
ENDSEC
0
SECTION
2
BLOCKS
0
BLOCK
5
20
100
AcDbEntity
100
AcDbBlockBegin
2
*MODEL_SPACE
0
ENDBLK
5
21
100
AcDbEntity
100
AcDbBlockEnd
0
BLOCK
5
1C
100
AcDbEntity
100
AcDbBlockBegin
2
*PAPER_SPACE
0
ENDBLK
5
1D
100
AcDbEntity
100
AcDbBlockEnd
0
ENDSEC
0
SECTION
2
ENTITIES
0
LWPOLYLINE
5
100
100
AcDbEntity
8
0
100
AcDbPolyline
90
3
70
1
43
0.0
10
0
20
0
10
-59.999974824452011
20
0.054964216764750162
10
-29.952387004208628
20
51.988984532784592
0
LINE
5
101
100
AcDbEntity
8
0
100
AcDbLine
10
0
20
0
30
0
11
59.999999999999993
21
0
31
0
0
LINE
5
102
100
AcDbEntity
8
0
100
AcDbLine
10
-31.489987412226007
20
-7.4725178916176045
30
0
11
-28.509987412226007
21
-7.4725178916176045
31
0
0
LINE
5
103
100
AcDbEntity
8
0
100
AcDbLine
10
-28.509987412226007
20
-7.4725178916176045
30
0
11
-28.509987412226007
21
7.5274821083823955
31
0
0
LINE
5
104
100
AcDbEntity
8
0
100
AcDbLine
10
-28.509987412226007
20
7.5274821083823955
30
0
11
-31.489987412226007
21
7.5274821083823955
31
0
0
LINE
5
105
100
AcDbEntity
8
0
100
AcDbLine
10
-31.489987412226007
20
7.5274821083823955
30
0
11
-31.489987412226007
21
-7.4725178916176045
31
0
0
LINE
5
106
100
AcDbEntity
8
0
100
AcDbLine
10
-31.489987412226007
20
-7.4725178916176045
30
0
11
-28.509987412226007
21
7.5274821083823955
31
0
0
LINE
5
107
100
AcDbEntity
8
0
100
AcDbLine
10
-28.509987412226007
20
-7.4725178916176045
30
0
11
-31.489987412226007
21
7.5274821083823955
31
0
0
LINE
5
108
100
AcDbEntity
8
0
100
AcDbLine
10
-39.230610139030567
20
20.97633105939645
30
0
11
-52.214115218035566
21
28.488228014457306
31
0
0
LINE
5
109
100
AcDbEntity
8
0
100
AcDbLine
10
-52.214115218035566
20
28.488228014457306
30
0
11
-50.721751689630146
21
31.067617690152957
31
0
0
LINE
5
110
100
AcDbEntity
8
0
100
AcDbLine
10
-50.721751689630146
20
31.067617690152957
30
0
11
-37.73824661062519
21
23.555720735092088
31
0
0
LINE
5
111
100
AcDbEntity
8
0
100
AcDbLine
10
-37.73824661062519
20
23.555720735092088
30
0
11
-39.230610139030567
21
20.97633105939645
31
0
0
LINE
5
112
100
AcDbEntity
8
0
100
AcDbLine
10
-39.230610139030567
20
20.97633105939645
30
0
11
-50.721751689630146
21
31.067617690152957
31
0
0
LINE
5
113
100
AcDbEntity
8
0
100
AcDbLine
10
-52.214115218035566
20
28.488228014457306
30
0
11
-37.73824661062519
21
23.555720735092088
31
0
0
LINE
5
114
100
AcDbEntity
8
0
100
AcDbLine
10
-20.730998958097857
20
20.959384108302071
30
0
11
-7.7337528249017096
21
28.447480859354229
31
0
0
LINE
5
115
100
AcDbEntity
8
0
100
AcDbLine
10
-7.7337528249017096
20
28.447480859354229
30
0
11
-9.2213880461107394
21
31.029600424482528
31
0
0
LINE
5
116
100
AcDbEntity
8
0
100
AcDbLine
10
-9.2213880461107394
20
31.029600424482528
30
0
11
-22.218634179306886
21
23.541503673430384
31
0
0
LINE
5
117
100
AcDbEntity
8
0
100
AcDbLine
10
-22.218634179306886
20
23.541503673430384
30
0
11
-20.730998958097857
21
20.959384108302071
31
0
0
LINE
5
118
100
AcDbEntity
8
0
100
AcDbLine
10
-20.730998958097857
20
20.959384108302071
30
0
11
-9.2213880461107394
21
31.029600424482528
31
0
0
LINE
5
119
100
AcDbEntity
8
0
100
AcDbLine
10
-7.7337528249017096
20
28.447480859354229
30
0
11
-22.218634179306886
21
23.541503673430384
31
0
0
ENDSEC
0
SECTION
2
OBJECTS
0
DICTIONARY
5
C
100
AcDbDictionary
3
ACAD_GROUP
350
D
3
ACAD_MLINESTYLE
350
17
0
DICTIONARY
5
D
100
AcDbDictionary
0
DICTIONARY
5
1A
330
C
100
AcDbDictionary
0
DICTIONARY
5
17
100
AcDbDictionary
0
ENDSEC
0
EOF
