ISO-10303-21;
HEADER;
/* Generated by software containing ST-Developer
 * from STEP Tools, Inc. (www.steptools.com) 
 */

FILE_DESCRIPTION(
/* description */ (''),
/* implementation_level */ '2;1');

FILE_NAME(
/* name */ 
'c:\\worker\\convert-fusion-jan-2019\\tmp\\job-1\\149\\output\\files\\
2892d587-f5b3-4230-bf44-f6b777a9ca72\\120069ac-63bd-4a78-819d-e60e049a
9791.stp',
/* time_stamp */ '2019-01-30T20:26:27+00:00',
/* author */ (''),
/* organization */ (''),
/* preprocessor_version */ 'ST-DEVELOPER v17.2',
/* originating_system */ 'Autodesk Translation Framework v7.6.0.251',
/* authorisation */ '');

FILE_SCHEMA (('AUTOMOTIVE_DESIGN { 1 0 10303 214 3 1 1 }'));
ENDSEC;

DATA;
#10=MECHANICAL_DESIGN_GEOMETRIC_PRESENTATION_REPRESENTATION('',(#13),#447);
#11=SHAPE_REPRESENTATION_RELATIONSHIP('SRR','None',#454,#12);
#12=ADVANCED_BREP_SHAPE_REPRESENTATION('',(#14),#446);
#13=STYLED_ITEM('',(#463),#14);
#14=MANIFOLD_SOLID_BREP('Body1',#275);
#15=FACE_OUTER_BOUND('',#29,.T.);
#16=FACE_OUTER_BOUND('',#30,.T.);
#17=FACE_OUTER_BOUND('',#31,.T.);
#18=FACE_OUTER_BOUND('',#32,.T.);
#19=FACE_OUTER_BOUND('',#33,.T.);
#20=FACE_OUTER_BOUND('',#34,.T.);
#21=FACE_OUTER_BOUND('',#35,.T.);
#22=FACE_OUTER_BOUND('',#36,.T.);
#23=FACE_OUTER_BOUND('',#37,.T.);
#24=FACE_OUTER_BOUND('',#38,.T.);
#25=FACE_OUTER_BOUND('',#39,.T.);
#26=FACE_OUTER_BOUND('',#40,.T.);
#27=FACE_OUTER_BOUND('',#41,.T.);
#28=FACE_OUTER_BOUND('',#42,.T.);
#29=EDGE_LOOP('',(#175,#176,#177,#178));
#30=EDGE_LOOP('',(#179,#180,#181,#182));
#31=EDGE_LOOP('',(#183,#184,#185,#186));
#32=EDGE_LOOP('',(#187,#188,#189,#190));
#33=EDGE_LOOP('',(#191,#192,#193,#194));
#34=EDGE_LOOP('',(#195,#196,#197,#198));
#35=EDGE_LOOP('',(#199,#200,#201,#202));
#36=EDGE_LOOP('',(#203,#204,#205,#206));
#37=EDGE_LOOP('',(#207,#208,#209,#210));
#38=EDGE_LOOP('',(#211,#212,#213,#214));
#39=EDGE_LOOP('',(#215,#216,#217,#218));
#40=EDGE_LOOP('',(#219,#220,#221,#222));
#41=EDGE_LOOP('',(#223,#224,#225,#226,#227,#228,#229,#230,#231,#232,#233,
#234));
#42=EDGE_LOOP('',(#235,#236,#237,#238,#239,#240,#241,#242,#243,#244,#245,
#246));
#43=LINE('',#373,#79);
#44=LINE('',#375,#80);
#45=LINE('',#377,#81);
#46=LINE('',#378,#82);
#47=LINE('',#381,#83);
#48=LINE('',#383,#84);
#49=LINE('',#384,#85);
#50=LINE('',#387,#86);
#51=LINE('',#389,#87);
#52=LINE('',#390,#88);
#53=LINE('',#393,#89);
#54=LINE('',#395,#90);
#55=LINE('',#396,#91);
#56=LINE('',#399,#92);
#57=LINE('',#401,#93);
#58=LINE('',#402,#94);
#59=LINE('',#405,#95);
#60=LINE('',#407,#96);
#61=LINE('',#408,#97);
#62=LINE('',#411,#98);
#63=LINE('',#413,#99);
#64=LINE('',#414,#100);
#65=LINE('',#417,#101);
#66=LINE('',#419,#102);
#67=LINE('',#420,#103);
#68=LINE('',#423,#104);
#69=LINE('',#425,#105);
#70=LINE('',#426,#106);
#71=LINE('',#429,#107);
#72=LINE('',#431,#108);
#73=LINE('',#432,#109);
#74=LINE('',#435,#110);
#75=LINE('',#437,#111);
#76=LINE('',#438,#112);
#77=LINE('',#440,#113);
#78=LINE('',#441,#114);
#79=VECTOR('',#307,11.3782);
#80=VECTOR('',#308,11.3782);
#81=VECTOR('',#309,11.3782);
#82=VECTOR('',#310,11.3782);
#83=VECTOR('',#313,11.3782);
#84=VECTOR('',#314,11.3782);
#85=VECTOR('',#315,11.3782);
#86=VECTOR('',#318,11.3782);
#87=VECTOR('',#319,11.3782);
#88=VECTOR('',#320,11.3782);
#89=VECTOR('',#323,11.3782);
#90=VECTOR('',#324,11.3782);
#91=VECTOR('',#325,11.3782);
#92=VECTOR('',#328,11.3782);
#93=VECTOR('',#329,11.3782);
#94=VECTOR('',#330,11.3782);
#95=VECTOR('',#333,11.3782);
#96=VECTOR('',#334,11.3782);
#97=VECTOR('',#335,11.3782);
#98=VECTOR('',#338,11.3782);
#99=VECTOR('',#339,11.3782);
#100=VECTOR('',#340,11.3782);
#101=VECTOR('',#343,11.3782);
#102=VECTOR('',#344,11.3782);
#103=VECTOR('',#345,11.3782);
#104=VECTOR('',#348,11.3782);
#105=VECTOR('',#349,11.3782);
#106=VECTOR('',#350,11.3782);
#107=VECTOR('',#353,11.3782);
#108=VECTOR('',#354,11.3782);
#109=VECTOR('',#355,11.3782);
#110=VECTOR('',#358,11.3782);
#111=VECTOR('',#359,11.3782);
#112=VECTOR('',#360,11.3782);
#113=VECTOR('',#363,11.3782);
#114=VECTOR('',#364,11.3782);
#115=VERTEX_POINT('',#371);
#116=VERTEX_POINT('',#372);
#117=VERTEX_POINT('',#374);
#118=VERTEX_POINT('',#376);
#119=VERTEX_POINT('',#380);
#120=VERTEX_POINT('',#382);
#121=VERTEX_POINT('',#386);
#122=VERTEX_POINT('',#388);
#123=VERTEX_POINT('',#392);
#124=VERTEX_POINT('',#394);
#125=VERTEX_POINT('',#398);
#126=VERTEX_POINT('',#400);
#127=VERTEX_POINT('',#404);
#128=VERTEX_POINT('',#406);
#129=VERTEX_POINT('',#410);
#130=VERTEX_POINT('',#412);
#131=VERTEX_POINT('',#416);
#132=VERTEX_POINT('',#418);
#133=VERTEX_POINT('',#422);
#134=VERTEX_POINT('',#424);
#135=VERTEX_POINT('',#428);
#136=VERTEX_POINT('',#430);
#137=VERTEX_POINT('',#434);
#138=VERTEX_POINT('',#436);
#139=EDGE_CURVE('',#115,#116,#43,.T.);
#140=EDGE_CURVE('',#115,#117,#44,.T.);
#141=EDGE_CURVE('',#118,#117,#45,.T.);
#142=EDGE_CURVE('',#116,#118,#46,.T.);
#143=EDGE_CURVE('',#116,#119,#47,.T.);
#144=EDGE_CURVE('',#120,#118,#48,.T.);
#145=EDGE_CURVE('',#119,#120,#49,.T.);
#146=EDGE_CURVE('',#119,#121,#50,.T.);
#147=EDGE_CURVE('',#122,#120,#51,.T.);
#148=EDGE_CURVE('',#121,#122,#52,.T.);
#149=EDGE_CURVE('',#121,#123,#53,.T.);
#150=EDGE_CURVE('',#124,#122,#54,.T.);
#151=EDGE_CURVE('',#123,#124,#55,.T.);
#152=EDGE_CURVE('',#123,#125,#56,.T.);
#153=EDGE_CURVE('',#126,#124,#57,.T.);
#154=EDGE_CURVE('',#125,#126,#58,.T.);
#155=EDGE_CURVE('',#125,#127,#59,.T.);
#156=EDGE_CURVE('',#128,#126,#60,.T.);
#157=EDGE_CURVE('',#127,#128,#61,.T.);
#158=EDGE_CURVE('',#127,#129,#62,.T.);
#159=EDGE_CURVE('',#130,#128,#63,.T.);
#160=EDGE_CURVE('',#129,#130,#64,.T.);
#161=EDGE_CURVE('',#129,#131,#65,.T.);
#162=EDGE_CURVE('',#132,#130,#66,.T.);
#163=EDGE_CURVE('',#131,#132,#67,.T.);
#164=EDGE_CURVE('',#131,#133,#68,.T.);
#165=EDGE_CURVE('',#134,#132,#69,.T.);
#166=EDGE_CURVE('',#133,#134,#70,.T.);
#167=EDGE_CURVE('',#133,#135,#71,.T.);
#168=EDGE_CURVE('',#136,#134,#72,.T.);
#169=EDGE_CURVE('',#135,#136,#73,.T.);
#170=EDGE_CURVE('',#137,#135,#74,.T.);
#171=EDGE_CURVE('',#138,#136,#75,.T.);
#172=EDGE_CURVE('',#137,#138,#76,.T.);
#173=EDGE_CURVE('',#115,#137,#77,.T.);
#174=EDGE_CURVE('',#117,#138,#78,.T.);
#175=ORIENTED_EDGE('',*,*,#139,.F.);
#176=ORIENTED_EDGE('',*,*,#140,.T.);
#177=ORIENTED_EDGE('',*,*,#141,.F.);
#178=ORIENTED_EDGE('',*,*,#142,.F.);
#179=ORIENTED_EDGE('',*,*,#143,.F.);
#180=ORIENTED_EDGE('',*,*,#142,.T.);
#181=ORIENTED_EDGE('',*,*,#144,.F.);
#182=ORIENTED_EDGE('',*,*,#145,.F.);
#183=ORIENTED_EDGE('',*,*,#146,.F.);
#184=ORIENTED_EDGE('',*,*,#145,.T.);
#185=ORIENTED_EDGE('',*,*,#147,.F.);
#186=ORIENTED_EDGE('',*,*,#148,.F.);
#187=ORIENTED_EDGE('',*,*,#149,.F.);
#188=ORIENTED_EDGE('',*,*,#148,.T.);
#189=ORIENTED_EDGE('',*,*,#150,.F.);
#190=ORIENTED_EDGE('',*,*,#151,.F.);
#191=ORIENTED_EDGE('',*,*,#152,.F.);
#192=ORIENTED_EDGE('',*,*,#151,.T.);
#193=ORIENTED_EDGE('',*,*,#153,.F.);
#194=ORIENTED_EDGE('',*,*,#154,.F.);
#195=ORIENTED_EDGE('',*,*,#155,.F.);
#196=ORIENTED_EDGE('',*,*,#154,.T.);
#197=ORIENTED_EDGE('',*,*,#156,.F.);
#198=ORIENTED_EDGE('',*,*,#157,.F.);
#199=ORIENTED_EDGE('',*,*,#158,.F.);
#200=ORIENTED_EDGE('',*,*,#157,.T.);
#201=ORIENTED_EDGE('',*,*,#159,.F.);
#202=ORIENTED_EDGE('',*,*,#160,.F.);
#203=ORIENTED_EDGE('',*,*,#161,.F.);
#204=ORIENTED_EDGE('',*,*,#160,.T.);
#205=ORIENTED_EDGE('',*,*,#162,.F.);
#206=ORIENTED_EDGE('',*,*,#163,.F.);
#207=ORIENTED_EDGE('',*,*,#164,.F.);
#208=ORIENTED_EDGE('',*,*,#163,.T.);
#209=ORIENTED_EDGE('',*,*,#165,.F.);
#210=ORIENTED_EDGE('',*,*,#166,.F.);
#211=ORIENTED_EDGE('',*,*,#167,.F.);
#212=ORIENTED_EDGE('',*,*,#166,.T.);
#213=ORIENTED_EDGE('',*,*,#168,.F.);
#214=ORIENTED_EDGE('',*,*,#169,.F.);
#215=ORIENTED_EDGE('',*,*,#170,.T.);
#216=ORIENTED_EDGE('',*,*,#169,.T.);
#217=ORIENTED_EDGE('',*,*,#171,.F.);
#218=ORIENTED_EDGE('',*,*,#172,.F.);
#219=ORIENTED_EDGE('',*,*,#173,.T.);
#220=ORIENTED_EDGE('',*,*,#172,.T.);
#221=ORIENTED_EDGE('',*,*,#174,.F.);
#222=ORIENTED_EDGE('',*,*,#140,.F.);
#223=ORIENTED_EDGE('',*,*,#174,.T.);
#224=ORIENTED_EDGE('',*,*,#171,.T.);
#225=ORIENTED_EDGE('',*,*,#168,.T.);
#226=ORIENTED_EDGE('',*,*,#165,.T.);
#227=ORIENTED_EDGE('',*,*,#162,.T.);
#228=ORIENTED_EDGE('',*,*,#159,.T.);
#229=ORIENTED_EDGE('',*,*,#156,.T.);
#230=ORIENTED_EDGE('',*,*,#153,.T.);
#231=ORIENTED_EDGE('',*,*,#150,.T.);
#232=ORIENTED_EDGE('',*,*,#147,.T.);
#233=ORIENTED_EDGE('',*,*,#144,.T.);
#234=ORIENTED_EDGE('',*,*,#141,.T.);
#235=ORIENTED_EDGE('',*,*,#173,.F.);
#236=ORIENTED_EDGE('',*,*,#139,.T.);
#237=ORIENTED_EDGE('',*,*,#143,.T.);
#238=ORIENTED_EDGE('',*,*,#146,.T.);
#239=ORIENTED_EDGE('',*,*,#149,.T.);
#240=ORIENTED_EDGE('',*,*,#152,.T.);
#241=ORIENTED_EDGE('',*,*,#155,.T.);
#242=ORIENTED_EDGE('',*,*,#158,.T.);
#243=ORIENTED_EDGE('',*,*,#161,.T.);
#244=ORIENTED_EDGE('',*,*,#164,.T.);
#245=ORIENTED_EDGE('',*,*,#167,.T.);
#246=ORIENTED_EDGE('',*,*,#170,.F.);
#247=PLANE('',#289);
#248=PLANE('',#290);
#249=PLANE('',#291);
#250=PLANE('',#292);
#251=PLANE('',#293);
#252=PLANE('',#294);
#253=PLANE('',#295);
#254=PLANE('',#296);
#255=PLANE('',#297);
#256=PLANE('',#298);
#257=PLANE('',#299);
#258=PLANE('',#300);
#259=PLANE('',#301);
#260=PLANE('',#302);
#261=ADVANCED_FACE('',(#15),#247,.T.);
#262=ADVANCED_FACE('',(#16),#248,.T.);
#263=ADVANCED_FACE('',(#17),#249,.T.);
#264=ADVANCED_FACE('',(#18),#250,.T.);
#265=ADVANCED_FACE('',(#19),#251,.T.);
#266=ADVANCED_FACE('',(#20),#252,.T.);
#267=ADVANCED_FACE('',(#21),#253,.T.);
#268=ADVANCED_FACE('',(#22),#254,.T.);
#269=ADVANCED_FACE('',(#23),#255,.T.);
#270=ADVANCED_FACE('',(#24),#256,.T.);
#271=ADVANCED_FACE('',(#25),#257,.T.);
#272=ADVANCED_FACE('',(#26),#258,.T.);
#273=ADVANCED_FACE('',(#27),#259,.T.);
#274=ADVANCED_FACE('',(#28),#260,.F.);
#275=CLOSED_SHELL('',(#261,#262,#263,#264,#265,#266,#267,#268,#269,#270,
#271,#272,#273,#274));
#276=DERIVED_UNIT_ELEMENT(#278,1.);
#277=DERIVED_UNIT_ELEMENT(#449,3.);
#278=(
MASS_UNIT()
NAMED_UNIT(*)
SI_UNIT(.KILO.,.GRAM.)
);
#279=DERIVED_UNIT((#276,#277));
#280=MEASURE_REPRESENTATION_ITEM('density measure',
POSITIVE_RATIO_MEASURE(7850.),#279);
#281=PROPERTY_DEFINITION_REPRESENTATION(#286,#283);
#282=PROPERTY_DEFINITION_REPRESENTATION(#287,#284);
#283=REPRESENTATION('material name',(#285),#446);
#284=REPRESENTATION('density',(#280),#446);
#285=DESCRIPTIVE_REPRESENTATION_ITEM('Steel','Steel');
#286=PROPERTY_DEFINITION('material property','material name',#456);
#287=PROPERTY_DEFINITION('material property','density of part',#456);
#288=AXIS2_PLACEMENT_3D('placement',#369,#303,#304);
#289=AXIS2_PLACEMENT_3D('',#370,#305,#306);
#290=AXIS2_PLACEMENT_3D('',#379,#311,#312);
#291=AXIS2_PLACEMENT_3D('',#385,#316,#317);
#292=AXIS2_PLACEMENT_3D('',#391,#321,#322);
#293=AXIS2_PLACEMENT_3D('',#397,#326,#327);
#294=AXIS2_PLACEMENT_3D('',#403,#331,#332);
#295=AXIS2_PLACEMENT_3D('',#409,#336,#337);
#296=AXIS2_PLACEMENT_3D('',#415,#341,#342);
#297=AXIS2_PLACEMENT_3D('',#421,#346,#347);
#298=AXIS2_PLACEMENT_3D('',#427,#351,#352);
#299=AXIS2_PLACEMENT_3D('',#433,#356,#357);
#300=AXIS2_PLACEMENT_3D('',#439,#361,#362);
#301=AXIS2_PLACEMENT_3D('',#442,#365,#366);
#302=AXIS2_PLACEMENT_3D('',#443,#367,#368);
#303=DIRECTION('axis',(0.,0.,1.));
#304=DIRECTION('refdir',(1.,0.,0.));
#305=DIRECTION('center_axis',(-0.11512724809291,0.,0.993350752124623));
#306=DIRECTION('ref_axis',(0.993350752124623,0.,0.11512724809291));
#307=DIRECTION('',(-0.993350752124623,0.,-0.11512724809291));
#308=DIRECTION('',(0.,1.,0.));
#309=DIRECTION('',(0.993350752124623,0.,0.11512724809291));
#310=DIRECTION('',(0.,1.,0.));
#311=DIRECTION('center_axis',(-0.917830610254757,0.,-0.396972254546059));
#312=DIRECTION('ref_axis',(-0.396972254546059,0.,0.917830610254757));
#313=DIRECTION('',(0.396972254546059,0.,-0.917830610254757));
#314=DIRECTION('',(-0.396972254546059,0.,0.917830610254757));
#315=DIRECTION('',(0.,1.,0.));
#316=DIRECTION('center_axis',(-0.917830610254758,0.,0.396972254546057));
#317=DIRECTION('ref_axis',(0.396972254546057,0.,0.917830610254758));
#318=DIRECTION('',(-0.396972254546057,0.,-0.917830610254758));
#319=DIRECTION('',(0.396972254546057,0.,0.917830610254758));
#320=DIRECTION('',(0.,1.,0.));
#321=DIRECTION('center_axis',(-0.11512724809291,0.,-0.993350752124623));
#322=DIRECTION('ref_axis',(-0.993350752124623,0.,0.11512724809291));
#323=DIRECTION('',(0.993350752124623,0.,-0.11512724809291));
#324=DIRECTION('',(-0.993350752124623,0.,0.11512724809291));
#325=DIRECTION('',(0.,1.,0.));
#326=DIRECTION('center_axis',(-0.802703362161847,0.,-0.596378497578565));
#327=DIRECTION('ref_axis',(-0.596378497578565,0.,0.802703362161847));
#328=DIRECTION('',(0.596378497578565,0.,-0.802703362161847));
#329=DIRECTION('',(-0.596378497578565,0.,0.802703362161847));
#330=DIRECTION('',(0.,1.,0.));
#331=DIRECTION('center_axis',(0.802703362161848,0.,-0.596378497578564));
#332=DIRECTION('ref_axis',(-0.596378497578564,0.,-0.802703362161848));
#333=DIRECTION('',(0.596378497578564,0.,0.802703362161848));
#334=DIRECTION('',(-0.596378497578564,0.,-0.802703362161848));
#335=DIRECTION('',(0.,1.,0.));
#336=DIRECTION('center_axis',(0.115127248092909,0.,-0.993350752124623));
#337=DIRECTION('ref_axis',(-0.993350752124623,0.,-0.115127248092909));
#338=DIRECTION('',(0.993350752124623,0.,0.115127248092909));
#339=DIRECTION('',(-0.993350752124623,0.,-0.115127248092909));
#340=DIRECTION('',(0.,1.,0.));
#341=DIRECTION('center_axis',(0.917830610254757,0.,0.396972254546059));
#342=DIRECTION('ref_axis',(0.396972254546059,0.,-0.917830610254757));
#343=DIRECTION('',(-0.396972254546059,0.,0.917830610254757));
#344=DIRECTION('',(0.396972254546059,0.,-0.917830610254757));
#345=DIRECTION('',(0.,1.,0.));
#346=DIRECTION('center_axis',(0.917830610254757,0.,-0.396972254546058));
#347=DIRECTION('ref_axis',(-0.396972254546058,0.,-0.917830610254757));
#348=DIRECTION('',(0.396972254546058,0.,0.917830610254757));
#349=DIRECTION('',(-0.396972254546058,0.,-0.917830610254757));
#350=DIRECTION('',(0.,1.,0.));
#351=DIRECTION('center_axis',(0.11512724809291,0.,0.993350752124623));
#352=DIRECTION('ref_axis',(0.993350752124623,0.,-0.11512724809291));
#353=DIRECTION('',(-0.993350752124623,0.,0.11512724809291));
#354=DIRECTION('',(0.993350752124623,0.,-0.11512724809291));
#355=DIRECTION('',(0.,1.,0.));
#356=DIRECTION('center_axis',(0.802703362161847,0.,0.596378497578565));
#357=DIRECTION('ref_axis',(0.596378497578565,0.,-0.802703362161847));
#358=DIRECTION('',(0.596378497578565,0.,-0.802703362161847));
#359=DIRECTION('',(0.596378497578565,0.,-0.802703362161847));
#360=DIRECTION('',(0.,1.,0.));
#361=DIRECTION('center_axis',(-0.802703362161848,0.,0.596378497578564));
#362=DIRECTION('ref_axis',(0.596378497578564,0.,0.802703362161848));
#363=DIRECTION('',(0.596378497578564,0.,0.802703362161848));
#364=DIRECTION('',(0.596378497578564,0.,0.802703362161848));
#365=DIRECTION('center_axis',(0.,1.,0.));
#366=DIRECTION('ref_axis',(0.,0.,1.));
#367=DIRECTION('center_axis',(0.,1.,0.));
#368=DIRECTION('ref_axis',(1.,0.,0.));
#369=CARTESIAN_POINT('',(0.,0.,0.));
#370=CARTESIAN_POINT('Origin',(-5.87975304488883,-0.441024,7.86769639457508));
#371=CARTESIAN_POINT('',(2.63530631761169,-0.441024,8.85457373840928));
#372=CARTESIAN_POINT('',(-5.87975304488883,-0.441024,7.86769639457508));
#373=CARTESIAN_POINT('',(2.63530631761169,-0.441024,8.85457373840928));
#374=CARTESIAN_POINT('',(2.63530631761169,3.2,8.85457373840928));
#375=CARTESIAN_POINT('',(2.63530631761169,-0.441024,8.85457373840928));
#376=CARTESIAN_POINT('',(-5.87975304488883,3.2,7.86769639457508));
#377=CARTESIAN_POINT('',(2.63530631761169,3.2,8.85457373840928));
#378=CARTESIAN_POINT('',(-5.87975304488883,-0.441024,7.86769639457508));
#379=CARTESIAN_POINT('Origin',(-2.47688421381829,-0.441024,0.));
#380=CARTESIAN_POINT('',(-2.47688421381829,-0.441024,0.));
#381=CARTESIAN_POINT('',(-5.87975304488883,-0.441024,7.86769639457508));
#382=CARTESIAN_POINT('',(-2.47688421381829,3.2,0.));
#383=CARTESIAN_POINT('',(-5.87975304488883,3.2,7.86769639457508));
#384=CARTESIAN_POINT('',(-2.47688421381829,-0.441024,0.));
#385=CARTESIAN_POINT('Origin',(-5.87975304488882,-0.441024,-7.86769639457508));
#386=CARTESIAN_POINT('',(-5.87975304488882,-0.441024,-7.86769639457508));
#387=CARTESIAN_POINT('',(-2.47688421381829,-0.441024,0.));
#388=CARTESIAN_POINT('',(-5.87975304488882,3.2,-7.86769639457508));
#389=CARTESIAN_POINT('',(-2.47688421381829,3.2,0.));
#390=CARTESIAN_POINT('',(-5.87975304488882,-0.441024,-7.86769639457508));
#391=CARTESIAN_POINT('Origin',(2.63530631761171,-0.441024,-8.85457373840928));
#392=CARTESIAN_POINT('',(2.63530631761171,-0.441024,-8.85457373840928));
#393=CARTESIAN_POINT('',(-5.87975304488882,-0.441024,-7.86769639457508));
#394=CARTESIAN_POINT('',(2.63530631761171,3.2,-8.85457373840928));
#395=CARTESIAN_POINT('',(-5.87975304488882,3.2,-7.86769639457508));
#396=CARTESIAN_POINT('',(2.63530631761171,-0.441024,-8.85457373840928));
#397=CARTESIAN_POINT('Origin',(7.7474968490417,-0.441024,-15.7353927891502));
#398=CARTESIAN_POINT('',(7.7474968490417,-0.441024,-15.7353927891502));
#399=CARTESIAN_POINT('',(2.63530631761171,-0.441024,-8.85457373840928));
#400=CARTESIAN_POINT('',(7.7474968490417,3.2,-15.7353927891502));
#401=CARTESIAN_POINT('',(2.63530631761171,3.2,-8.85457373840928));
#402=CARTESIAN_POINT('',(7.7474968490417,-0.441024,-15.7353927891502));
#403=CARTESIAN_POINT('Origin',(12.8596873804717,-0.441024,-8.85457373840927));
#404=CARTESIAN_POINT('',(12.8596873804717,-0.441024,-8.85457373840927));
#405=CARTESIAN_POINT('',(7.7474968490417,-0.441024,-15.7353927891502));
#406=CARTESIAN_POINT('',(12.8596873804717,3.2,-8.85457373840927));
#407=CARTESIAN_POINT('',(7.7474968490417,3.2,-15.7353927891502));
#408=CARTESIAN_POINT('',(12.8596873804717,-0.441024,-8.85457373840927));
#409=CARTESIAN_POINT('Origin',(21.3747467429722,-0.441024,-7.86769639457508));
#410=CARTESIAN_POINT('',(21.3747467429722,-0.441024,-7.86769639457508));
#411=CARTESIAN_POINT('',(12.8596873804717,-0.441024,-8.85457373840927));
#412=CARTESIAN_POINT('',(21.3747467429722,3.2,-7.86769639457508));
#413=CARTESIAN_POINT('',(12.8596873804717,3.2,-8.85457373840927));
#414=CARTESIAN_POINT('',(21.3747467429722,-0.441024,-7.86769639457508));
#415=CARTESIAN_POINT('Origin',(17.9718779119017,-0.441024,0.));
#416=CARTESIAN_POINT('',(17.9718779119017,-0.441024,-1.57904245234874E-16));
#417=CARTESIAN_POINT('',(21.3747467429722,-0.441024,-7.86769639457508));
#418=CARTESIAN_POINT('',(17.9718779119017,3.2,0.));
#419=CARTESIAN_POINT('',(21.3747467429722,3.2,-7.86769639457508));
#420=CARTESIAN_POINT('',(17.9718779119017,-0.441024,-1.57904245234874E-16));
#421=CARTESIAN_POINT('Origin',(21.3747467429722,-0.441024,7.86769639457508));
#422=CARTESIAN_POINT('',(21.3747467429722,-0.441024,7.86769639457508));
#423=CARTESIAN_POINT('',(17.9718779119017,-0.441024,-1.57904245234874E-16));
#424=CARTESIAN_POINT('',(21.3747467429722,3.2,7.86769639457508));
#425=CARTESIAN_POINT('',(17.9718779119017,3.2,-1.57904245234874E-16));
#426=CARTESIAN_POINT('',(21.3747467429722,-0.441024,7.86769639457508));
#427=CARTESIAN_POINT('Origin',(12.8596873804717,-0.441024,8.85457373840928));
#428=CARTESIAN_POINT('',(12.8596873804717,-0.441024,8.85457373840928));
#429=CARTESIAN_POINT('',(21.3747467429722,-0.441024,7.86769639457508));
#430=CARTESIAN_POINT('',(12.8596873804717,3.2,8.85457373840928));
#431=CARTESIAN_POINT('',(21.3747467429722,3.2,7.86769639457508));
#432=CARTESIAN_POINT('',(12.8596873804717,-0.441024,8.85457373840928));
#433=CARTESIAN_POINT('Origin',(7.74749684904168,-0.441024,15.7353927891502));
#434=CARTESIAN_POINT('',(7.74749684904168,-0.441024,15.7353927891502));
#435=CARTESIAN_POINT('',(7.74749684904168,-0.441024,15.7353927891502));
#436=CARTESIAN_POINT('',(7.74749684904168,3.2,15.7353927891502));
#437=CARTESIAN_POINT('',(7.74749684904168,3.2,15.7353927891502));
#438=CARTESIAN_POINT('',(7.74749684904168,-0.441024,15.7353927891502));
#439=CARTESIAN_POINT('Origin',(2.63530631761169,-0.441024,8.85457373840928));
#440=CARTESIAN_POINT('',(2.63530631761169,-0.441024,8.85457373840928));
#441=CARTESIAN_POINT('',(2.63530631761169,3.2,8.85457373840928));
#442=CARTESIAN_POINT('Origin',(7.74749684904169,3.2,2.52646792375799E-15));
#443=CARTESIAN_POINT('Origin',(7.74749684904169,-0.441024,2.52646792375799E-15));
#444=UNCERTAINTY_MEASURE_WITH_UNIT(LENGTH_MEASURE(0.01),#448,
'DISTANCE_ACCURACY_VALUE',
'Maximum model space distance between geometric entities at asserted c
onnectivities');
#445=UNCERTAINTY_MEASURE_WITH_UNIT(LENGTH_MEASURE(0.01),#448,
'DISTANCE_ACCURACY_VALUE',
'Maximum model space distance between geometric entities at asserted c
onnectivities');
#446=(
GEOMETRIC_REPRESENTATION_CONTEXT(3)
GLOBAL_UNCERTAINTY_ASSIGNED_CONTEXT((#444))
GLOBAL_UNIT_ASSIGNED_CONTEXT((#448,#450,#451))
REPRESENTATION_CONTEXT('','3D')
);
#447=(
GEOMETRIC_REPRESENTATION_CONTEXT(3)
GLOBAL_UNCERTAINTY_ASSIGNED_CONTEXT((#445))
GLOBAL_UNIT_ASSIGNED_CONTEXT((#448,#450,#451))
REPRESENTATION_CONTEXT('','3D')
);
#448=(
LENGTH_UNIT()
NAMED_UNIT(*)
SI_UNIT(.MILLI.,.METRE.)
);
#449=(
LENGTH_UNIT()
NAMED_UNIT(*)
SI_UNIT($,.METRE.)
);
#450=(
NAMED_UNIT(*)
PLANE_ANGLE_UNIT()
SI_UNIT($,.RADIAN.)
);
#451=(
NAMED_UNIT(*)
SI_UNIT($,.STERADIAN.)
SOLID_ANGLE_UNIT()
);
#452=SHAPE_DEFINITION_REPRESENTATION(#453,#454);
#453=PRODUCT_DEFINITION_SHAPE('',$,#456);
#454=SHAPE_REPRESENTATION('',(#288),#446);
#455=PRODUCT_DEFINITION_CONTEXT('part definition',#460,'design');
#456=PRODUCT_DEFINITION('VinlyCuttingCoaster','VinlyCuttingCoaster v3',
#457,#455);
#457=PRODUCT_DEFINITION_FORMATION('',$,#462);
#458=PRODUCT_RELATED_PRODUCT_CATEGORY('VinlyCuttingCoaster v3',
'VinlyCuttingCoaster v3',(#462));
#459=APPLICATION_PROTOCOL_DEFINITION('international standard',
'automotive_design',2009,#460);
#460=APPLICATION_CONTEXT(
'Core Data for Automotive Mechanical Design Process');
#461=PRODUCT_CONTEXT('part definition',#460,'mechanical');
#462=PRODUCT('VinlyCuttingCoaster','VinlyCuttingCoaster v3',$,(#461));
#463=PRESENTATION_STYLE_ASSIGNMENT((#464));
#464=SURFACE_STYLE_USAGE(.BOTH.,#465);
#465=SURFACE_SIDE_STYLE('',(#466));
#466=SURFACE_STYLE_FILL_AREA(#467);
#467=FILL_AREA_STYLE('Steel - Satin',(#468));
#468=FILL_AREA_STYLE_COLOUR('Steel - Satin',#469);
#469=COLOUR_RGB('Steel - Satin',0.627450980392157,0.627450980392157,0.627450980392157);
ENDSEC;
END-ISO-10303-21;
