0
SECTION
2
HEADER
9
$INSUNITS
70
4
9
$ACADVER
1
AC1014
9
$HANDSEED
5
FFFF
0
ENDSEC
0
SECTION
2
TABLES
0
TABLE
2
VPORT
5
8
100
AcDbSymbolTable
0
ENDTAB
0
TABLE
2
LTYPE
5
5
100
AcDbSymbolTable
0
LTYPE
5
14
100
AcDbSymbolTableRecord
100
AcDbLinetypeTableRecord
2
BYBLOCK
70
0
0
LTYPE
5
15
100
AcDbSymbolTableRecord
100
AcDbLinetypeTableRecord
2
BYLAYER
70
0
0
ENDTAB
0
TABLE
2
LAYER
5
2
100
AcDbSymbolTable
70
2
0
LAYER
5
50
100
AcDbSymbolTableRecord
100
AcDbLayerTableRecord
2
0
70
0
6
CONTINUOUS
0
ENDTAB
0
TABLE
2
STYLE
5
3
100
AcDbSymbolTable
70
1
0
STYLE
5
11
100
AcDbSymbolTableRecord
100
AcDbTextStyleTableRecord
2
STANDARD
70
0
0
ENDTAB
0
TABLE
2
VIEW
5
6
100
AcDbSymbolTable
70
0
0
ENDTAB
0
TABLE
2
UCS
5
7
100
AcDbSymbolTable
70
0
0
ENDTAB
0
TABLE
2
APPID
5
9
100
AcDbSymbolTable
70
2
0
APPID
5
12
100
AcDbSymbolTableRecord
100
AcDbRegAppTableRecord
2
ACAD
70
0
0
ENDTAB
0
TABLE
2
DIMSTYLE
5
A
100
AcDbSymbolTable
70
1
0
ENDTAB
0
TABLE
2
BLOCK_RECORD
5
1
100
AcDbSymbolTable
70
1
0
BLOCK_RECORD
5
1F
100
AcDbSymbolTableRecord
100
AcDbBlockTableRecord
2
*MODEL_SPACE
0
BLOCK_RECORD
5
1B
100
AcDbSymbolTableRecord
100
AcDbBlockTableRecord
2
*PAPER_SPACE
0
ENDTAB
0
ENDSEC
0
SECTION
2
BLOCKS
0
BLOCK
5
20
100
AcDbEntity
100
AcDbBlockBegin
2
*MODEL_SPACE
0
ENDBLK
5
21
100
AcDbEntity
100
AcDbBlockEnd
0
BLOCK
5
1C
100
AcDbEntity
100
AcDbBlockBegin
2
*PAPER_SPACE
0
ENDBLK
5
1D
100
AcDbEntity
100
AcDbBlockEnd
0
ENDSEC
0
SECTION
2
ENTITIES
0
LINE
5
100
100
AcDbEntity
8
0
100
AcDbLine
10
20494.5170404495
20
5976.3878729941734
30
0
11
20494.5170404495
21
5956.3878729941734
31
0
0
LINE
5
101
100
AcDbEntity
8
0
100
AcDbLine
10
20494.5170404495
20
6036.3878729941734
30
0
11
20494.5170404495
21
6056.3878729941734
31
0
0
LINE
5
102
100
AcDbEntity
8
0
100
AcDbLine
10
20494.5170404495
20
6002.2765249406484
30
0
11
20494.5170404495
21
5982.2765249406484
31
0
0
LINE
5
103
100
AcDbEntity
8
0
100
AcDbLine
10
20494.5170404495
20
6032.2765249406484
30
0
11
20494.5170404495
21
6012.2765249406484
31
0
0
LINE
5
104
100
AcDbEntity
8
0
100
AcDbLine
10
20495.5170404495
20
5987.2765249406484
30
0
11
20495.5170404495
21
5967.2765249406484
31
0
0
LINE
5
105
100
AcDbEntity
8
0
100
AcDbLine
10
20495.5170404495
20
6017.2765249406484
30
0
11
20495.5170404495
21
5997.2765249406484
31
0
0
LINE
5
106
100
AcDbEntity
8
0
100
AcDbLine
10
20495.5170404495
20
6046.3878729941734
30
0
11
20495.5170404495
21
6026.3878729941734
31
0
0
LWPOLYLINE
5
107
100
AcDbEntity
8
0
100
AcDbPolyline
90
4
70
1
43
0.0
10
20572.692835442984
20
6056.3878729941734
10
20572.692835442984
20
5956.3878729941734
10
20472.692835442984
20
5956.3878729941734
10
20472.692835442984
20
6056.3878729941734
0
LINE
5
108
100
AcDbEntity
8
0
100
AcDbLine
10
20496.517040449504
20
6036.3878729941734
30
0
11
20496.517040449504
21
6056.3878729941734
31
0
0
LINE
5
109
100
AcDbEntity
8
0
100
AcDbLine
10
20496.517040449504
20
6032.2765249406484
30
0
11
20496.517040449504
21
6012.2765249406484
31
0
0
LINE
5
110
100
AcDbEntity
8
0
100
AcDbLine
10
20496.517040449504
20
6002.2765249406484
30
0
11
20496.517040449504
21
5982.2765249406484
31
0
0
LINE
5
111
100
AcDbEntity
8
0
100
AcDbLine
10
20496.517040449504
20
5976.3878729941734
30
0
11
20496.517040449504
21
5956.3878729941734
31
0
0
LINE
5
112
100
AcDbEntity
8
0
100
AcDbLine
10
20498.517040449497
20
6036.3878729941734
30
0
11
20498.517040449497
21
6056.3878729941734
31
0
0
LINE
5
113
100
AcDbEntity
8
0
100
AcDbLine
10
20498.517040449497
20
6032.2765249406484
30
0
11
20498.517040449497
21
6012.2765249406484
31
0
0
LINE
5
114
100
AcDbEntity
8
0
100
AcDbLine
10
20498.517040449497
20
6002.2765249406484
30
0
11
20498.517040449497
21
5982.2765249406484
31
0
0
LINE
5
115
100
AcDbEntity
8
0
100
AcDbLine
10
20498.517040449497
20
5976.3878729941734
30
0
11
20498.517040449497
21
5956.3878729941734
31
0
0
LINE
5
116
100
AcDbEntity
8
0
100
AcDbLine
10
20500.517040449493
20
6036.3878729941734
30
0
11
20500.517040449493
21
6056.3878729941734
31
0
0
LINE
5
117
100
AcDbEntity
8
0
100
AcDbLine
10
20500.517040449493
20
6032.2765249406484
30
0
11
20500.517040449493
21
6012.2765249406484
31
0
0
LINE
5
118
100
AcDbEntity
8
0
100
AcDbLine
10
20500.517040449493
20
6002.2765249406484
30
0
11
20500.517040449493
21
5982.2765249406484
31
0
0
LINE
5
119
100
AcDbEntity
8
0
100
AcDbLine
10
20500.517040449493
20
5976.3878729941734
30
0
11
20500.517040449493
21
5956.3878729941734
31
0
0
LINE
5
120
100
AcDbEntity
8
0
100
AcDbLine
10
20502.517040449493
20
6036.3878729941734
30
0
11
20502.517040449493
21
6056.3878729941734
31
0
0
LINE
5
121
100
AcDbEntity
8
0
100
AcDbLine
10
20502.517040449493
20
6032.2765249406484
30
0
11
20502.517040449493
21
6012.2765249406484
31
0
0
LINE
5
122
100
AcDbEntity
8
0
100
AcDbLine
10
20502.517040449493
20
6002.2765249406484
30
0
11
20502.517040449493
21
5982.2765249406484
31
0
0
LINE
5
123
100
AcDbEntity
8
0
100
AcDbLine
10
20502.517040449493
20
5976.3878729941734
30
0
11
20502.517040449493
21
5956.3878729941734
31
0
0
LINE
5
124
100
AcDbEntity
8
0
100
AcDbLine
10
20504.517040449497
20
6036.3878729941734
30
0
11
20504.517040449497
21
6056.3878729941734
31
0
0
LINE
5
125
100
AcDbEntity
8
0
100
AcDbLine
10
20504.517040449497
20
6032.2765249406484
30
0
11
20504.517040449497
21
6012.2765249406484
31
0
0
LINE
5
126
100
AcDbEntity
8
0
100
AcDbLine
10
20504.517040449497
20
6002.2765249406484
30
0
11
20504.517040449497
21
5982.2765249406484
31
0
0
LINE
5
127
100
AcDbEntity
8
0
100
AcDbLine
10
20504.517040449497
20
5976.3878729941734
30
0
11
20504.517040449497
21
5956.3878729941734
31
0
0
LINE
5
128
100
AcDbEntity
8
0
100
AcDbLine
10
20506.517040449486
20
6036.3878729941734
30
0
11
20506.517040449486
21
6056.3878729941734
31
0
0
LINE
5
129
100
AcDbEntity
8
0
100
AcDbLine
10
20506.517040449486
20
6032.2765249406484
30
0
11
20506.517040449486
21
6012.2765249406484
31
0
0
LINE
5
130
100
AcDbEntity
8
0
100
AcDbLine
10
20506.517040449486
20
6002.2765249406484
30
0
11
20506.517040449486
21
5982.2765249406484
31
0
0
LINE
5
131
100
AcDbEntity
8
0
100
AcDbLine
10
20506.517040449486
20
5976.3878729941734
30
0
11
20506.517040449486
21
5956.3878729941734
31
0
0
LINE
5
132
100
AcDbEntity
8
0
100
AcDbLine
10
20508.517040449486
20
6036.3878729941734
30
0
11
20508.517040449486
21
6056.3878729941734
31
0
0
LINE
5
133
100
AcDbEntity
8
0
100
AcDbLine
10
20508.517040449486
20
6032.2765249406484
30
0
11
20508.517040449486
21
6012.2765249406484
31
0
0
LINE
5
134
100
AcDbEntity
8
0
100
AcDbLine
10
20508.517040449486
20
6002.2765249406484
30
0
11
20508.517040449486
21
5982.2765249406484
31
0
0
LINE
5
135
100
AcDbEntity
8
0
100
AcDbLine
10
20508.517040449486
20
5976.3878729941734
30
0
11
20508.517040449486
21
5956.3878729941734
31
0
0
LINE
5
136
100
AcDbEntity
8
0
100
AcDbLine
10
20510.517040449486
20
6036.3878729941734
30
0
11
20510.517040449486
21
6056.3878729941734
31
0
0
LINE
5
137
100
AcDbEntity
8
0
100
AcDbLine
10
20510.517040449486
20
6032.2765249406484
30
0
11
20510.517040449486
21
6012.2765249406484
31
0
0
LINE
5
138
100
AcDbEntity
8
0
100
AcDbLine
10
20510.517040449486
20
6002.2765249406484
30
0
11
20510.517040449486
21
5982.2765249406484
31
0
0
LINE
5
139
100
AcDbEntity
8
0
100
AcDbLine
10
20510.517040449486
20
5976.3878729941734
30
0
11
20510.517040449486
21
5956.3878729941734
31
0
0
LINE
5
140
100
AcDbEntity
8
0
100
AcDbLine
10
20512.517040449489
20
6036.3878729941734
30
0
11
20512.517040449489
21
6056.3878729941734
31
0
0
LINE
5
141
100
AcDbEntity
8
0
100
AcDbLine
10
20512.517040449489
20
6032.2765249406484
30
0
11
20512.517040449489
21
6012.2765249406484
31
0
0
LINE
5
142
100
AcDbEntity
8
0
100
AcDbLine
10
20512.517040449489
20
6002.2765249406484
30
0
11
20512.517040449489
21
5982.2765249406484
31
0
0
LINE
5
143
100
AcDbEntity
8
0
100
AcDbLine
10
20512.517040449489
20
5976.3878729941734
30
0
11
20512.517040449489
21
5956.3878729941734
31
0
0
LINE
5
144
100
AcDbEntity
8
0
100
AcDbLine
10
20514.517040449478
20
6036.3878729941734
30
0
11
20514.517040449478
21
6056.3878729941734
31
0
0
LINE
5
145
100
AcDbEntity
8
0
100
AcDbLine
10
20514.517040449478
20
6032.2765249406484
30
0
11
20514.517040449478
21
6012.2765249406484
31
0
0
LINE
5
146
100
AcDbEntity
8
0
100
AcDbLine
10
20514.517040449478
20
6002.2765249406484
30
0
11
20514.517040449478
21
5982.2765249406484
31
0
0
LINE
5
147
100
AcDbEntity
8
0
100
AcDbLine
10
20514.517040449478
20
5976.3878729941734
30
0
11
20514.517040449478
21
5956.3878729941734
31
0
0
LINE
5
148
100
AcDbEntity
8
0
100
AcDbLine
10
20516.517040449478
20
6036.3878729941734
30
0
11
20516.517040449478
21
6056.3878729941734
31
0
0
LINE
5
149
100
AcDbEntity
8
0
100
AcDbLine
10
20516.517040449478
20
6032.2765249406484
30
0
11
20516.517040449478
21
6012.2765249406484
31
0
0
LINE
5
150
100
AcDbEntity
8
0
100
AcDbLine
10
20516.517040449478
20
6002.2765249406484
30
0
11
20516.517040449478
21
5982.2765249406484
31
0
0
LINE
5
151
100
AcDbEntity
8
0
100
AcDbLine
10
20516.517040449478
20
5976.3878729941734
30
0
11
20516.517040449478
21
5956.3878729941734
31
0
0
LINE
5
152
100
AcDbEntity
8
0
100
AcDbLine
10
20518.517040449478
20
6036.3878729941734
30
0
11
20518.517040449478
21
6056.3878729941734
31
0
0
LINE
5
153
100
AcDbEntity
8
0
100
AcDbLine
10
20518.517040449478
20
6032.2765249406484
30
0
11
20518.517040449478
21
6012.2765249406484
31
0
0
LINE
5
154
100
AcDbEntity
8
0
100
AcDbLine
10
20518.517040449478
20
6002.2765249406484
30
0
11
20518.517040449478
21
5982.2765249406484
31
0
0
LINE
5
155
100
AcDbEntity
8
0
100
AcDbLine
10
20518.517040449478
20
5976.3878729941734
30
0
11
20518.517040449478
21
5956.3878729941734
31
0
0
LINE
5
156
100
AcDbEntity
8
0
100
AcDbLine
10
20520.517040449482
20
6036.3878729941734
30
0
11
20520.517040449482
21
6056.3878729941734
31
0
0
LINE
5
157
100
AcDbEntity
8
0
100
AcDbLine
10
20520.517040449482
20
6032.2765249406484
30
0
11
20520.517040449482
21
6012.2765249406484
31
0
0
LINE
5
158
100
AcDbEntity
8
0
100
AcDbLine
10
20520.517040449482
20
6002.2765249406484
30
0
11
20520.517040449482
21
5982.2765249406484
31
0
0
LINE
5
159
100
AcDbEntity
8
0
100
AcDbLine
10
20520.517040449482
20
5976.3878729941734
30
0
11
20520.517040449482
21
5956.3878729941734
31
0
0
LINE
5
160
100
AcDbEntity
8
0
100
AcDbLine
10
20522.517040449475
20
6036.3878729941734
30
0
11
20522.517040449475
21
6056.3878729941734
31
0
0
LINE
5
161
100
AcDbEntity
8
0
100
AcDbLine
10
20522.517040449475
20
6032.2765249406484
30
0
11
20522.517040449475
21
6012.2765249406484
31
0
0
LINE
5
162
100
AcDbEntity
8
0
100
AcDbLine
10
20522.517040449475
20
6002.2765249406484
30
0
11
20522.517040449475
21
5982.2765249406484
31
0
0
LINE
5
163
100
AcDbEntity
8
0
100
AcDbLine
10
20522.517040449475
20
5976.3878729941734
30
0
11
20522.517040449475
21
5956.3878729941734
31
0
0
LINE
5
164
100
AcDbEntity
8
0
100
AcDbLine
10
20524.517040449471
20
6036.3878729941734
30
0
11
20524.517040449471
21
6056.3878729941734
31
0
0
LINE
5
165
100
AcDbEntity
8
0
100
AcDbLine
10
20524.517040449471
20
6032.2765249406484
30
0
11
20524.517040449471
21
6012.2765249406484
31
0
0
LINE
5
166
100
AcDbEntity
8
0
100
AcDbLine
10
20524.517040449471
20
6002.2765249406484
30
0
11
20524.517040449471
21
5982.2765249406484
31
0
0
LINE
5
167
100
AcDbEntity
8
0
100
AcDbLine
10
20524.517040449471
20
5976.3878729941734
30
0
11
20524.517040449471
21
5956.3878729941734
31
0
0
LINE
5
168
100
AcDbEntity
8
0
100
AcDbLine
10
20526.517040449471
20
6036.3878729941734
30
0
11
20526.517040449471
21
6056.3878729941734
31
0
0
LINE
5
169
100
AcDbEntity
8
0
100
AcDbLine
10
20526.517040449471
20
6032.2765249406484
30
0
11
20526.517040449471
21
6012.2765249406484
31
0
0
LINE
5
170
100
AcDbEntity
8
0
100
AcDbLine
10
20526.517040449471
20
6002.2765249406484
30
0
11
20526.517040449471
21
5982.2765249406484
31
0
0
LINE
5
171
100
AcDbEntity
8
0
100
AcDbLine
10
20526.517040449471
20
5976.3878729941734
30
0
11
20526.517040449471
21
5956.3878729941734
31
0
0
LINE
5
172
100
AcDbEntity
8
0
100
AcDbLine
10
20528.517040449475
20
6036.3878729941734
30
0
11
20528.517040449475
21
6056.3878729941734
31
0
0
LINE
5
173
100
AcDbEntity
8
0
100
AcDbLine
10
20528.517040449475
20
6032.2765249406484
30
0
11
20528.517040449475
21
6012.2765249406484
31
0
0
LINE
5
174
100
AcDbEntity
8
0
100
AcDbLine
10
20528.517040449475
20
6002.2765249406484
30
0
11
20528.517040449475
21
5982.2765249406484
31
0
0
LINE
5
175
100
AcDbEntity
8
0
100
AcDbLine
10
20528.517040449475
20
5976.3878729941734
30
0
11
20528.517040449475
21
5956.3878729941734
31
0
0
LINE
5
176
100
AcDbEntity
8
0
100
AcDbLine
10
20530.517040449467
20
6036.3878729941734
30
0
11
20530.517040449467
21
6056.3878729941734
31
0
0
LINE
5
177
100
AcDbEntity
8
0
100
AcDbLine
10
20530.517040449467
20
6032.2765249406484
30
0
11
20530.517040449467
21
6012.2765249406484
31
0
0
LINE
5
178
100
AcDbEntity
8
0
100
AcDbLine
10
20530.517040449467
20
6002.2765249406484
30
0
11
20530.517040449467
21
5982.2765249406484
31
0
0
LINE
5
179
100
AcDbEntity
8
0
100
AcDbLine
10
20530.517040449467
20
5976.3878729941734
30
0
11
20530.517040449467
21
5956.3878729941734
31
0
0
LINE
5
180
100
AcDbEntity
8
0
100
AcDbLine
10
20532.517040449464
20
6036.3878729941734
30
0
11
20532.517040449464
21
6056.3878729941734
31
0
0
LINE
5
181
100
AcDbEntity
8
0
100
AcDbLine
10
20532.517040449464
20
6032.2765249406484
30
0
11
20532.517040449464
21
6012.2765249406484
31
0
0
LINE
5
182
100
AcDbEntity
8
0
100
AcDbLine
10
20532.517040449464
20
6002.2765249406484
30
0
11
20532.517040449464
21
5982.2765249406484
31
0
0
LINE
5
183
100
AcDbEntity
8
0
100
AcDbLine
10
20532.517040449464
20
5976.3878729941734
30
0
11
20532.517040449464
21
5956.3878729941734
31
0
0
LINE
5
184
100
AcDbEntity
8
0
100
AcDbLine
10
20497.517040449497
20
6046.3878729941734
30
0
11
20497.517040449497
21
6026.3878729941734
31
0
0
LINE
5
185
100
AcDbEntity
8
0
100
AcDbLine
10
20497.517040449497
20
6017.2765249406484
30
0
11
20497.517040449497
21
5997.2765249406484
31
0
0
LINE
5
186
100
AcDbEntity
8
0
100
AcDbLine
10
20497.517040449497
20
5987.2765249406484
30
0
11
20497.517040449497
21
5967.2765249406484
31
0
0
LINE
5
187
100
AcDbEntity
8
0
100
AcDbLine
10
20499.517040449497
20
6046.3878729941734
30
0
11
20499.517040449497
21
6026.3878729941734
31
0
0
LINE
5
188
100
AcDbEntity
8
0
100
AcDbLine
10
20499.517040449497
20
6017.2765249406484
30
0
11
20499.517040449497
21
5997.2765249406484
31
0
0
LINE
5
189
100
AcDbEntity
8
0
100
AcDbLine
10
20499.517040449497
20
5987.2765249406484
30
0
11
20499.517040449497
21
5967.2765249406484
31
0
0
LINE
5
190
100
AcDbEntity
8
0
100
AcDbLine
10
20501.517040449493
20
6046.3878729941734
30
0
11
20501.517040449493
21
6026.3878729941734
31
0
0
LINE
5
191
100
AcDbEntity
8
0
100
AcDbLine
10
20501.517040449493
20
6017.2765249406484
30
0
11
20501.517040449493
21
5997.2765249406484
31
0
0
LINE
5
192
100
AcDbEntity
8
0
100
AcDbLine
10
20501.517040449493
20
5987.2765249406484
30
0
11
20501.517040449493
21
5967.2765249406484
31
0
0
LINE
5
193
100
AcDbEntity
8
0
100
AcDbLine
10
20503.517040449493
20
6046.3878729941734
30
0
11
20503.517040449493
21
6026.3878729941734
31
0
0
LINE
5
194
100
AcDbEntity
8
0
100
AcDbLine
10
20503.517040449493
20
6017.2765249406484
30
0
11
20503.517040449493
21
5997.2765249406484
31
0
0
LINE
5
195
100
AcDbEntity
8
0
100
AcDbLine
10
20503.517040449493
20
5987.2765249406484
30
0
11
20503.517040449493
21
5967.2765249406484
31
0
0
LINE
5
196
100
AcDbEntity
8
0
100
AcDbLine
10
20505.517040449486
20
6046.3878729941734
30
0
11
20505.517040449486
21
6026.3878729941734
31
0
0
LINE
5
197
100
AcDbEntity
8
0
100
AcDbLine
10
20505.517040449486
20
6017.2765249406484
30
0
11
20505.517040449486
21
5997.2765249406484
31
0
0
LINE
5
198
100
AcDbEntity
8
0
100
AcDbLine
10
20505.517040449486
20
5987.2765249406484
30
0
11
20505.517040449486
21
5967.2765249406484
31
0
0
LINE
5
199
100
AcDbEntity
8
0
100
AcDbLine
10
20507.517040449489
20
6046.3878729941734
30
0
11
20507.517040449489
21
6026.3878729941734
31
0
0
LINE
5
200
100
AcDbEntity
8
0
100
AcDbLine
10
20507.517040449489
20
6017.2765249406484
30
0
11
20507.517040449489
21
5997.2765249406484
31
0
0
LINE
5
201
100
AcDbEntity
8
0
100
AcDbLine
10
20507.517040449489
20
5987.2765249406484
30
0
11
20507.517040449489
21
5967.2765249406484
31
0
0
LINE
5
202
100
AcDbEntity
8
0
100
AcDbLine
10
20509.517040449486
20
6046.3878729941734
30
0
11
20509.517040449486
21
6026.3878729941734
31
0
0
LINE
5
203
100
AcDbEntity
8
0
100
AcDbLine
10
20509.517040449486
20
6017.2765249406484
30
0
11
20509.517040449486
21
5997.2765249406484
31
0
0
LINE
5
204
100
AcDbEntity
8
0
100
AcDbLine
10
20509.517040449486
20
5987.2765249406484
30
0
11
20509.517040449486
21
5967.2765249406484
31
0
0
LINE
5
205
100
AcDbEntity
8
0
100
AcDbLine
10
20511.517040449486
20
6046.3878729941734
30
0
11
20511.517040449486
21
6026.3878729941734
31
0
0
LINE
5
206
100
AcDbEntity
8
0
100
AcDbLine
10
20511.517040449486
20
6017.2765249406484
30
0
11
20511.517040449486
21
5997.2765249406484
31
0
0
LINE
5
207
100
AcDbEntity
8
0
100
AcDbLine
10
20511.517040449486
20
5987.2765249406484
30
0
11
20511.517040449486
21
5967.2765249406484
31
0
0
LINE
5
208
100
AcDbEntity
8
0
100
AcDbLine
10
20513.517040449478
20
6046.3878729941734
30
0
11
20513.517040449478
21
6026.3878729941734
31
0
0
LINE
5
209
100
AcDbEntity
8
0
100
AcDbLine
10
20513.517040449478
20
6017.2765249406484
30
0
11
20513.517040449478
21
5997.2765249406484
31
0
0
LINE
5
210
100
AcDbEntity
8
0
100
AcDbLine
10
20513.517040449478
20
5987.2765249406484
30
0
11
20513.517040449478
21
5967.2765249406484
31
0
0
LINE
5
211
100
AcDbEntity
8
0
100
AcDbLine
10
20515.517040449482
20
6046.3878729941734
30
0
11
20515.517040449482
21
6026.3878729941734
31
0
0
LINE
5
212
100
AcDbEntity
8
0
100
AcDbLine
10
20515.517040449482
20
6017.2765249406484
30
0
11
20515.517040449482
21
5997.2765249406484
31
0
0
LINE
5
213
100
AcDbEntity
8
0
100
AcDbLine
10
20515.517040449482
20
5987.2765249406484
30
0
11
20515.517040449482
21
5967.2765249406484
31
0
0
LINE
5
214
100
AcDbEntity
8
0
100
AcDbLine
10
20517.517040449478
20
6046.3878729941734
30
0
11
20517.517040449478
21
6026.3878729941734
31
0
0
LINE
5
215
100
AcDbEntity
8
0
100
AcDbLine
10
20517.517040449478
20
6017.2765249406484
30
0
11
20517.517040449478
21
5997.2765249406484
31
0
0
LINE
5
216
100
AcDbEntity
8
0
100
AcDbLine
10
20517.517040449478
20
5987.2765249406484
30
0
11
20517.517040449478
21
5967.2765249406484
31
0
0
LINE
5
217
100
AcDbEntity
8
0
100
AcDbLine
10
20519.517040449478
20
6046.3878729941734
30
0
11
20519.517040449478
21
6026.3878729941734
31
0
0
LINE
5
218
100
AcDbEntity
8
0
100
AcDbLine
10
20519.517040449478
20
6017.2765249406484
30
0
11
20519.517040449478
21
5997.2765249406484
31
0
0
LINE
5
219
100
AcDbEntity
8
0
100
AcDbLine
10
20519.517040449478
20
5987.2765249406484
30
0
11
20519.517040449478
21
5967.2765249406484
31
0
0
LINE
5
220
100
AcDbEntity
8
0
100
AcDbLine
10
20521.517040449475
20
6046.3878729941734
30
0
11
20521.517040449475
21
6026.3878729941734
31
0
0
LINE
5
221
100
AcDbEntity
8
0
100
AcDbLine
10
20521.517040449475
20
6017.2765249406484
30
0
11
20521.517040449475
21
5997.2765249406484
31
0
0
LINE
5
222
100
AcDbEntity
8
0
100
AcDbLine
10
20521.517040449475
20
5987.2765249406484
30
0
11
20521.517040449475
21
5967.2765249406484
31
0
0
LINE
5
223
100
AcDbEntity
8
0
100
AcDbLine
10
20523.517040449475
20
6046.3878729941734
30
0
11
20523.517040449475
21
6026.3878729941734
31
0
0
LINE
5
224
100
AcDbEntity
8
0
100
AcDbLine
10
20523.517040449475
20
6017.2765249406484
30
0
11
20523.517040449475
21
5997.2765249406484
31
0
0
LINE
5
225
100
AcDbEntity
8
0
100
AcDbLine
10
20523.517040449475
20
5987.2765249406484
30
0
11
20523.517040449475
21
5967.2765249406484
31
0
0
LINE
5
226
100
AcDbEntity
8
0
100
AcDbLine
10
20525.517040449471
20
6046.3878729941734
30
0
11
20525.517040449471
21
6026.3878729941734
31
0
0
LINE
5
227
100
AcDbEntity
8
0
100
AcDbLine
10
20525.517040449471
20
6017.2765249406484
30
0
11
20525.517040449471
21
5997.2765249406484
31
0
0
LINE
5
228
100
AcDbEntity
8
0
100
AcDbLine
10
20525.517040449471
20
5987.2765249406484
30
0
11
20525.517040449471
21
5967.2765249406484
31
0
0
LINE
5
229
100
AcDbEntity
8
0
100
AcDbLine
10
20527.517040449471
20
6046.3878729941734
30
0
11
20527.517040449471
21
6026.3878729941734
31
0
0
LINE
5
230
100
AcDbEntity
8
0
100
AcDbLine
10
20527.517040449471
20
6017.2765249406484
30
0
11
20527.517040449471
21
5997.2765249406484
31
0
0
LINE
5
231
100
AcDbEntity
8
0
100
AcDbLine
10
20527.517040449471
20
5987.2765249406484
30
0
11
20527.517040449471
21
5967.2765249406484
31
0
0
LINE
5
232
100
AcDbEntity
8
0
100
AcDbLine
10
20529.517040449467
20
6046.3878729941734
30
0
11
20529.517040449467
21
6026.3878729941734
31
0
0
LINE
5
233
100
AcDbEntity
8
0
100
AcDbLine
10
20529.517040449467
20
6017.2765249406484
30
0
11
20529.517040449467
21
5997.2765249406484
31
0
0
LINE
5
234
100
AcDbEntity
8
0
100
AcDbLine
10
20529.517040449467
20
5987.2765249406484
30
0
11
20529.517040449467
21
5967.2765249406484
31
0
0
LINE
5
235
100
AcDbEntity
8
0
100
AcDbLine
10
20531.517040449467
20
6046.3878729941734
30
0
11
20531.517040449467
21
6026.3878729941734
31
0
0
LINE
5
236
100
AcDbEntity
8
0
100
AcDbLine
10
20531.517040449467
20
6017.2765249406484
30
0
11
20531.517040449467
21
5997.2765249406484
31
0
0
LINE
5
237
100
AcDbEntity
8
0
100
AcDbLine
10
20531.517040449467
20
5987.2765249406484
30
0
11
20531.517040449467
21
5967.2765249406484
31
0
0
LINE
5
238
100
AcDbEntity
8
0
100
AcDbLine
10
20533.517040449464
20
6046.3878729941734
30
0
11
20533.517040449464
21
6026.3878729941734
31
0
0
LINE
5
239
100
AcDbEntity
8
0
100
AcDbLine
10
20533.517040449464
20
6017.2765249406484
30
0
11
20533.517040449464
21
5997.2765249406484
31
0
0
LINE
5
240
100
AcDbEntity
8
0
100
AcDbLine
10
20533.517040449464
20
5987.2765249406484
30
0
11
20533.517040449464
21
5967.2765249406484
31
0
0
CIRCLE
5
241
100
AcDbEntity
8
0
100
AcDbCircle
10
20554.289948582482
20
6032.9503577261057
30
0
40
10
0
LINE
5
242
100
AcDbEntity
8
0
100
AcDbLine
10
20538.852888076686
20
6010.5593787998932
30
0
11
20538.852888076686
21
6011.2187575669068
31
0
0
LINE
5
243
100
AcDbEntity
8
0
100
AcDbLine
10
20538.852888076686
20
6011.2187575669068
30
0
11
20541.233551531215
21
6011.2225913376587
31
0
0
LINE
5
244
100
AcDbEntity
8
0
100
AcDbLine
10
20541.233551531215
20
6011.2225913376587
30
0
11
20541.233551531215
21
6009.1371142239359
31
0
0
SPLINE
5
245
100
AcDbEntity
8
0
100
AcDbSpline
70
1064
71
3
72
9
73
5
74
0
42
0.000000001
43
0.0000000001
44
0.0000000001
40
0
40
0
40
0
40
0
40
0.067576394476499962
40
0.13121316276781594
40
0.13121316276781594
40
0.13121316276781594
40
0.13121316276781594
10
20541.233551531215
20
6009.1371142239359
30
0
10
20541.052472810239
20
6009.0016508065228
30
0
10
20540.700872049743
20
6008.7386213333493
30
0
10
20540.298019126672
20
6008.5642303957648
30
0
10
20540.102640419387
20
6008.4796529383439
30
0
0
SPLINE
5
246
100
AcDbEntity
8
0
100
AcDbSpline
70
1064
71
3
72
9
73
5
74
0
42
0.000000001
43
0.0000000001
44
0.0000000001
40
0
40
0
40
0
40
0
40
0.075584895380251191
40
0.15493138049613259
40
0.15493138049613259
40
0.15493138049613259
40
0.15493138049613259
10
20536.380218743467
20
6009.6393155426758
30
0
10
20536.279603384046
20
6009.8726905282674
30
0
10
20536.073365398865
20
6010.3510547372707
30
0
10
20536.048122819411
20
6010.8716397772532
30
0
10
20536.035195096516
20
6011.1382519573945
30
0
0
LINE
5
247
100
AcDbEntity
8
0
100
AcDbLine
10
20543.334362535854
20
6010.6628858418244
30
0
11
20545.239660172843
21
6010.6628858418244
31
0
0
SPLINE
5
248
100
AcDbEntity
8
0
100
AcDbSpline
70
1064
71
3
72
9
73
5
74
0
42
0.000000001
43
0.0000000001
44
0.0000000001
40
0
40
0
40
0
40
0
40
0.068698712963876987
40
0.12319680037773116
40
0.12319680037773116
40
0.12319680037773116
40
0.12319680037773116
10
20544.653119473838
20
6012.2193258375901
30
0
10
20544.572748538358
20
6012.4338241692676
30
0
10
20544.428620043564
20
6012.8184821491504
30
0
10
20544.307850253441
20
6013.2110710703237
30
0
10
20544.254425793075
20
6013.3847390980509
30
0
0
LINE
5
249
100
AcDbEntity
8
0
100
AcDbLine
10
20545.239660172843
20
6010.6628858418244
30
0
11
20544.653119473838
21
6012.2193258375901
31
0
0
SPLINE
5
250
100
AcDbEntity
8
0
100
AcDbSpline
70
1064
71
3
72
9
73
5
74
0
42
0.000000001
43
0.0000000001
44
0.0000000001
40
0
40
0
40
0
40
0
40
0.0795157264575405
40
0.15575374643233092
40
0.15575374643233092
40
0.15575374643233092
40
0.15575374643233092
10
20538.906558483028
20
6008.2592206568506
30
0
10
20538.639329978083
20
6008.2727120613563
30
0
10
20538.115888356497
20
6008.2991387430975
30
0
10
20537.636514786569
20
6008.5104138554325
30
0
10
20537.401872008228
20
6008.6138283581513
30
0
0
SPLINE
5
251
100
AcDbEntity
8
0
100
AcDbSpline
70
1064
71
3
72
9
73
5
74
0
42
0.000000001
43
0.0000000001
44
0.0000000001
40
0
40
0
40
0
40
0
40
0.038431235705392877
40
0.079234536455056917
40
0.079234536455056917
40
0.079234536455056917
40
0.079234536455056917
10
20539.62727460184
20
6013.28698301027
30
0
10
20539.505788834718
20
6013.3300203224007
30
0
10
20539.255318917025
20
6013.4187513094294
30
0
10
20538.989682499108
20
6013.4291970836421
30
0
10
20538.852888076686
20
6013.434576329686
30
0
0
LWPOLYLINE
5
252
100
AcDbEntity
8
0
100
AcDbPolyline
90
8
70
1
43
0.0
10
20544.672287731551
20
6013.9751129717615
10
20546.972445874595
20
6008.3550607533234
10
20546.125220685386
20
6008.3550607533234
10
20545.469675689124
20
6010.0571774811524
10
20543.119681506538
20
6010.0571774811524
10
20542.502472429653
20
6008.3550607533234
10
20541.712751417541
20
6008.3550607533234
10
20543.871066003227
20
6013.9751129717615
0
SPLINE
5
253
100
AcDbEntity
8
0
100
AcDbSpline
70
1064
71
3
72
9
73
5
74
0
42
0.000000001
43
0.0000000001
44
0.0000000001
40
0
40
0
40
0
40
0
40
0.038096394086699653
40
0.073019830740987834
40
0.073019830740987834
40
0.073019830740987834
40
0.073019830740987834
10
20537.971161036872
20
6013.2793160648134
30
0
10
20537.855023784665
20
6013.2254721007284
30
0
10
20537.632422073868
20
6013.122268707385
30
0
10
20537.455716766031
20
6012.952319723423
30
0
10
20537.371203332328
20
6012.8710376591462
30
0
0
SPLINE
5
254
100
AcDbEntity
8
0
100
AcDbSpline
70
1064
71
3
72
9
73
5
74
0
42
0.000000001
43
0.0000000001
44
0.0000000001
40
0
40
0
40
0
40
0
40
0.073524666142797152
40
0.14655622242931654
40
0.14655622242931654
40
0.14655622242931654
40
0.14655622242931654
10
20537.401872008228
20
6008.6138283581513
30
0
10
20537.190340818444
20
6008.7448304633244
30
0
10
20536.768697120795
20
6009.0059560783284
30
0
10
20536.509420744809
20
6009.4286698153019
30
0
10
20536.380218743467
20
6009.6393155426758
30
0
0
SPLINE
5
255
100
AcDbEntity
8
0
100
AcDbSpline
70
1064
71
3
72
9
73
5
74
0
42
0.000000001
43
0.0000000001
44
0.0000000001
40
0
40
0
40
0
40
0
40
0.061308515358206819
40
0.12212949500979574
40
0.12212949500979574
40
0.12212949500979574
40
0.12212949500979574
10
20540.102640419387
20
6008.4796529383439
30
0
10
20539.907538302141
20
6008.4153604834764
30
0
10
20539.518885552759
20
6008.2872868382419
30
0
10
20539.110123586193
20
6008.2685511199215
30
0
10
20538.906558483028
20
6008.2592206568506
30
0
0
SPLINE
5
256
100
AcDbEntity
8
0
100
AcDbSpline
70
1064
71
3
72
9
73
5
74
0
42
0.000000001
43
0.0000000001
44
0.0000000001
40
0
40
0
40
0
40
0
40
0.079770045993238767
40
0.15796993872434967
40
0.15796993872434967
40
0.15796993872434967
40
0.15796993872434967
10
20536.035195096516
20
6011.1382519573945
30
0
10
20536.048914284976
20
6011.4059601369399
30
0
10
20536.076082620319
20
6011.9361070635478
30
0
10
20536.278231920878
20
6012.4268442155326
30
0
10
20536.378301932597
20
6012.6697739333886
30
0
0
SPLINE
5
257
100
AcDbEntity
8
0
100
AcDbSpline
70
1064
71
3
72
9
73
5
74
0
42
0.000000001
43
0.0000000001
44
0.0000000001
40
0
40
0
40
0
40
0
40
0.074760933975505914
40
0.14646318674193998
40
0.14646318674193998
40
0.14646318674193998
40
0.14646318674193998
10
20536.378301932597
20
6012.6697739333886
30
0
10
20536.502883808858
20
6012.8902977544612
30
0
10
20536.746950564553
20
6013.322323143515
30
0
10
20537.162175973914
20
6013.5932804332042
30
0
10
20537.365452974223
20
6013.7259297938135
30
0
0
SPLINE
5
258
100
AcDbEntity
8
0
100
AcDbSpline
70
1064
71
3
72
9
73
5
74
0
42
0.000000001
43
0.0000000001
44
0.0000000001
40
0
40
0
40
0
40
0
40
0.073966339858084901
40
0.15350336462378583
40
0.15350336462378583
40
0.15350336462378583
40
0.15350336462378583
10
20537.365452974223
20
6013.7259297938135
30
0
10
20537.593023686732
20
6013.8265250423065
30
0
10
20538.065304323136
20
6014.0352917480632
30
0
10
20538.581559490089
20
6014.0587818076519
30
0
10
20538.849054603957
20
6014.0709530682343
30
0
0
SPLINE
5
259
100
AcDbEntity
8
0
100
AcDbSpline
70
1064
71
3
72
9
73
5
74
0
42
0.000000001
43
0.0000000001
44
0.0000000001
40
0
40
0
40
0
40
0
40
0.058240576297553616
40
0.11248549008011063
40
0.11248549008011063
40
0.11248549008011063
40
0.11248549008011063
10
20538.849054603957
20
6014.0709530682343
30
0
10
20539.044219312535
20
6014.0639602190622
30
0
10
20539.421159227742
20
6014.0504542732742
30
0
10
20539.778762844071
20
6013.9310865916123
30
0
10
20539.951213329219
20
6013.8735228152054
30
0
0
SPLINE
5
260
100
AcDbEntity
8
0
100
AcDbSpline
70
1064
71
3
72
9
73
5
74
0
42
0.000000001
43
0.0000000001
44
0.0000000001
40
0
40
0
40
0
40
0
40
0.049890590279145483
40
0.095654769901429348
40
0.095654769901429348
40
0.095654769901429348
40
0.095654769901429348
10
20539.951213329219
20
6013.8735228152054
30
0
10
20540.104325855809
20
6013.8039827545344
30
0
10
20540.397887094878
20
6013.6706542357697
30
0
10
20540.618253304536
20
6013.4357753274817
30
0
10
20540.723683267021
20
6013.3234020442742
30
0
0
SPLINE
5
261
100
AcDbEntity
8
0
100
AcDbSpline
70
1064
71
3
72
9
73
5
74
0
42
0.000000001
43
0.0000000001
44
0.0000000001
40
0
40
0
40
0
40
0
40
0.047518132696807588
40
0.10192488227073737
40
0.10192488227073737
40
0.10192488227073737
40
0.10192488227073737
10
20540.723683267021
20
6013.3234020442742
30
0
10
20540.812762075111
20
6013.1912349920776
30
0
10
20541.003833283354
20
6012.9077408716112
30
0
10
20541.098617197462
20
6012.5788816887152
30
0
10
20541.149212150955
20
6012.40333908508
30
0
0
LINE
5
262
100
AcDbEntity
8
0
100
AcDbLine
10
20541.149212150955
20
6012.40333908508
30
0
11
20540.478332965755
21
6012.2193264336365
31
0
0
SPLINE
5
263
100
AcDbEntity
8
0
100
AcDbSpline
70
1064
71
3
72
9
73
5
74
0
42
0.000000001
43
0.0000000001
44
0.0000000001
40
0
40
0
40
0
40
0
40
0.047694787518273905
40
0.08996639854749823
40
0.08996639854749823
40
0.08996639854749823
40
0.08996639854749823
10
20538.852888076686
20
6013.434576329686
30
0
10
20538.69294213373
20
6013.4298170507718
30
0
10
20538.391237037657
20
6013.4208396508093
30
0
10
20538.105443830187
20
6013.3245559319121
30
0
10
20537.971161036872
20
6013.2793160648134
30
0
0
LINE
5
264
100
AcDbEntity
8
0
100
AcDbLine
10
20548.321871190452
20
6013.9751129717615
30
0
11
20548.321871190452
21
6010.7318904371041
31
0
0
SPLINE
5
265
100
AcDbEntity
8
0
100
AcDbSpline
70
1064
71
3
72
9
73
5
74
0
42
0.000000001
43
0.0000000001
44
0.0000000001
40
0
40
0
40
0
40
0
40
0.040875911022392422
40
0.074735489583226414
40
0.074735489583226414
40
0.074735489583226414
40
0.074735489583226414
10
20540.478332965755
20
6012.2193264336365
30
0
10
20540.437106151552
20
6012.3499964215389
30
0
10
20540.361729087985
20
6012.588906950391
30
0
10
20540.225636174589
20
6012.7989001169399
30
0
10
20540.163978069209
20
6012.8940393895882
30
0
0
SPLINE
5
266
100
AcDbEntity
8
0
100
AcDbSpline
70
1064
71
3
72
9
73
5
74
0
42
0.000000001
43
0.0000000001
44
0.0000000001
40
0
40
0
40
0
40
0
40
0.031753858051864724
40
0.067085432570216541
40
0.067085432570216541
40
0.067085432570216541
40
0.067085432570216541
10
20540.163978069209
20
6012.8940393895882
30
0
10
20540.091830850964
20
6012.972906581972
30
0
10
20539.939407566322
20
6013.1395269563527
30
0
10
20539.73495348651
20
6013.2361139729364
30
0
10
20539.62727460184
20
6013.28698301027
30
0
0
SPLINE
5
267
100
AcDbEntity
8
0
100
AcDbSpline
70
1064
71
3
72
9
73
5
74
0
42
0.000000001
43
0.0000000001
44
0.0000000001
40
0
40
0
40
0
40
0
40
0.033401433407219426
40
0.066174104331652994
40
0.066174104331652994
40
0.066174104331652994
40
0.066174104331652994
10
20537.371203332328
20
6012.8710376591462
30
0
10
20537.299608234607
20
6012.7851105002628
30
0
10
20537.157765775086
20
6012.6148737110989
30
0
10
20537.063353321348
20
6012.4144338894494
30
0
10
20537.016595631027
20
6012.315166232087
30
0
0
SPLINE
5
268
100
AcDbEntity
8
0
100
AcDbSpline
70
1064
71
3
72
9
73
5
74
0
42
0.000000001
43
0.0000000001
44
0.0000000001
40
0
40
0
40
0
40
0
40
0.056676400191169166
40
0.11567092500769927
40
0.11567092500769927
40
0.11567092500769927
40
0.11567092500769927
10
20537.016595631027
20
6012.315166232087
30
0
10
20536.953987287907
20
6012.135743857234
30
0
10
20536.826209854305
20
6011.7695605428999
30
0
10
20536.810120302434
20
6011.3819462796455
30
0
10
20536.801914303684
20
6011.1842551202553
30
0
0
SPLINE
5
269
100
AcDbEntity
8
0
100
AcDbSpline
70
1064
71
3
72
9
73
5
74
0
42
0.000000001
43
0.0000000001
44
0.0000000001
40
0
40
0
40
0
40
0
40
0.069307323967429224
40
0.12927205724562099
40
0.12927205724562099
40
0.12927205724562099
40
0.12927205724562099
10
20536.801914303684
20
6011.1842551202553
30
0
10
20536.809215171175
20
6010.9511764030431
30
0
10
20536.822832753074
20
6010.5164378566787
30
0
10
20536.985313150333
20
6010.1136665799368
30
0
10
20537.060682057523
20
6009.9268352360505
30
0
0
SPLINE
5
270
100
AcDbEntity
8
0
100
AcDbSpline
70
1064
71
3
72
9
73
5
74
0
42
0.000000001
43
0.0000000001
44
0.0000000001
40
0
40
0
40
0
40
0
40
0.054341485916421912
40
0.10783578131345212
40
0.10783578131345212
40
0.10783578131345212
40
0.10783578131345212
10
20537.060682057523
20
6009.9268352360505
30
0
10
20537.156105011243
20
6009.7693466218316
30
0
10
20537.345463262976
20
6009.4568246604631
30
0
10
20537.658630258269
20
6009.2687495213331
30
0
10
20537.8139835886
20
6009.1754507393616
30
0
0
SPLINE
5
271
100
AcDbEntity
8
0
100
AcDbSpline
70
1064
71
3
72
9
73
5
74
0
42
0.000000001
43
0.0000000001
44
0.0000000001
40
0
40
0
40
0
40
0
40
0.054205747179413635
40
0.10860637673838719
40
0.10860637673838719
40
0.10860637673838719
40
0.10860637673838719
10
20537.8139835886
20
6009.1754507393616
30
0
10
20537.981549591663
20
6009.1038903624503
30
0
10
20538.317284036886
20
6008.9605123322826
30
0
10
20538.681802709816
20
6008.9402496572002
30
0
10
20538.864389090919
20
6008.9301001400736
30
0
0
SPLINE
5
272
100
AcDbEntity
8
0
100
AcDbSpline
70
1064
71
3
72
9
73
5
74
0
42
0.000000001
43
0.0000000001
44
0.0000000001
40
0
40
0
40
0
40
0
40
0.047954078329690127
40
0.096574873572926073
40
0.096574873572926073
40
0.096574873572926073
40
0.096574873572926073
10
20538.864389090919
20
6008.9301001400736
30
0
10
20539.024963708041
20
6008.9380587869782
30
0
10
20539.348345449234
20
6008.9540867317382
30
0
10
20539.653714752836
20
6009.0618008225365
30
0
10
20539.807453482532
20
6009.1160296768921
30
0
0
SPLINE
5
273
100
AcDbEntity
8
0
100
AcDbSpline
70
1064
71
3
72
9
73
5
74
0
42
0.000000001
43
0.0000000001
44
0.0000000001
40
0
40
0
40
0
40
0
40
0.044777277958905362
40
0.080537033896249749
40
0.080537033896249749
40
0.080537033896249749
40
0.080537033896249749
10
20539.807453482532
20
6009.1160296768921
30
0
10
20539.945717225892
20
6009.1741470414108
30
0
10
20540.19440031458
20
6009.2786777402271
30
0
10
20540.409611080544
20
6009.440815333709
30
0
10
20540.505168168926
20
6009.5128070683268
30
0
0
LINE
5
274
100
AcDbEntity
8
0
100
AcDbLine
10
20540.505168168926
20
6009.5128070683268
30
0
11
20540.505168168926
21
6010.5593787998932
31
0
0
SPLINE
5
275
100
AcDbEntity
8
0
100
AcDbSpline
70
1064
71
3
72
9
73
5
74
0
42
0.000000001
43
0.0000000001
44
0.0000000001
40
0
40
0
40
0
40
0
40
0.054414483191070208
40
0.10816615147054179
40
0.10816615147054179
40
0.10816615147054179
40
0.10816615147054179
10
20548.509716420554
20
6008.5314064593094
30
0
10
20548.35451917721
20
6008.6317455096269
30
0
10
20548.04601512559
20
6008.8312013948689
30
0
10
20547.876882687237
20
6009.1572063503554
30
0
10
20547.79283466854
20
6009.3192099900025
30
0
0
SPLINE
5
276
100
AcDbEntity
8
0
100
AcDbSpline
70
1064
71
3
72
9
73
5
74
0
42
0.000000001
43
0.0000000001
44
0.0000000001
40
0
40
0
40
0
40
0
40
0.076151968688358246
40
0.13644895061865084
40
0.13644895061865084
40
0.13644895061865084
40
0.13644895061865084
10
20551.998289256477
20
6010.7280569643763
30
0
10
20551.994746791999
20
6010.4728178453734
30
0
10
20551.988399410977
20
6010.0154808842326
30
0
10
20551.862323414585
20
6009.5764660790464
30
0
10
20551.806610255619
20
6009.3824648232239
30
0
0
LINE
5
277
100
AcDbEntity
8
0
100
AcDbLine
10
20540.505168168926
20
6010.5593787998932
30
0
11
20538.852888076686
21
6010.5593787998932
31
0
0
LINE
5
278
100
AcDbEntity
8
0
100
AcDbLine
10
20551.998289256477
20
6013.9751129717615
30
0
11
20551.998289256477
21
6010.7280569643763
31
0
0
LINE
5
279
100
AcDbEntity
8
0
100
AcDbLine
10
20543.951571612735
20
6012.3113321633118
30
0
11
20543.334362535854
21
6010.6628858418244
31
0
0
SPLINE
5
280
100
AcDbEntity
8
0
100
AcDbSpline
70
1064
71
3
72
9
73
5
74
0
42
0.000000001
43
0.0000000001
44
0.0000000001
40
0
40
0
40
0
40
0
40
0.063680731028508686
40
0.10916667637446914
40
0.10916667637446914
40
0.10916667637446914
40
0.10916667637446914
10
20548.321871190452
20
6010.7318904371041
30
0
10
20548.3226268006
20
6010.5184340221458
30
0
10
20548.323922128839
20
6010.1525097151307
30
0
10
20548.418539247377
20
6009.7997258659798
30
0
10
20548.457962899589
20
6009.6527331442612
30
0
0
SPLINE
5
281
100
AcDbEntity
8
0
100
AcDbSpline
70
1064
71
3
72
9
73
5
74
0
42
0.000000001
43
0.0000000001
44
0.0000000001
40
0
40
0
40
0
40
0
40
0.060312040044062133
40
0.14939192463110298
40
0.14939192463110298
40
0.14939192463110298
40
0.14939192463110298
10
20550.905714660072
20
6009.3019592137125
30
0
10
20551.006561253365
20
6009.4792739501172
30
0
10
20551.256356595288
20
6009.9184796164709
30
0
10
20551.255238814887
20
6010.4280451219638
30
0
10
20551.254572301292
20
6010.7318904371041
30
0
0
SPLINE
5
282
100
AcDbEntity
8
0
100
AcDbSpline
70
1064
71
3
72
9
73
5
74
0
42
0.000000001
43
0.0000000001
44
0.0000000001
40
0
40
0
40
0
40
0
40
0.062405880750268629
40
0.13628126694853918
40
0.13628126694853918
40
0.13628126694853918
40
0.13628126694853918
10
20551.114645629306
20
6008.5716586680192
30
0
10
20550.925065822565
20
6008.4807010154527
30
0
10
20550.51106355324
20
6008.2820687073863
30
0
10
20550.051019536786
20
6008.267252325285
30
0
10
20549.801638751411
20
6008.2592206568506
30
0
0
LINE
5
283
100
AcDbEntity
8
0
100
AcDbLine
10
20553.991760640525
20
6011.4947762460488
30
0
11
20555.590370326419
21
6011.4947762460488
31
0
0
LINE
5
284
100
AcDbEntity
8
0
100
AcDbLine
10
20553.991760640525
20
6008.3550607533234
30
0
11
20553.248042493247
21
6008.3550607533234
31
0
0
SPLINE
5
285
100
AcDbEntity
8
0
100
AcDbSpline
70
1064
71
3
72
9
73
5
74
0
42
0.000000001
43
0.0000000001
44
0.0000000001
40
0
40
0
40
0
40
0
40
0.039451656661333899
40
0.083930485831119311
40
0.083930485831119311
40
0.083930485831119311
40
0.083930485831119311
10
20548.925662665748
20
6009.1179465622681
30
0
10
20549.046631933048
20
6009.0632108656791
30
0
10
20549.303985115002
20
6008.9467647137089
30
0
10
20549.586663342267
20
6008.9358724683816
30
0
10
20549.736468224906
20
6008.9301001400736
30
0
0
SPLINE
5
286
100
AcDbEntity
8
0
100
AcDbSpline
70
1064
71
3
72
9
73
5
74
0
42
0.000000001
43
0.0000000001
44
0.0000000001
40
0
40
0
40
0
40
0
40
0.026671287832469522
40
0.053148647018771353
40
0.053148647018771353
40
0.053148647018771353
40
0.053148647018771353
10
20556.824787288093
20
6011.9375565023201
30
0
10
20556.868394476496
20
6012.0163778603364
30
0
10
20556.955291782637
20
6012.1734474612167
30
0
10
20556.967977486638
20
6012.3524831810391
30
0
10
20556.974297194858
20
6012.4416744084147
30
0
0
SPLINE
5
287
100
AcDbEntity
8
0
100
AcDbSpline
70
1064
71
3
72
9
73
5
74
0
42
0.000000001
43
0.0000000001
44
0.0000000001
40
0
40
0
40
0
40
0
40
0.068698672385167886
40
0.12319684994532512
40
0.12319684994532512
40
0.12319684994532512
40
0.12319684994532512
10
20561.229589610481
20
6012.2193258375901
30
0
10
20561.149219491363
20
6012.4338243066959
30
0
10
20561.00509231742
20
6012.8184829149995
30
0
10
20560.884319852194
20
6013.2110711544874
30
0
10
20560.830894141574
20
6013.3847390980509
30
0
0
SPLINE
5
288
100
AcDbEntity
8
0
100
AcDbSpline
70
1064
71
3
72
9
73
5
74
0
42
0.000000001
43
0.0000000001
44
0.0000000001
40
0
40
0
40
0
40
0
40
0.055394228284138321
40
0.11161599100088931
40
0.11161599100088931
40
0.11161599100088931
40
0.11161599100088931
10
20544.254425793075
20
6013.3847390980509
30
0
10
20544.214733301691
20
6013.2042307663414
30
0
10
20544.134755352756
20
6012.8405174887712
30
0
10
20544.01293392566
20
6012.4885969987972
30
0
10
20543.951571612735
20
6012.3113321633118
30
0
0
SPLINE
5
289
100
AcDbEntity
8
0
100
AcDbSpline
70
1064
71
3
72
9
73
5
74
0
42
0.000000001
43
0.0000000001
44
0.0000000001
40
0
40
0
40
0
40
0
40
0.043995655243033324
40
0.088753020598284021
40
0.088753020598284021
40
0.088753020598284021
40
0.088753020598284021
10
20557.507167487522
20
6013.2888992995995
30
0
10
20557.575372454092
20
6013.1571057189021
30
0
10
20557.712963240483
20
6012.8912367753037
30
0
10
20557.731613038188
20
6012.5923834859223
30
0
10
20557.741017966651
20
6012.4416744084147
30
0
0
LINE
5
290
100
AcDbEntity
8
0
100
AcDbLine
10
20551.254572301292
20
6013.9751129717615
30
0
11
20551.998289256477
21
6013.9751129717615
31
0
0
LINE
5
291
100
AcDbEntity
8
0
100
AcDbLine
10
20561.816130309482
20
6010.6628858418244
30
0
11
20561.229589610481
21
6012.2193258375901
31
0
0
SPLINE
5
292
100
AcDbEntity
8
0
100
AcDbSpline
70
1064
71
3
72
9
73
5
74
0
42
0.000000001
43
0.0000000001
44
0.0000000001
40
0
40
0
40
0
40
0
40
0.072105934294168589
40
0.13303554986005564
40
0.13303554986005564
40
0.13303554986005564
40
0.13303554986005564
10
20549.801638751411
20
6008.2592206568506
30
0
10
20549.558884327795
20
6008.2662263799111
30
0
10
20549.111002075897
20
6008.2791519487801
30
0
10
20548.698596231756
20
6008.4521666106602
30
0
10
20548.509716420554
20
6008.5314064593094
30
0
0
SPLINE
5
293
100
AcDbEntity
8
0
100
AcDbSpline
70
1064
71
3
72
9
73
5
74
0
42
0.000000001
43
0.0000000001
44
0.0000000001
40
0
40
0
40
0
40
0
40
0.052580482425198256
40
0.1080661486571568
40
0.1080661486571568
40
0.1080661486571568
40
0.1080661486571568
10
20551.806610255619
20
6009.3824648232239
30
0
10
20551.727716058016
20
6009.2227735743727
30
0
10
20551.565568590122
20
6008.8945677945512
30
0
10
20551.267623209635
20
6008.6812069969701
30
0
10
20551.114645629306
20
6008.5716586680192
30
0
0
SPLINE
5
294
100
AcDbEntity
8
0
100
AcDbSpline
70
1064
71
3
72
9
73
5
74
0
42
0.000000001
43
0.0000000001
44
0.0000000001
40
0
40
0
40
0
40
0
40
0.063091256405673146
40
0.14315391226039542
40
0.14315391226039542
40
0.14315391226039542
40
0.14315391226039542
10
20547.79283466854
20
6009.3192099900025
30
0
10
20547.730443988999
20
6009.5211201448465
30
0
10
20547.588879684001
20
6009.9792538108695
30
0
10
20547.582000442853
20
6010.459478472696
30
0
10
20547.578153043174
20
6010.7280569643763
30
0
0
LINE
5
295
100
AcDbEntity
8
0
100
AcDbLine
10
20547.578153043174
20
6010.7280569643763
30
0
11
20547.578153043174
21
6013.9751129717615
31
0
0
SPLINE
5
296
100
AcDbEntity
8
0
100
AcDbSpline
70
1064
71
3
72
9
73
5
74
0
42
0.000000001
43
0.0000000001
44
0.0000000001
40
0
40
0
40
0
40
0
40
0.066237953328028787
40
0.11567166855835882
40
0.11567166855835882
40
0.11567166855835882
40
0.11567166855835882
10
20555.739880233192
20
6013.9751129717615
30
0
10
20555.961900148141
20
6013.9734047112825
30
0
10
20556.349614633946
20
6013.9704215674783
30
0
10
20556.722804268698
20
6013.8676197886307
30
0
10
20556.882291465186
20
6013.8236861796158
30
0
0
SPLINE
5
297
100
AcDbEntity
8
0
100
AcDbSpline
70
1064
71
3
72
9
73
5
74
0
42
0.000000001
43
0.0000000001
44
0.0000000001
40
0
40
0
40
0
40
0
40
0.019126017682645075
40
0.037204859810405486
40
0.037204859810405486
40
0.037204859810405486
40
0.037204859810405486
10
20555.607621102714
20
6010.6743865580338
30
0
10
20555.552650445978
20
6010.7072377367149
30
0
10
20555.445718850937
20
6010.7711414472378
30
0
10
20555.326351631207
20
6010.8066449526086
30
0
10
20555.268347888374
20
6010.82389706085
30
0
0
SPLINE
5
298
100
AcDbEntity
8
0
100
AcDbSpline
70
1064
71
3
72
9
73
5
74
0
42
0.000000001
43
0.0000000001
44
0.0000000001
40
0
40
0
40
0
40
0
40
0.059597805997602046
40
0.13236002967083907
40
0.13236002967083907
40
0.13236002967083907
40
0.13236002967083907
10
20557.353823810005
20
6011.4334385962266
30
0
10
20557.195890581868
20
6011.307881020055
30
0
10
20556.845138630306
20
6011.029031753219
30
0
10
20556.401579659119
20
6010.9535591424992
30
0
10
20556.157742171668
20
6010.9120696158188
30
0
0
LINE
5
299
100
AcDbEntity
8
0
100
AcDbLine
10
20547.578153043174
20
6013.9751129717615
30
0
11
20548.321871190452
21
6013.9751129717615
31
0
0
LINE
5
300
100
AcDbEntity
8
0
100
AcDbLine
10
20553.248042493247
20
6013.9751129717615
30
0
11
20555.739880233192
21
6013.9751129717615
31
0
0
SPLINE
5
301
100
AcDbEntity
8
0
100
AcDbSpline
70
1064
71
3
72
9
73
5
74
0
42
0.000000001
43
0.0000000001
44
0.0000000001
40
0
40
0
40
0
40
0
40
0.070863076071114861
40
0.12523479516558714
40
0.12523479516558714
40
0.12523479516558714
40
0.12523479516558714
10
20549.736468224906
20
6008.9301001400736
30
0
10
20549.979520739649
20
6008.9355764488228
30
0
10
20550.409062238352
20
6008.9452546118737
30
0
10
20550.755364623641
20
6009.1939751436985
30
0
10
20550.905714660072
20
6009.3019592137125
30
0
0
SPLINE
5
302
100
AcDbEntity
8
0
100
AcDbSpline
70
1064
71
3
72
9
73
5
74
0
42
0.000000001
43
0.0000000001
44
0.0000000001
40
0
40
0
40
0
40
0
40
0.035856047092865807
40
0.072152929733016805
40
0.072152929733016805
40
0.072152929733016805
40
0.072152929733016805
10
20548.457962899589
20
6009.6527331442612
30
0
10
20548.511807642008
20
6009.5435269372401
30
0
10
20548.620159126112
20
6009.3237718772052
30
0
10
20548.823414207392
20
6009.1868338856957
30
0
10
20548.925662665748
20
6009.1179465622681
30
0
0
LINE
5
303
100
AcDbEntity
8
0
100
AcDbLine
10
20551.254572301292
20
6010.7318904371041
30
0
11
20551.254572301292
21
6013.9751129717615
31
0
0
LINE
5
304
100
AcDbEntity
8
0
100
AcDbLine
10
20554.854319720638
20
6010.8507319659975
30
0
11
20553.991760640525
21
6010.8507319659975
31
0
0
LWPOLYLINE
5
305
100
AcDbEntity
8
0
100
AcDbPolyline
90
8
70
1
43
0.0
10
20562.701690822028
20
6008.3550607533234
10
20562.046144633674
20
6010.0571774811524
10
20559.696150451087
20
6010.0571774811524
10
20559.078941970252
20
6008.3550607533234
10
20558.289220958137
20
6008.3550607533234
10
20560.447536139865
20
6013.9751129717615
10
20561.248756080051
20
6013.9751129717615
10
20563.548916011237
20
6008.3550607533234
0
LINE
5
306
100
AcDbEntity
8
0
100
AcDbLine
10
20557.265651851081
20
6008.3550607533234
30
0
11
20556.521933703803
21
6009.5243077845353
31
0
0
LINE
5
307
100
AcDbEntity
8
0
100
AcDbLine
10
20553.248042493247
20
6008.3550607533234
30
0
11
20553.248042493247
21
6013.9751129717615
31
0
0
SPLINE
5
308
100
AcDbEntity
8
0
100
AcDbSpline
70
1064
71
3
72
9
73
5
74
0
42
0.000000001
43
0.0000000001
44
0.0000000001
40
0
40
0
40
0
40
0
40
0.053640815304312695
40
0.094241788849565494
40
0.094241788849565494
40
0.094241788849565494
40
0.094241788849565494
10
20556.521933703803
20
6009.5243077845353
30
0
10
20556.424744596559
20
6009.6744661574867
30
0
10
20556.253992618404
20
6009.9382800759986
30
0
10
20556.066153809894
20
6010.19017407095
30
0
10
20555.985229640388
20
6010.2986943096903
30
0
0
SPLINE
5
309
100
AcDbEntity
8
0
100
AcDbSpline
70
1064
71
3
72
9
73
5
74
0
42
0.000000001
43
0.0000000001
44
0.0000000001
40
0
40
0
40
0
40
0
40
0.05595162821094319
40
0.11011082354825776
40
0.11011082354825776
40
0.11011082354825776
40
0.11011082354825776
10
20557.741017966651
20
6012.4416744084147
30
0
10
20557.725961739379
20
6012.2513082406467
30
0
10
20557.696331617135
20
6011.8766743617252
30
0
10
20557.466747320672
20
6011.5795717285346
30
0
10
20557.353823810005
20
6011.4334385962266
30
0
0
SPLINE
5
310
100
AcDbEntity
8
0
100
AcDbSpline
70
1064
71
3
72
9
73
5
74
0
42
0.000000001
43
0.0000000001
44
0.0000000001
40
0
40
0
40
0
40
0
40
0.04093527488823575
40
0.083417773907806803
40
0.083417773907806803
40
0.083417773907806803
40
0.083417773907806803
10
20556.882291465186
20
6013.8236861796158
30
0
10
20557.006777682866
20
6013.7623980568342
30
0
10
20557.260455304175
20
6013.6375053137617
30
0
10
20557.423919454428
20
6013.406529343687
30
0
10
20557.507167487522
20
6013.2888992995995
30
0
0
SPLINE
5
311
100
AcDbEntity
8
0
100
AcDbSpline
70
1064
71
3
72
9
73
5
74
0
42
0.000000001
43
0.0000000001
44
0.0000000001
40
0
40
0
40
0
40
0
40
0.029547600130235416
40
0.052991127148225133
40
0.052991127148225133
40
0.052991127148225133
40
0.052991127148225133
10
20556.157742171668
20
6010.9120696158188
30
0
10
20556.246339723348
20
6010.8682926618903
30
0
10
20556.405231955054
20
6010.789782389601
30
0
10
20556.544611917139
20
6010.6805443131589
30
0
10
20556.606274276161
20
6010.6322168679017
30
0
0
SPLINE
5
312
100
AcDbEntity
8
0
100
AcDbSpline
70
1064
71
3
72
9
73
5
74
0
42
0.000000001
43
0.0000000001
44
0.0000000001
40
0
40
0
40
0
40
0
40
0.046238355647241089
40
0.097133748552967261
40
0.097133748552967261
40
0.097133748552967261
40
0.097133748552967261
10
20556.606274276161
20
6010.6322168679017
30
0
10
20556.715564139988
20
6010.5230303850249
30
0
10
20556.945151330183
20
6010.2936603690569
30
0
10
20557.12778682046
20
6010.0252861832778
30
0
10
20557.223482756996
20
6009.8846655459183
30
0
0
LINE
5
313
100
AcDbEntity
8
0
100
AcDbLine
10
20557.223482756996
20
6009.8846655459183
30
0
11
20558.201048999214
21
6008.3550607533234
31
0
0
SPLINE
5
314
100
AcDbEntity
8
0
100
AcDbSpline
70
1064
71
3
72
9
73
5
74
0
42
0.000000001
43
0.0000000001
44
0.0000000001
40
0
40
0
40
0
40
0
40
0.045504428157198809
40
0.080714506438403638
40
0.080714506438403638
40
0.080714506438403638
40
0.080714506438403638
10
20555.590370326419
20
6011.4947762460488
30
0
10
20555.742817341736
20
6011.4964365512405
30
0
10
20556.013223675756
20
6011.4993815550451
30
0
10
20556.274000319736
20
6011.5695782698876
30
0
10
20556.387758880042
20
6011.6002001733559
30
0
0
LINE
5
315
100
AcDbEntity
8
0
100
AcDbLine
10
20558.201048999214
20
6008.3550607533234
30
0
11
20557.265651851081
21
6008.3550607533234
31
0
0
SPLINE
5
316
100
AcDbEntity
8
0
100
AcDbSpline
70
1064
71
3
72
9
73
5
74
0
42
0.000000001
43
0.0000000001
44
0.0000000001
40
0
40
0
40
0
40
0
40
0.0167971971121318
40
0.041532925815397234
40
0.041532925815397234
40
0.041532925815397234
40
0.041532925815397234
10
20555.268347888374
20
6010.82389706085
30
0
10
20555.212837998297
20
6010.8316552863153
30
0
10
20555.075583661692
20
6010.8508383560038
30
0
10
20554.936909669959
20
6010.8507716775975
30
0
10
20554.854319720649
20
6010.8507319659975
30
0
0
SPLINE
5
317
100
AcDbEntity
8
0
100
AcDbSpline
70
1064
71
3
72
9
73
5
74
0
42
0.000000001
43
0.0000000001
44
0.0000000001
40
0
40
0
40
0
40
0
40
0.030324795343307377
40
0.053431199353497841
40
0.053431199353497841
40
0.053431199353497841
40
0.053431199353497841
10
20555.985229640388
20
6010.2986943096903
30
0
10
20555.921789483527
20
6010.3779808552054
30
0
10
20555.81001020754
20
6010.5176808984052
30
0
10
20555.668721584279
20
6010.627077730438
30
0
10
20555.607621102714
20
6010.6743865580338
30
0
0
SPLINE
5
318
100
AcDbEntity
8
0
100
AcDbSpline
70
1064
71
3
72
9
73
5
74
0
42
0.000000001
43
0.0000000001
44
0.0000000001
40
0
40
0
40
0
40
0
40
0.042007140283183309
40
0.096488579563416221
40
0.096488579563416221
40
0.096488579563416221
40
0.096488579563416221
10
20556.684861808204
20
6013.0972194046753
30
0
10
20556.563611075151
20
6013.1718175245151
30
0
10
20556.285103399445
20
6013.3431661707891
30
0
10
20555.956238645165
20
6013.3501353407801
30
0
10
20555.770548015022
20
6013.3540704221505
30
0
0
LINE
5
319
100
AcDbEntity
8
0
100
AcDbLine
10
20559.910832076454
20
6010.6628858418244
30
0
11
20561.816130309482
21
6010.6628858418244
31
0
0
LINE
5
320
100
AcDbEntity
8
0
100
AcDbLine
10
20553.991760640525
20
6010.8507319659975
30
0
11
20553.991760640525
21
6008.3550607533234
31
0
0
SPLINE
5
321
100
AcDbEntity
8
0
100
AcDbSpline
70
1064
71
3
72
9
73
5
74
0
42
0.000000001
43
0.0000000001
44
0.0000000001
40
0
40
0
40
0
40
0
40
0.037037071830881403
40
0.073446930839158764
40
0.073446930839158764
40
0.073446930839158764
40
0.073446930839158764
10
20556.974297194858
20
6012.4416744084147
30
0
10
20556.962654057199
20
6012.5682896153285
30
0
10
20556.939564955279
20
6012.8193758347743
30
0
10
20556.76927812591
20
6013.0051336517545
30
0
10
20556.684861808204
20
6013.0972194046753
30
0
0
SPLINE
5
322
100
AcDbEntity
8
0
100
AcDbSpline
70
1064
71
3
72
9
73
5
74
0
42
0.000000001
43
0.0000000001
44
0.0000000001
40
0
40
0
40
0
40
0
40
0.028775087403506275
40
0.055974797622477868
40
0.055974797622477868
40
0.055974797622477868
40
0.055974797622477868
10
20556.387758880042
20
6011.6002001733559
30
0
10
20556.477097022213
20
6011.6394703164178
30
0
10
20556.650882225982
20
6011.7158606425246
30
0
10
20556.767916890927
20
6011.8650575684551
30
0
10
20556.824787288093
20
6011.9375565023201
30
0
0
LINE
5
323
100
AcDbEntity
8
0
100
AcDbLine
10
20555.770548015022
20
6013.3540704221505
30
0
11
20553.991760640525
21
6013.3540704221505
31
0
0
SPLINE
5
324
100
AcDbEntity
8
0
100
AcDbSpline
70
1064
71
3
72
9
73
5
74
0
42
0.000000001
43
0.0000000001
44
0.0000000001
40
0
40
0
40
0
40
0
40
0.050220149623596007
40
0.096642427379689547
40
0.096642427379689547
40
0.096642427379689547
40
0.096642427379689547
10
20565.254867701911
20
6009.8923330874222
30
0
10
20565.310402724277
20
6009.7343724496477
30
0
10
20565.41727296275
20
6009.4303968625718
30
0
10
20565.506968440503
20
6009.1209249462518
30
0
10
20565.550053744697
20
6008.9722698302048
30
0
0
LINE
5
325
100
AcDbEntity
8
0
100
AcDbLine
10
20563.794267802619
20
6013.9751129717615
30
0
11
20565.254867701911
21
6009.8923330874222
31
0
0
LINE
5
326
100
AcDbEntity
8
0
100
AcDbLine
10
20553.991760640525
20
6013.3540704221505
30
0
11
20553.991760640525
21
6011.4947762460488
31
0
0
LINE
5
327
100
AcDbEntity
8
0
100
AcDbLine
10
20562.989211707492
20
6013.9751129717615
30
0
11
20563.794267802619
21
6013.9751129717615
31
0
0
LINE
5
328
100
AcDbEntity
8
0
100
AcDbLine
10
20560.528040557288
20
6012.3113321633118
30
0
11
20559.910832076454
21
6010.6628858418244
31
0
0
LINE
5
329
100
AcDbEntity
8
0
100
AcDbLine
10
20565.92958035984
20
6008.3550607533234
30
0
11
20565.166693358802
21
6008.3550607533234
31
0
0
LINE
5
330
100
AcDbEntity
8
0
100
AcDbLine
10
20568.130064635654
20
6013.9751129717615
30
0
11
20565.92958035984
21
6008.3550607533234
31
0
0
LINE
5
331
100
AcDbEntity
8
0
100
AcDbLine
10
20565.852907328986
20
6009.8923330874222
30
0
11
20567.371011405372
21
6013.9751129717615
31
0
0
SPLINE
5
332
100
AcDbEntity
8
0
100
AcDbSpline
70
1064
71
3
72
9
73
5
74
0
42
0.000000001
43
0.0000000001
44
0.0000000001
40
0
40
0
40
0
40
0
40
0.055394200440546486
40
0.11161598154800056
40
0.11161598154800056
40
0.11161598154800056
40
0.11161598154800056
10
20560.830894141574
20
6013.3847390980509
30
0
10
20560.791202181572
20
6013.2042307305801
30
0
10
20560.711225269908
20
6012.8405172289413
30
0
10
20560.58940321282
20
6012.4885969603074
30
0
10
20560.528040557288
20
6012.3113321633118
30
0
0
LINE
5
333
100
AcDbEntity
8
0
100
AcDbLine
10
20565.166693358802
20
6008.3550607533234
30
0
11
20562.989211707492
21
6013.9751129717615
31
0
0
SPLINE
5
334
100
AcDbEntity
8
0
100
AcDbSpline
70
1064
71
3
72
9
73
5
74
0
42
0.000000001
43
0.0000000001
44
0.0000000001
40
0
40
0
40
0
40
0
40
0.048112165899448812
40
0.096883314984726437
40
0.096883314984726437
40
0.096883314984726437
40
0.096883314984726437
10
20565.550053744697
20
6008.9722698302048
30
0
10
20565.595452179688
20
6009.1261281688858
30
0
10
20565.686870863392
20
6009.4359522146488
30
0
10
20565.797311441354
20
6009.7395178631996
30
0
10
20565.852907328986
20
6009.8923330874222
30
0
0
LINE
5
335
100
AcDbEntity
8
0
100
AcDbLine
10
20567.371011405372
20
6013.9751129717615
30
0
11
20568.130064635654
21
6013.9751129717615
31
0
0
ENDSEC
0
SECTION
2
OBJECTS
0
DICTIONARY
5
C
100
AcDbDictionary
3
ACAD_GROUP
350
D
3
ACAD_MLINESTYLE
350
17
0
DICTIONARY
5
D
100
AcDbDictionary
0
DICTIONARY
5
1A
330
C
100
AcDbDictionary
0
DICTIONARY
5
17
100
AcDbDictionary
0
ENDSEC
0
EOF
