0
SECTION
2
HEADER
9
$INSUNITS
70
4
9
$ACADVER
1
AC1014
9
$HANDSEED
5
FFFF
0
ENDSEC
0
SECTION
2
TABLES
0
TABLE
2
VPORT
5
8
100
AcDbSymbolTable
0
ENDTAB
0
TABLE
2
LTYPE
5
5
100
AcDbSymbolTable
0
LTYPE
5
14
100
AcDbSymbolTableRecord
100
AcDbLinetypeTableRecord
2
BYBLOCK
70
0
0
LTYPE
5
15
100
AcDbSymbolTableRecord
100
AcDbLinetypeTableRecord
2
BYLAYER
70
0
0
ENDTAB
0
TABLE
2
LAYER
5
2
100
AcDbSymbolTable
70
2
0
LAYER
5
50
100
AcDbSymbolTableRecord
100
AcDbLayerTableRecord
2
0
70
0
6
CONTINUOUS
0
ENDTAB
0
TABLE
2
STYLE
5
3
100
AcDbSymbolTable
70
1
0
STYLE
5
11
100
AcDbSymbolTableRecord
100
AcDbTextStyleTableRecord
2
STANDARD
70
0
0
ENDTAB
0
TABLE
2
VIEW
5
6
100
AcDbSymbolTable
70
0
0
ENDTAB
0
TABLE
2
UCS
5
7
100
AcDbSymbolTable
70
0
0
ENDTAB
0
TABLE
2
APPID
5
9
100
AcDbSymbolTable
70
2
0
APPID
5
12
100
AcDbSymbolTableRecord
100
AcDbRegAppTableRecord
2
ACAD
70
0
0
ENDTAB
0
TABLE
2
DIMSTYLE
5
A
100
AcDbSymbolTable
70
1
0
ENDTAB
0
TABLE
2
BLOCK_RECORD
5
1
100
AcDbSymbolTable
70
1
0
BLOCK_RECORD
5
1F
100
AcDbSymbolTableRecord
100
AcDbBlockTableRecord
2
*MODEL_SPACE
0
BLOCK_RECORD
5
1B
100
AcDbSymbolTableRecord
100
AcDbBlockTableRecord
2
*PAPER_SPACE
0
ENDTAB
0
ENDSEC
0
SECTION
2
BLOCKS
0
BLOCK
5
20
100
AcDbEntity
100
AcDbBlockBegin
2
*MODEL_SPACE
0
ENDBLK
5
21
100
AcDbEntity
100
AcDbBlockEnd
0
BLOCK
5
1C
100
AcDbEntity
100
AcDbBlockBegin
2
*PAPER_SPACE
0
ENDBLK
5
1D
100
AcDbEntity
100
AcDbBlockEnd
0
ENDSEC
0
SECTION
2
ENTITIES
0
LINE
5
100
100
AcDbEntity
8
0
100
AcDbLine
10
200
20
-50
30
0
11
200
21
0
31
0
0
LINE
5
101
100
AcDbEntity
8
0
100
AcDbLine
10
-100
20
150
30
0
11
200
21
0
31
0
0
LWPOLYLINE
5
102
100
AcDbEntity
8
0
100
AcDbPolyline
90
8
70
1
43
0.0
10
164.22291236000342
20
-15.652475842498426
10
155.27864045000427
20
-11.180339887498821
10
150.8065044950047
20
-8.9442719099990171
10
149.91207730400478
20
-10.733126291998845
10
154.38421325900435
20
-12.969194269498647
10
163.3284851690035
20
-17.441330224498252
10
167.80062112400304
20
-19.677398201998056
10
168.69504831500296
20
-17.88854381999823
0
LWPOLYLINE
5
103
100
AcDbEntity
8
0
100
AcDbPolyline
90
8
70
1
43
0.0
10
29.16440651901631
20
49.640709100495847
10
20.220134609017144
20
54.112845055495448
10
15.74799865401757
20
56.348913032995249
10
16.642425845017492
20
58.137767414995082
10
21.114561800017064
20
55.901699437495282
10
30.058833710016231
20
51.429563482495681
10
34.530969665015803
20
49.19349550499588
10
33.636542474015883
20
47.404641122996047
0
LINE
5
104
100
AcDbEntity
8
0
100
AcDbLine
10
154.38421325900435
20
-12.969194269498647
30
0
11
163.3284851690035
21
-17.441330224498252
31
0
0
LINE
5
105
100
AcDbEntity
8
0
100
AcDbLine
10
550
20
-183.00000000000006
30
0
11
700
21
-182.99998482605537
31
0
0
LINE
5
106
100
AcDbEntity
8
0
100
AcDbLine
10
702
20
-132.99998482330651
30
0
11
702
21
-142.99998482330651
31
0
0
LINE
5
107
100
AcDbEntity
8
0
100
AcDbLine
10
548
20
-143.00000133321919
30
0
11
548
21
-133.00000133321913
31
0
0
LINE
5
108
100
AcDbEntity
8
0
100
AcDbLine
10
548
20
-143.00000133321919
30
0
11
548
21
-133.00000133321913
31
0
0
LINE
5
109
100
AcDbEntity
8
0
100
AcDbLine
10
548
20
6.9999986667816572
30
0
11
548
21
16.999998666781735
31
0
0
LINE
5
110
100
AcDbEntity
8
0
100
AcDbLine
10
702
20
-132.99998482330651
30
0
11
702
21
-142.99998482330651
31
0
0
LINE
5
111
100
AcDbEntity
8
0
100
AcDbLine
10
702
20
17.000015176694383
30
0
11
702
21
7.000015176694383
31
0
0
LINE
5
112
100
AcDbEntity
8
0
100
AcDbLine
10
549.99999946396395
20
-128.00000111880473
30
0
11
550.00000053603617
21
1.9999988811961362
31
0
0
LINE
5
113
100
AcDbEntity
8
0
100
AcDbLine
10
700.00000053603617
20
2.0000149622799608
30
0
11
699.99999946396383
21
-127.99998503772099
31
0
0
LINE
5
114
100
AcDbEntity
8
0
100
AcDbLine
10
1125
20
125
30
0
11
1175
21
125
31
0
0
LINE
5
115
100
AcDbEntity
8
0
100
AcDbLine
10
1175
20
125
30
0
11
1175
21
-67.999999999999972
31
0
0
LINE
5
116
100
AcDbEntity
8
0
100
AcDbLine
10
1125
20
-68
30
0
11
1175
21
-67.999999999999972
31
0
0
LINE
5
117
100
AcDbEntity
8
0
100
AcDbLine
10
1175
20
-67.999999999999972
30
0
11
1123
21
-68
31
0
0
LINE
5
118
100
AcDbEntity
8
0
100
AcDbLine
10
1125
20
125
30
0
11
1125
21
67
31
0
0
LINE
5
119
100
AcDbEntity
8
0
100
AcDbLine
10
1123
20
62
30
0
11
1123
21
51.999999999999993
31
0
0
LINE
5
120
100
AcDbEntity
8
0
100
AcDbLine
10
1123
20
-8.0000000000000089
30
0
11
1123
21
-18.000000000000011
31
0
0
LINE
5
121
100
AcDbEntity
8
0
100
AcDbLine
10
1125
20
46.999999999999993
30
0
11
1125
21
-3.0000000000000071
31
0
0
LINE
5
122
100
AcDbEntity
8
0
100
AcDbLine
10
1125
20
-23.000000000000007
30
0
11
1125
21
-68
31
0
0
LWPOLYLINE
5
123
100
AcDbEntity
8
0
100
AcDbPolyline
90
8
70
1
43
0.0
10
624
20
-53.000000000000028
10
624
20
-62.999992514186744
10
624.00000049062419
20
-67.84999251418671
10
626.00000049062419
20
-67.849992311867453
10
626
20
-62.999992311867473
10
626
20
-53.000000000000028
10
626
20
-48.15000000000002
10
624
20
-48.15000000000002
0
LWPOLYLINE
5
124
100
AcDbEntity
8
0
100
AcDbPolyline
90
8
70
1
43
0.0
10
626
20
-122.99999231186776
10
626
20
-132.9999923118678
10
626.00000049062419
20
-137.84999231186779
10
624.00000049062419
20
-137.84999251418705
10
624
20
-132.99999251418708
10
624
20
-122.99999251418703
10
623.99999950937581
20
-118.14999251418705
10
625.99999950937581
20
-118.14999231186778
0
LINE
5
125
100
AcDbEntity
8
0
100
AcDbLine
10
-202
20
0
30
0
11
-202
21
10
31
0
0
LINE
5
126
100
AcDbEntity
8
0
100
AcDbLine
10
-202
20
80
30
0
11
-202
21
90
31
0
0
LINE
5
127
100
AcDbEntity
8
0
100
AcDbLine
10
-200
20
95
30
0
11
-200
21
150
31
0
0
LINE
5
128
100
AcDbEntity
8
0
100
AcDbLine
10
155.27864045000427
20
-11.180339887498821
30
0
11
164.22291236000342
21
-15.652475842498426
31
0
0
LINE
5
129
100
AcDbEntity
8
0
100
AcDbLine
10
-200
20
-50
30
0
11
-200
21
-5
31
0
0
LINE
5
130
100
AcDbEntity
8
0
100
AcDbLine
10
-200
20
15
30
0
11
-200
21
75
31
0
0
LINE
5
131
100
AcDbEntity
8
0
100
AcDbLine
10
-427
20
395
30
0
11
-427
21
350
31
0
0
LINE
5
132
100
AcDbEntity
8
0
100
AcDbLine
10
-427
20
600
30
0
11
-427
21
495
31
0
0
LINE
5
133
100
AcDbEntity
8
0
100
AcDbLine
10
-427
20
475
30
0
11
-427
21
415
31
0
0
LINE
5
134
100
AcDbEntity
8
0
100
AcDbLine
10
-425
20
490
30
0
11
-425
21
480
31
0
0
LINE
5
135
100
AcDbEntity
8
0
100
AcDbLine
10
-425
20
410
30
0
11
-425
21
400
31
0
0
LINE
5
136
100
AcDbEntity
8
0
100
AcDbLine
10
-273
20
600
30
0
11
-273
21
495
31
0
0
LINE
5
137
100
AcDbEntity
8
0
100
AcDbLine
10
-275
20
490
30
0
11
-275
21
480
31
0
0
LINE
5
138
100
AcDbEntity
8
0
100
AcDbLine
10
-275
20
410
30
0
11
-275
21
400
31
0
0
LINE
5
139
100
AcDbEntity
8
0
100
AcDbLine
10
-275
20
490
30
0
11
-275
21
480
31
0
0
LINE
5
140
100
AcDbEntity
8
0
100
AcDbLine
10
-275
20
410
30
0
11
-275
21
400
31
0
0
LINE
5
141
100
AcDbEntity
8
0
100
AcDbLine
10
-325.00000000000006
20
348.00000252531186
30
0
11
-335.00000000000006
21
348.00000227773228
31
0
0
LINE
5
142
100
AcDbEntity
8
0
100
AcDbLine
10
-375.00000000000006
20
348.00000128741385
30
0
11
-385.00000000000006
21
348.00000103983427
31
0
0
LINE
5
143
100
AcDbEntity
8
0
100
AcDbLine
10
-390.00000004951602
20
349.9999998762101
30
0
11
-427
21
350
31
0
0
LINE
5
144
100
AcDbEntity
8
0
100
AcDbLine
10
-273
20
350
30
0
11
-320.00000004951596
21
350.00000012378985
31
0
0
LINE
5
145
100
AcDbEntity
8
0
100
AcDbLine
10
-340.00000004951596
20
349.99999987621015
30
0
11
-370.00000004951596
21
350.00000012378973
31
0
0
LINE
5
146
100
AcDbEntity
8
0
100
AcDbLine
10
-273
20
475
30
0
11
-273
21
415
31
0
0
LINE
5
147
100
AcDbEntity
8
0
100
AcDbLine
10
-273
20
395
30
0
11
-273
21
350
31
0
0
LWPOLYLINE
5
148
100
AcDbEntity
8
0
100
AcDbPolyline
90
6
70
1
43
0.0
10
0
20
838
10
0
20
848
10
0
20
852.84999999999991
10
-2.0000000000000018
20
852.84999999999991
10
-2.0000000000000018
20
833.14999999999998
10
0
20
833.14999999999998
0
LWPOLYLINE
5
149
100
AcDbEntity
8
0
100
AcDbPolyline
90
6
70
1
43
0.0
10
0
20
788
10
0
20
798
10
0
20
802.84999999999991
10
-2.0000000000000018
20
802.84999999999991
10
-2.0000000000000018
20
783.14999999999998
10
0
20
783.14999999999998
0
LINE
5
150
100
AcDbEntity
8
0
100
AcDbLine
10
-200
20
-50
30
0
11
-200
21
-52
31
0
0
LINE
5
151
100
AcDbEntity
8
0
100
AcDbLine
10
-100
20
-52
30
0
11
-90
21
-52
31
0
0
LINE
5
152
100
AcDbEntity
8
0
100
AcDbLine
10
100
20
-52
30
0
11
110
21
-52
31
0
0
LINE
5
153
100
AcDbEntity
8
0
100
AcDbLine
10
-200
20
-50
30
0
11
-105
21
-50
31
0
0
LINE
5
154
100
AcDbEntity
8
0
100
AcDbLine
10
115
20
-50
30
0
11
200
21
-50
31
0
0
LINE
5
155
100
AcDbEntity
8
0
100
AcDbLine
10
0
20
-52
30
0
11
10
21
-52
31
0
0
LINE
5
156
100
AcDbEntity
8
0
100
AcDbLine
10
-85
20
-50
30
0
11
-5
21
-50
31
0
0
LINE
5
157
100
AcDbEntity
8
0
100
AcDbLine
10
15
20
-50
30
0
11
95
21
-50
31
0
0
LWPOLYLINE
5
158
100
AcDbEntity
8
0
100
AcDbPolyline
90
6
70
1
43
0.0
10
109.99999999999999
20
748
10
100
20
748
10
95.150000000000006
20
748
10
95.150000000000006
20
746
10
114.84999999999999
20
746
10
114.84999999999998
20
748
0
LWPOLYLINE
5
159
100
AcDbEntity
8
0
100
AcDbPolyline
90
6
70
1
43
0.0
10
210.00000000000003
20
748
10
200.00000000000003
20
748
10
195.15000000000003
20
748
10
195.15000000000003
20
746
10
214.85000000000002
20
746
10
214.85000000000002
20
748
0
LWPOLYLINE
5
160
100
AcDbEntity
8
0
100
AcDbPolyline
90
6
70
1
43
0.0
10
310.00000000000006
20
748
10
300.00000000000006
20
748
10
295.15000000000003
20
748
10
295.15000000000003
20
746
10
314.85000000000002
20
746
10
314.85000000000002
20
748
0
LWPOLYLINE
5
161
100
AcDbEntity
8
0
100
AcDbPolyline
90
6
70
1
43
0.0
10
310.00000000000006
20
898
10
300.00000000000006
20
898
10
295.15000000000003
20
898
10
295.15000000000003
20
900
10
314.85000000000002
20
900
10
314.85000000000002
20
898
0
LWPOLYLINE
5
162
100
AcDbEntity
8
0
100
AcDbPolyline
90
6
70
1
43
0.0
10
110.00000000000001
20
898
10
100.00000000000001
20
898
10
95.15000000000002
20
898
10
95.15000000000002
20
900
10
114.85000000000001
20
900
10
114.85000000000001
20
898
0
LWPOLYLINE
5
163
100
AcDbEntity
8
0
100
AcDbPolyline
90
6
70
1
43
0.0
10
210.00000000000003
20
898
10
200.00000000000003
20
898
10
195.15000000000003
20
898
10
195.15000000000003
20
900
10
214.85000000000002
20
900
10
214.85000000000002
20
898
0
LINE
5
164
100
AcDbEntity
8
0
100
AcDbLine
10
-200
20
150
30
0
11
-200
21
160
31
0
0
LINE
5
165
100
AcDbEntity
8
0
100
AcDbLine
10
-200
20
160
30
0
11
-100
21
150
31
0
0
LWPOLYLINE
5
166
100
AcDbEntity
8
0
100
AcDbPolyline
90
4
70
1
43
0.0
10
-123.08486281287175
20
120.14888429370038
10
-122.88585537482975
20
122.13895867412035
10
-142.78659917902954
20
124.12903305454039
10
-142.98560661707154
20
122.13895867412042
0
LWPOLYLINE
5
167
100
AcDbEntity
8
0
100
AcDbPolyline
90
4
70
1
43
0.0
10
-162.88635042127129
20
124.12903305454044
10
-162.68734298322929
20
126.11910743496041
10
-182.58808678742909
20
128.10918181538045
10
-182.78709422547109
20
126.11910743496047
0
LINE
5
168
100
AcDbEntity
8
0
100
AcDbLine
10
700
20
200
30
0
11
700
21
202.40976618108419
31
0
0
LINE
5
169
100
AcDbEntity
8
0
100
AcDbLine
10
700.00000159491651
20
202.39179788014951
30
0
11
700.00000159491651
21
202.39179788014951
31
0
0
LINE
5
170
100
AcDbEntity
8
0
100
AcDbLine
10
699.99999960288278
20
252.37381452739498
30
0
11
699.99999960146829
21
252.40930703639884
31
0
0
LINE
5
171
100
AcDbEntity
8
0
100
AcDbLine
10
547.99999946396383
20
21.999998666781707
30
0
11
549.99999946396383
21
21.999998881196156
31
0
0
LINE
5
172
100
AcDbEntity
8
0
100
AcDbLine
10
548.00000053603617
20
1.9999986667816856
30
0
11
550.00000053603617
21
1.9999988811961362
31
0
0
LINE
5
173
100
AcDbEntity
8
0
100
AcDbLine
10
547.99999946396383
20
21.999998666781707
30
0
11
548
21
16.999998666781735
31
0
0
LINE
5
174
100
AcDbEntity
8
0
100
AcDbLine
10
548.00000053603617
20
1.9999986667816856
30
0
11
548
21
6.9999986667816572
31
0
0
LINE
5
175
100
AcDbEntity
8
0
100
AcDbLine
10
699.99999946396383
20
22.000014962279906
30
0
11
701.99999946396383
21
22.000015176694355
31
0
0
LINE
5
176
100
AcDbEntity
8
0
100
AcDbLine
10
700.00000053603617
20
2.0000149622799608
30
0
11
702.00000053603617
21
2.0000151766944114
31
0
0
LINE
5
177
100
AcDbEntity
8
0
100
AcDbLine
10
702.00000053603617
20
2.0000151766944114
30
0
11
702
21
7.000015176694383
31
0
0
LINE
5
178
100
AcDbEntity
8
0
100
AcDbLine
10
701.99999946396383
20
22.000015176694355
30
0
11
702
21
17.000015176694383
31
0
0
LINE
5
179
100
AcDbEntity
8
0
100
AcDbLine
10
699.99999946396383
20
-127.99998503772099
30
0
11
701.99999946396383
21
-127.99998482330653
31
0
0
LINE
5
180
100
AcDbEntity
8
0
100
AcDbLine
10
700.00000053603617
20
-147.9999850377209
30
0
11
702.00000053603617
21
-147.99998482330648
31
0
0
LINE
5
181
100
AcDbEntity
8
0
100
AcDbLine
10
702.00000053603617
20
-147.99998482330648
30
0
11
702
21
-142.99998482330651
31
0
0
LINE
5
182
100
AcDbEntity
8
0
100
AcDbLine
10
701.99999946396383
20
-127.99998482330653
30
0
11
702
21
-132.99998482330651
31
0
0
LINE
5
183
100
AcDbEntity
8
0
100
AcDbLine
10
547.99999946396395
20
-128.00000133321919
30
0
11
549.99999946396395
21
-128.00000111880473
31
0
0
LINE
5
184
100
AcDbEntity
8
0
100
AcDbLine
10
548.00000053603605
20
-148.00000133321916
30
0
11
550.00000053603605
21
-148.00000111880473
31
0
0
LINE
5
185
100
AcDbEntity
8
0
100
AcDbLine
10
548.00000053603605
20
-148.00000133321916
30
0
11
548
21
-143.00000133321919
31
0
0
LINE
5
186
100
AcDbEntity
8
0
100
AcDbLine
10
547.99999946396395
20
-128.00000133321919
30
0
11
548
21
-133.00000133321913
31
0
0
LINE
5
187
100
AcDbEntity
8
0
100
AcDbLine
10
-320.00000004951596
20
350.00000012378985
30
0
11
-320.00000000000006
21
348.0000026491017
31
0
0
LINE
5
188
100
AcDbEntity
8
0
100
AcDbLine
10
-340.00000004951596
20
349.99999987621015
30
0
11
-340.00000000000006
21
348.00000215394243
31
0
0
LINE
5
189
100
AcDbEntity
8
0
100
AcDbLine
10
-340.00000000000006
20
348.00000215394243
30
0
11
-335.00000000000006
21
348.00000227773228
31
0
0
LINE
5
190
100
AcDbEntity
8
0
100
AcDbLine
10
-325.00000000000006
20
348.00000252531186
30
0
11
-320.00000000000006
21
348.0000026491017
31
0
0
LINE
5
191
100
AcDbEntity
8
0
100
AcDbLine
10
-370.00000004951596
20
350.00000012378973
30
0
11
-370.00000000000006
21
348.00000141120364
31
0
0
LINE
5
192
100
AcDbEntity
8
0
100
AcDbLine
10
-390.00000004951602
20
349.9999998762101
30
0
11
-390.00000000000006
21
348.00000091604437
31
0
0
LINE
5
193
100
AcDbEntity
8
0
100
AcDbLine
10
-390.00000000000006
20
348.00000091604437
30
0
11
-385.00000000000006
21
348.00000103983427
31
0
0
LINE
5
194
100
AcDbEntity
8
0
100
AcDbLine
10
-375.00000000000006
20
348.00000128741385
30
0
11
-370.00000000000006
21
348.00000141120364
31
0
0
LINE
5
195
100
AcDbEntity
8
0
100
AcDbLine
10
-275
20
395.14999999999998
30
0
11
-275
21
400
31
0
0
LINE
5
196
100
AcDbEntity
8
0
100
AcDbLine
10
-275
20
414.85000000000002
30
0
11
-275
21
410
31
0
0
LINE
5
197
100
AcDbEntity
8
0
100
AcDbLine
10
-425
20
395.14999999999998
30
0
11
-425
21
400
31
0
0
LINE
5
198
100
AcDbEntity
8
0
100
AcDbLine
10
-425
20
410
30
0
11
-425
21
414.85000000000002
31
0
0
LINE
5
199
100
AcDbEntity
8
0
100
AcDbLine
10
-425
20
494.85000000000002
30
0
11
-425
21
490
31
0
0
LINE
5
200
100
AcDbEntity
8
0
100
AcDbLine
10
-425
20
475.14999999999998
30
0
11
-425
21
480
31
0
0
LINE
5
201
100
AcDbEntity
8
0
100
AcDbLine
10
-275
20
494.85000000000002
30
0
11
-275
21
490
31
0
0
LINE
5
202
100
AcDbEntity
8
0
100
AcDbLine
10
-275
20
480
30
0
11
-275
21
475.14999999999998
31
0
0
LINE
5
203
100
AcDbEntity
8
0
100
AcDbLine
10
-85
20
-50
30
0
11
-85
21
-52
31
0
0
LINE
5
204
100
AcDbEntity
8
0
100
AcDbLine
10
-105
20
-50
30
0
11
-105
21
-52
31
0
0
LINE
5
205
100
AcDbEntity
8
0
100
AcDbLine
10
-105
20
-52
30
0
11
-100
21
-52
31
0
0
LINE
5
206
100
AcDbEntity
8
0
100
AcDbLine
10
-90
20
-52
30
0
11
-85
21
-52
31
0
0
LINE
5
207
100
AcDbEntity
8
0
100
AcDbLine
10
15
20
-50
30
0
11
15
21
-52
31
0
0
LINE
5
208
100
AcDbEntity
8
0
100
AcDbLine
10
-5
20
-50
30
0
11
-5
21
-52
31
0
0
LINE
5
209
100
AcDbEntity
8
0
100
AcDbLine
10
-5
20
-52
30
0
11
0
21
-52
31
0
0
LINE
5
210
100
AcDbEntity
8
0
100
AcDbLine
10
10
20
-52
30
0
11
15
21
-52
31
0
0
LINE
5
211
100
AcDbEntity
8
0
100
AcDbLine
10
115
20
-50
30
0
11
115
21
-52
31
0
0
LINE
5
212
100
AcDbEntity
8
0
100
AcDbLine
10
95
20
-50
30
0
11
95
21
-52
31
0
0
LINE
5
213
100
AcDbEntity
8
0
100
AcDbLine
10
95
20
-52
30
0
11
100
21
-52
31
0
0
LINE
5
214
100
AcDbEntity
8
0
100
AcDbLine
10
110
20
-52
30
0
11
115
21
-52
31
0
0
LINE
5
215
100
AcDbEntity
8
0
100
AcDbLine
10
-202
20
95
30
0
11
-200
21
95
31
0
0
LINE
5
216
100
AcDbEntity
8
0
100
AcDbLine
10
-202
20
75
30
0
11
-200
21
75
31
0
0
LINE
5
217
100
AcDbEntity
8
0
100
AcDbLine
10
-202
20
95
30
0
11
-202
21
90
31
0
0
LINE
5
218
100
AcDbEntity
8
0
100
AcDbLine
10
-202
20
80
30
0
11
-202
21
75
31
0
0
LINE
5
219
100
AcDbEntity
8
0
100
AcDbLine
10
-202
20
15
30
0
11
-200
21
15
31
0
0
LINE
5
220
100
AcDbEntity
8
0
100
AcDbLine
10
-202
20
-5
30
0
11
-200
21
-5
31
0
0
LINE
5
221
100
AcDbEntity
8
0
100
AcDbLine
10
-202
20
-5
30
0
11
-202
21
0
31
0
0
LINE
5
222
100
AcDbEntity
8
0
100
AcDbLine
10
-202
20
10
30
0
11
-202
21
15
31
0
0
LINE
5
223
100
AcDbEntity
8
0
100
AcDbLine
10
1125
20
67
30
0
11
1123
21
67
31
0
0
LINE
5
224
100
AcDbEntity
8
0
100
AcDbLine
10
1125
20
46.999999999999993
30
0
11
1123
21
46.999999999999993
31
0
0
LINE
5
225
100
AcDbEntity
8
0
100
AcDbLine
10
1123
20
46.999999999999993
30
0
11
1123
21
51.999999999999993
31
0
0
LINE
5
226
100
AcDbEntity
8
0
100
AcDbLine
10
1123
20
62
30
0
11
1123
21
67
31
0
0
LINE
5
227
100
AcDbEntity
8
0
100
AcDbLine
10
1125
20
-3.0000000000000071
30
0
11
1123
21
-3.0000000000000093
31
0
0
LINE
5
228
100
AcDbEntity
8
0
100
AcDbLine
10
1125
20
-23.000000000000007
30
0
11
1123
21
-23.000000000000007
31
0
0
LINE
5
229
100
AcDbEntity
8
0
100
AcDbLine
10
1123
20
-18.000000000000011
30
0
11
1123
21
-23.000000000000007
31
0
0
LINE
5
230
100
AcDbEntity
8
0
100
AcDbLine
10
1123
20
-3.0000000000000093
30
0
11
1123
21
-8.0000000000000089
31
0
0
LINE
5
231
100
AcDbEntity
8
0
100
AcDbLine
10
699.99999960288278
20
252.37381452739498
30
0
11
700.00011918869063
21
252.37381452739498
31
0
0
LINE
5
232
100
AcDbEntity
8
0
100
AcDbLine
10
549.99999960306889
20
252.41
30
0
11
550.00012356113916
21
252.40999999942733
31
0
0
LINE
5
233
100
AcDbEntity
8
0
100
AcDbLine
10
549.99999960306889
20
252.41
30
0
11
550.00000191294748
21
252.90999999999468
31
0
0
LINE
5
234
100
AcDbEntity
8
0
100
AcDbLine
10
550.00000191294748
20
252.90999999999468
30
0
11
700.00000191134689
21
252.90930703639884
31
0
0
LINE
5
235
100
AcDbEntity
8
0
100
AcDbLine
10
700.00000191134689
20
252.90930703639884
30
0
11
700.00011918869063
21
252.37381452739498
31
0
0
LINE
5
236
100
AcDbEntity
8
0
100
AcDbLine
10
550.00000191294748
20
252.90999999999468
30
0
11
549.99999960306889
21
252.41
31
0
0
LINE
5
237
100
AcDbEntity
8
0
100
AcDbLine
10
549.99953762732707
20
152.41000000106712
30
0
11
699.9995376114282
21
152.41218395579529
31
0
0
LINE
5
238
100
AcDbEntity
8
0
100
AcDbLine
10
547.99977200088608
20
192.41001171905668
30
0
11
549.99977200085164
21
192.41000000038045
31
0
0
LINE
5
239
100
AcDbEntity
8
0
100
AcDbLine
10
547.99965481412369
20
172.41001171940002
30
0
11
549.99965481408935
21
172.41000000072378
31
0
0
LINE
5
240
100
AcDbEntity
8
0
100
AcDbLine
10
547.99988918764836
20
212.41001171871341
30
0
11
549.99988918761403
21
212.41000000003714
31
0
0
LINE
5
241
100
AcDbEntity
8
0
100
AcDbLine
10
548.00000637441076
20
232.41001171837007
30
0
11
550.00000637437643
21
232.40999999969381
31
0
0
LINE
5
242
100
AcDbEntity
8
0
100
AcDbLine
10
550.00012356113916
20
252.40999999942733
30
0
11
550.00000637437643
21
232.40999999969381
31
0
0
LINE
5
243
100
AcDbEntity
8
0
100
AcDbLine
10
549.99988918761403
20
212.41000000003714
30
0
11
549.99977200085164
21
192.41000000038045
31
0
0
LINE
5
244
100
AcDbEntity
8
0
100
AcDbLine
10
549.99965481408935
20
172.41000000072378
30
0
11
549.99953762732707
21
152.41000000106712
31
0
0
LINE
5
245
100
AcDbEntity
8
0
100
AcDbLine
10
548.00000637441076
20
232.41001171837007
30
0
11
547.99988918764836
21
212.41001171871341
31
0
0
LINE
5
246
100
AcDbEntity
8
0
100
AcDbLine
10
547.99977200088608
20
192.41001171905668
30
0
11
547.99965481412369
21
172.41001171940002
31
0
0
LINE
5
247
100
AcDbEntity
8
0
100
AcDbLine
10
700.00015308333207
20
252.37381452739498
30
0
11
700.00015310747153
21
252.41001517392576
31
0
0
LINE
5
248
100
AcDbEntity
8
0
100
AcDbLine
10
699.9995376114282
20
152.41218395579529
30
0
11
699.99999954179157
21
152.412183955795
31
0
0
LINE
5
249
100
AcDbEntity
8
0
100
AcDbLine
10
699.99953762336372
20
172.41218395579529
30
0
11
701.99999955372721
21
172.41218395460146
31
0
0
LINE
5
250
100
AcDbEntity
8
0
100
AcDbLine
10
699.99953763529948
20
192.41218395579529
30
0
11
701.99999956566285
21
192.41218395460146
31
0
0
LINE
5
251
100
AcDbEntity
8
0
100
AcDbLine
10
699.999537647235
20
212.41218395579529
30
0
11
701.99999957759837
21
212.41218395460146
31
0
0
LINE
5
252
100
AcDbEntity
8
0
100
AcDbLine
10
699.99953765917053
20
232.41218395579529
30
0
11
701.99999958953401
21
232.41218395460146
31
0
0
LINE
5
253
100
AcDbEntity
8
0
100
AcDbLine
10
699.99999960146829
20
252.40930703639884
30
0
11
699.99999986712191
21
232.412183955795
31
0
0
LINE
5
254
100
AcDbEntity
8
0
100
AcDbLine
10
701.99999958953401
20
232.41218395460146
30
0
11
701.99999957759837
21
212.41218395460146
31
0
0
LINE
5
255
100
AcDbEntity
8
0
100
AcDbLine
10
701.99999956566285
20
192.41218395460146
30
0
11
701.99999955372721
21
172.41218395460146
31
0
0
LINE
5
256
100
AcDbEntity
8
0
100
AcDbLine
10
699.99999957759871
20
212.412183955795
30
0
11
699.99999956566296
21
192.412183955795
31
0
0
LINE
5
257
100
AcDbEntity
8
0
100
AcDbLine
10
699.99999955372732
20
172.412183955795
30
0
11
699.99999946396383
21
22.000014962279906
31
0
0
LWPOLYLINE
5
258
100
AcDbEntity
8
0
100
AcDbPolyline
90
4
70
1
43
0.0
10
604.99977161059041
20
203.05974591387485
10
604.99986262255663
20
222.7597459136646
10
602.99986262257801
20
222.75975515317921
10
602.99977161061167
20
203.05975515338946
0
LWPOLYLINE
5
259
100
AcDbEntity
8
0
100
AcDbPolyline
90
4
70
1
43
0.0
10
644.99977161016341
20
203.05956112358263
10
644.99986262212985
20
222.75956112337238
10
646.99986262210859
20
222.75955188385777
10
646.99977161014215
20
203.05955188406801
0
LINE
5
260
100
AcDbEntity
8
0
100
AcDbLine
10
644.99953762093639
20
152.41138317239501
30
0
11
644.99953761916413
21
152.41099958053763
31
0
0
LINE
5
261
100
AcDbEntity
8
0
100
AcDbLine
10
646.99953762109226
20
152.41141229179138
30
0
11
646.99953761914287
21
152.4109903407483
31
0
0
LWPOLYLINE
5
262
100
AcDbEntity
8
0
100
AcDbPolyline
90
10
70
1
43
0.0
10
1040
20
500
10
1000
20
500
10
1000
20
470
10
998
20
470
10
998
20
450
10
1000
20
450
10
1000
20
430
10
1040
20
430
10
1040
20
450
10
1040
20
470
0
LWPOLYLINE
5
263
100
AcDbEntity
8
0
100
AcDbPolyline
90
10
70
1
43
0.0
10
1050
20
430
10
1050
20
450
10
1048
20
450
10
1048
20
470
10
1050
20
470
10
1050
20
500
10
1090
20
500
10
1090
20
470
10
1090
20
450
10
1090
20
430
0
LINE
5
264
100
AcDbEntity
8
0
100
AcDbLine
10
-427
20
560
30
0
11
-427
21
620
31
0
0
LINE
5
265
100
AcDbEntity
8
0
100
AcDbLine
10
-427
20
620
30
0
11
-273.00000000000006
21
620
31
0
0
LINE
5
266
100
AcDbEntity
8
0
100
AcDbLine
10
-273.00000000000006
20
620
30
0
11
-273
21
560
31
0
0
CIRCLE
5
267
100
AcDbEntity
8
0
100
AcDbCircle
10
-350
20
590
30
0
40
20.000000000000014
0
LINE
5
268
100
AcDbEntity
8
0
100
AcDbLine
10
-427
20
495
30
0
11
-427
21
560
31
0
0
LINE
5
269
100
AcDbEntity
8
0
100
AcDbLine
10
-427
20
350
30
0
11
-427
21
395
31
0
0
LINE
5
270
100
AcDbEntity
8
0
100
AcDbLine
10
-427
20
415
30
0
11
-427
21
475
31
0
0
LWPOLYLINE
5
271
100
AcDbEntity
8
0
100
AcDbPolyline
90
4
70
1
43
0.0
10
682.62000983476639
20
175.00000260770321
10
660.00000983476639
20
175.00000260770321
10
660.00000983476639
20
162.8200026077032
10
682.62000983476639
20
162.8200026077032
0
LINE
5
272
100
AcDbEntity
8
0
100
AcDbLine
10
636.31500000000005
20
28.91
30
0
11
613.68499999999995
21
28.91
31
0
0
LINE
5
273
100
AcDbEntity
8
0
100
AcDbLine
10
613.68499999999995
20
28.91
30
0
11
613.68499999999995
21
41.090000000000003
31
0
0
LINE
5
274
100
AcDbEntity
8
0
100
AcDbLine
10
613.68499999999995
20
41.090000000000003
30
0
11
636.31500000000005
21
41.090000000000003
31
0
0
LINE
5
275
100
AcDbEntity
8
0
100
AcDbLine
10
636.31500000000005
20
41.090000000000003
30
0
11
636.31500000000005
21
28.91
31
0
0
LINE
5
276
100
AcDbEntity
8
0
100
AcDbLine
10
-427
20
494.85000000000002
30
0
11
-425
21
494.85000000000002
31
0
0
LINE
5
277
100
AcDbEntity
8
0
100
AcDbLine
10
-427
20
475.14999999999998
30
0
11
-425
21
475.14999999999998
31
0
0
LINE
5
278
100
AcDbEntity
8
0
100
AcDbLine
10
-427
20
475.14999999999998
30
0
11
-427
21
475
31
0
0
LINE
5
279
100
AcDbEntity
8
0
100
AcDbLine
10
-427
20
495
30
0
11
-427
21
494.85000000000002
31
0
0
LINE
5
280
100
AcDbEntity
8
0
100
AcDbLine
10
-427
20
395.14999999999998
30
0
11
-425
21
395.14999999999998
31
0
0
LINE
5
281
100
AcDbEntity
8
0
100
AcDbLine
10
-427
20
414.85000000000002
30
0
11
-425
21
414.85000000000002
31
0
0
LINE
5
282
100
AcDbEntity
8
0
100
AcDbLine
10
-427
20
414.85000000000002
30
0
11
-427
21
415
31
0
0
LINE
5
283
100
AcDbEntity
8
0
100
AcDbLine
10
-427
20
395.14999999999998
30
0
11
-427
21
395
31
0
0
LINE
5
284
100
AcDbEntity
8
0
100
AcDbLine
10
-275
20
414.85000000000002
30
0
11
-273
21
414.85000000000002
31
0
0
LINE
5
285
100
AcDbEntity
8
0
100
AcDbLine
10
-275
20
395.14999999999998
30
0
11
-273
21
395.14999999999998
31
0
0
LINE
5
286
100
AcDbEntity
8
0
100
AcDbLine
10
-273
20
395.14999999999998
30
0
11
-273
21
395
31
0
0
LINE
5
287
100
AcDbEntity
8
0
100
AcDbLine
10
-273
20
414.85000000000002
30
0
11
-273
21
415
31
0
0
LINE
5
288
100
AcDbEntity
8
0
100
AcDbLine
10
-275
20
494.85000000000002
30
0
11
-273
21
494.85000000000002
31
0
0
LINE
5
289
100
AcDbEntity
8
0
100
AcDbLine
10
-275
20
475.14999999999998
30
0
11
-273
21
475.14999999999998
31
0
0
LINE
5
290
100
AcDbEntity
8
0
100
AcDbLine
10
-273
20
475.14999999999998
30
0
11
-273
21
475
31
0
0
LINE
5
291
100
AcDbEntity
8
0
100
AcDbLine
10
-273
20
494.85000000000002
30
0
11
-273
21
495
31
0
0
LINE
5
292
100
AcDbEntity
8
0
100
AcDbLine
10
700
20
-182.99998482605537
30
0
11
700.00000053603617
21
-147.9999850377209
31
0
0
LINE
5
293
100
AcDbEntity
8
0
100
AcDbLine
10
550
20
-183.00000000000006
30
0
11
550.00000053603605
21
-148.00000111880473
31
0
0
LINE
5
294
100
AcDbEntity
8
0
100
AcDbLine
10
549.99999946396383
20
21.999998881196156
30
0
11
549.99999969423152
21
152.41000000779468
31
0
0
LINE
5
295
100
AcDbEntity
8
0
100
AcDbLine
10
-300
20
-50
30
0
11
-300
21
0
31
0
0
LWPOLYLINE
5
296
100
AcDbEntity
8
0
100
AcDbPolyline
90
8
70
1
43
0.0
10
-335.77708763999658
20
-15.652475842498426
10
-344.72135954999573
20
-11.180339887498821
10
-349.19349550499533
20
-8.9442719099990171
10
-350.08792269599525
20
-10.733126291998845
10
-345.61578674099565
20
-12.969194269498647
10
-336.6715148309965
20
-17.441330224498252
10
-332.19937887599701
20
-19.677398201998056
10
-331.30495168499704
20
-17.88854381999823
0
LWPOLYLINE
5
297
100
AcDbEntity
8
0
100
AcDbPolyline
90
8
70
1
43
0.0
10
-470.83559348098368
20
49.640709100495847
10
-479.77986539098282
20
54.112845055495448
10
-484.25200134598242
20
56.348913032995249
10
-483.3575741549825
20
58.137767414995082
10
-478.8854381999829
20
55.901699437495282
10
-469.94116628998376
20
51.429563482495681
10
-465.46903033498415
20
49.19349550499588
10
-466.36345752598407
20
47.404641122996047
0
LINE
5
298
100
AcDbEntity
8
0
100
AcDbLine
10
-345.61578674099565
20
-12.969194269498647
30
0
11
-336.6715148309965
21
-17.441330224498252
31
0
0
LINE
5
299
100
AcDbEntity
8
0
100
AcDbLine
10
-344.72135954999573
20
-11.180339887498821
30
0
11
-335.77708763999658
21
-15.652475842498426
31
0
0
LINE
5
300
100
AcDbEntity
8
0
100
AcDbLine
10
-400
20
-52
30
0
11
-390
21
-52
31
0
0
LINE
5
301
100
AcDbEntity
8
0
100
AcDbLine
10
-385
20
-50
30
0
11
-300
21
-50
31
0
0
LINE
5
302
100
AcDbEntity
8
0
100
AcDbLine
10
-500
20
-52
30
0
11
-490
21
-52
31
0
0
LINE
5
303
100
AcDbEntity
8
0
100
AcDbLine
10
-485
20
-50
30
0
11
-405
21
-50
31
0
0
LINE
5
304
100
AcDbEntity
8
0
100
AcDbLine
10
-485
20
-50
30
0
11
-485
21
-52
31
0
0
LINE
5
305
100
AcDbEntity
8
0
100
AcDbLine
10
-505
20
-50
30
0
11
-505
21
-52
31
0
0
LINE
5
306
100
AcDbEntity
8
0
100
AcDbLine
10
-505
20
-52
30
0
11
-500
21
-52
31
0
0
LINE
5
307
100
AcDbEntity
8
0
100
AcDbLine
10
-490
20
-52
30
0
11
-485
21
-52
31
0
0
LINE
5
308
100
AcDbEntity
8
0
100
AcDbLine
10
-385
20
-50
30
0
11
-385
21
-52
31
0
0
LINE
5
309
100
AcDbEntity
8
0
100
AcDbLine
10
-405
20
-50
30
0
11
-405
21
-52
31
0
0
LINE
5
310
100
AcDbEntity
8
0
100
AcDbLine
10
-405
20
-52
30
0
11
-400
21
-52
31
0
0
LINE
5
311
100
AcDbEntity
8
0
100
AcDbLine
10
-390
20
-52
30
0
11
-385
21
-52
31
0
0
LINE
5
312
100
AcDbEntity
8
0
100
AcDbLine
10
-702
20
0
30
0
11
-702
21
10
31
0
0
LINE
5
313
100
AcDbEntity
8
0
100
AcDbLine
10
-702
20
80
30
0
11
-702
21
90
31
0
0
LINE
5
314
100
AcDbEntity
8
0
100
AcDbLine
10
-700
20
95
30
0
11
-700
21
150
31
0
0
LINE
5
315
100
AcDbEntity
8
0
100
AcDbLine
10
-700
20
-50
30
0
11
-700
21
-5
31
0
0
LINE
5
316
100
AcDbEntity
8
0
100
AcDbLine
10
-700
20
15
30
0
11
-700
21
75
31
0
0
LINE
5
317
100
AcDbEntity
8
0
100
AcDbLine
10
-700
20
-50
30
0
11
-700
21
-52
31
0
0
LINE
5
318
100
AcDbEntity
8
0
100
AcDbLine
10
-600
20
-52
30
0
11
-590
21
-52
31
0
0
LINE
5
319
100
AcDbEntity
8
0
100
AcDbLine
10
-700
20
-50
30
0
11
-605
21
-50
31
0
0
LINE
5
320
100
AcDbEntity
8
0
100
AcDbLine
10
-585
20
-50
30
0
11
-505
21
-50
31
0
0
LINE
5
321
100
AcDbEntity
8
0
100
AcDbLine
10
-700
20
150
30
0
11
-700
21
160
31
0
0
LINE
5
322
100
AcDbEntity
8
0
100
AcDbLine
10
-700
20
160
30
0
11
-600
21
150
31
0
0
LWPOLYLINE
5
323
100
AcDbEntity
8
0
100
AcDbPolyline
90
4
70
1
43
0.0
10
-623.08486281287173
20
120.14888429370038
10
-622.8858553748297
20
122.13895867412035
10
-642.78659917902951
20
124.12903305454039
10
-642.98560661707154
20
122.13895867412042
0
LWPOLYLINE
5
324
100
AcDbEntity
8
0
100
AcDbPolyline
90
4
70
1
43
0.0
10
-662.88635042127123
20
124.12903305454044
10
-662.6873429832292
20
126.11910743496041
10
-682.58808678742912
20
128.10918181538045
10
-682.78709422547104
20
126.11910743496047
0
LINE
5
325
100
AcDbEntity
8
0
100
AcDbLine
10
-585
20
-50
30
0
11
-585
21
-52
31
0
0
LINE
5
326
100
AcDbEntity
8
0
100
AcDbLine
10
-605
20
-50
30
0
11
-605
21
-52
31
0
0
LINE
5
327
100
AcDbEntity
8
0
100
AcDbLine
10
-605
20
-52
30
0
11
-600
21
-52
31
0
0
LINE
5
328
100
AcDbEntity
8
0
100
AcDbLine
10
-590
20
-52
30
0
11
-585
21
-52
31
0
0
LINE
5
329
100
AcDbEntity
8
0
100
AcDbLine
10
-702
20
95
30
0
11
-700
21
95
31
0
0
LINE
5
330
100
AcDbEntity
8
0
100
AcDbLine
10
-702
20
75
30
0
11
-700
21
75
31
0
0
LINE
5
331
100
AcDbEntity
8
0
100
AcDbLine
10
-702
20
95
30
0
11
-702
21
90
31
0
0
LINE
5
332
100
AcDbEntity
8
0
100
AcDbLine
10
-702
20
80
30
0
11
-702
21
75
31
0
0
LINE
5
333
100
AcDbEntity
8
0
100
AcDbLine
10
-702
20
15
30
0
11
-700
21
15
31
0
0
LINE
5
334
100
AcDbEntity
8
0
100
AcDbLine
10
-702
20
-5
30
0
11
-700
21
-5
31
0
0
LINE
5
335
100
AcDbEntity
8
0
100
AcDbLine
10
-702
20
-5
30
0
11
-702
21
0
31
0
0
LINE
5
336
100
AcDbEntity
8
0
100
AcDbLine
10
-702
20
10
30
0
11
-702
21
15
31
0
0
LINE
5
337
100
AcDbEntity
8
0
100
AcDbLine
10
-600
20
150
30
0
11
-300
21
0
31
0
0
LWPOLYLINE
5
338
100
AcDbEntity
8
0
100
AcDbPolyline
90
4
70
1
43
0.0
10
-655
20
100
10
-675
20
100
10
-675
20
90
10
-655
20
90
0
LWPOLYLINE
5
339
100
AcDbEntity
8
0
100
AcDbPolyline
90
4
70
1
43
0.0
10
498.88821981007209
20
935.33876554818016
10
-47.723618283704745
20
935.33876554818016
10
-47.723618283704781
20
693.27236132464509
10
498.88821981007197
20
693.27236132464509
0
ENDSEC
0
SECTION
2
OBJECTS
0
DICTIONARY
5
C
100
AcDbDictionary
3
ACAD_GROUP
350
D
3
ACAD_MLINESTYLE
350
17
0
DICTIONARY
5
D
100
AcDbDictionary
0
DICTIONARY
5
1A
330
C
100
AcDbDictionary
0
DICTIONARY
5
17
100
AcDbDictionary
0
ENDSEC
0
EOF
