0
SECTION
2
HEADER
9
$INSUNITS
70
4
9
$ACADVER
1
AC1014
9
$HANDSEED
5
FFFF
0
ENDSEC
0
SECTION
2
TABLES
0
TABLE
2
VPORT
5
8
100
AcDbSymbolTable
0
ENDTAB
0
TABLE
2
LTYPE
5
5
100
AcDbSymbolTable
0
LTYPE
5
14
100
AcDbSymbolTableRecord
100
AcDbLinetypeTableRecord
2
BYBLOCK
70
0
0
LTYPE
5
15
100
AcDbSymbolTableRecord
100
AcDbLinetypeTableRecord
2
BYLAYER
70
0
0
ENDTAB
0
TABLE
2
LAYER
5
2
100
AcDbSymbolTable
70
2
0
LAYER
5
50
100
AcDbSymbolTableRecord
100
AcDbLayerTableRecord
2
0
70
0
6
CONTINUOUS
0
ENDTAB
0
TABLE
2
STYLE
5
3
100
AcDbSymbolTable
70
1
0
STYLE
5
11
100
AcDbSymbolTableRecord
100
AcDbTextStyleTableRecord
2
STANDARD
70
0
0
ENDTAB
0
TABLE
2
VIEW
5
6
100
AcDbSymbolTable
70
0
0
ENDTAB
0
TABLE
2
UCS
5
7
100
AcDbSymbolTable
70
0
0
ENDTAB
0
TABLE
2
APPID
5
9
100
AcDbSymbolTable
70
2
0
APPID
5
12
100
AcDbSymbolTableRecord
100
AcDbRegAppTableRecord
2
ACAD
70
0
0
ENDTAB
0
TABLE
2
DIMSTYLE
5
A
100
AcDbSymbolTable
70
1
0
ENDTAB
0
TABLE
2
BLOCK_RECORD
5
1
100
AcDbSymbolTable
70
1
0
BLOCK_RECORD
5
1F
100
AcDbSymbolTableRecord
100
AcDbBlockTableRecord
2
*MODEL_SPACE
0
BLOCK_RECORD
5
1B
100
AcDbSymbolTableRecord
100
AcDbBlockTableRecord
2
*PAPER_SPACE
0
ENDTAB
0
ENDSEC
0
SECTION
2
BLOCKS
0
BLOCK
5
20
100
AcDbEntity
100
AcDbBlockBegin
2
*MODEL_SPACE
0
ENDBLK
5
21
100
AcDbEntity
100
AcDbBlockEnd
0
BLOCK
5
1C
100
AcDbEntity
100
AcDbBlockBegin
2
*PAPER_SPACE
0
ENDBLK
5
1D
100
AcDbEntity
100
AcDbBlockEnd
0
ENDSEC
0
SECTION
2
ENTITIES
0
LINE
5
100
100
AcDbEntity
8
0
100
AcDbLine
10
209.09887385879068
20
-145.5619015822447
30
0
11
-210.90112614120932
21
-145.5619015822447
31
0
0
LINE
5
101
100
AcDbEntity
8
0
100
AcDbLine
10
-210.01719735347876
20
114.43809841775531
30
0
11
209.98280264652124
21
114.43809841775531
31
0
0
LINE
5
102
100
AcDbEntity
8
0
100
AcDbLine
10
-13.12608696901545
20
4.99990171368795
30
0
11
-13.126087073335313
21
5.0000017136335373
31
0
0
LINE
5
103
100
AcDbEntity
8
0
100
AcDbLine
10
-25.00000007155057
20
114.84900662767629
30
0
11
-26.011990218784035
21
114.43809841775536
31
0
0
LINE
5
104
100
AcDbEntity
8
0
100
AcDbLine
10
-14.999999999999998
20
-145.5619015822447
30
0
11
-5
21
-145.5619015822447
31
0
0
LINE
5
105
100
AcDbEntity
8
0
100
AcDbLine
10
-0.90112614120933188
20
-145.5619015822447
30
0
11
209.09887385879068
21
-145.5619015822447
31
0
0
LINE
5
106
100
AcDbEntity
8
0
100
AcDbLine
10
-0.017197353478763944
20
114.43809841775531
30
0
11
209.98280264652124
21
114.43809841775531
31
0
0
LINE
5
107
100
AcDbEntity
8
0
100
AcDbLine
10
-0.017197353478763944
20
114.43809841775531
30
0
11
-210.01719735347876
21
114.43809841775531
31
0
0
LINE
5
108
100
AcDbEntity
8
0
100
AcDbLine
10
-0.90112614120933188
20
-145.5619015822447
30
0
11
-210.90112614120932
21
-145.5619015822447
31
0
0
LINE
5
109
100
AcDbEntity
8
0
100
AcDbLine
10
-210.01719735347876
20
114.43809841775531
30
0
11
-210.90112614120932
21
-145.5619015822447
31
0
0
LINE
5
110
100
AcDbEntity
8
0
100
AcDbLine
10
209.98280264652124
20
114.43809841775531
30
0
11
209.09887385879068
21
-145.5619015822447
31
0
0
LINE
5
111
100
AcDbEntity
8
0
100
AcDbLine
10
-34.999999999999964
20
114.43809841775531
30
0
11
-32.999999999999964
21
114.43809841775531
31
0
0
LINE
5
112
100
AcDbEntity
8
0
100
AcDbLine
10
-14.999999999999998
20
-145.5619015822447
30
0
11
-12.999999999999998
21
-145.5619015822447
31
0
0
LINE
5
113
100
AcDbEntity
8
0
100
AcDbLine
10
-14.000000000000002
20
103.43809841775531
30
0
11
-14.000000000000002
21
-6.5619015822446869
31
0
0
LINE
5
114
100
AcDbEntity
8
0
100
AcDbLine
10
-14.000000000000002
20
-17.561901582244687
30
0
11
-13.999999999999934
21
-127.56190158224469
31
0
0
LINE
5
115
100
AcDbEntity
8
0
100
AcDbLine
10
-15
20
114.43809841775531
30
0
11
-15
21
64.438098417755313
31
0
0
LINE
5
116
100
AcDbEntity
8
0
100
AcDbLine
10
-15
20
44.43809841775532
30
0
11
-15
21
-65.561901582244687
31
0
0
LINE
5
117
100
AcDbEntity
8
0
100
AcDbLine
10
-14.999999999999998
20
-145.5619015822447
30
0
11
-14.999999999999998
21
-95.561901582244687
31
0
0
LINE
5
118
100
AcDbEntity
8
0
100
AcDbLine
10
-0.017197353478763944
20
114.43809841775531
30
0
11
14.982802646521236
21
114.43809841775531
31
0
0
LINE
5
119
100
AcDbEntity
8
0
100
AcDbLine
10
-0.017197353478763944
20
114.43809841775531
30
0
11
-15.017197353478764
21
114.43809841775531
31
0
0
LINE
5
120
100
AcDbEntity
8
0
100
AcDbLine
10
-13
20
114.43809841775531
30
0
11
-13
21
64.438098417755313
31
0
0
LINE
5
121
100
AcDbEntity
8
0
100
AcDbLine
10
-13
20
44.43809841775532
30
0
11
-13
21
-65.561901582244687
31
0
0
LINE
5
122
100
AcDbEntity
8
0
100
AcDbLine
10
-11
20
114.43809841775531
30
0
11
-11
21
64.438098417755313
31
0
0
LINE
5
123
100
AcDbEntity
8
0
100
AcDbLine
10
-9
20
114.43809841775531
30
0
11
-9
21
64.438098417755313
31
0
0
LINE
5
124
100
AcDbEntity
8
0
100
AcDbLine
10
-7
20
114.43809841775531
30
0
11
-7
21
64.438098417755313
31
0
0
LINE
5
125
100
AcDbEntity
8
0
100
AcDbLine
10
-5
20
114.43809841775531
30
0
11
-5
21
64.438098417755313
31
0
0
LINE
5
126
100
AcDbEntity
8
0
100
AcDbLine
10
-2.9999999999999982
20
114.43809841775531
30
0
11
-2.9999999999999982
21
64.438098417755313
31
0
0
LINE
5
127
100
AcDbEntity
8
0
100
AcDbLine
10
-0.99999999999999867
20
114.43809841775531
30
0
11
-0.99999999999999867
21
64.438098417755313
31
0
0
LINE
5
128
100
AcDbEntity
8
0
100
AcDbLine
10
1.0000000000000009
20
114.43809841775531
30
0
11
1.0000000000000009
21
64.438098417755313
31
0
0
LINE
5
129
100
AcDbEntity
8
0
100
AcDbLine
10
3.0000000000000004
20
114.43809841775531
30
0
11
3.0000000000000004
21
64.438098417755313
31
0
0
LINE
5
130
100
AcDbEntity
8
0
100
AcDbLine
10
5
20
114.43809841775531
30
0
11
5
21
64.438098417755313
31
0
0
LINE
5
131
100
AcDbEntity
8
0
100
AcDbLine
10
7.0000000000000018
20
114.43809841775531
30
0
11
7.0000000000000018
21
64.438098417755313
31
0
0
LINE
5
132
100
AcDbEntity
8
0
100
AcDbLine
10
9.0000000000000036
20
114.43809841775531
30
0
11
9.0000000000000036
21
64.438098417755313
31
0
0
LINE
5
133
100
AcDbEntity
8
0
100
AcDbLine
10
11
20
114.43809841775531
30
0
11
11
21
64.438098417755313
31
0
0
LINE
5
134
100
AcDbEntity
8
0
100
AcDbLine
10
13.000000000000004
20
114.43809841775531
30
0
11
13.000000000000004
21
64.438098417755313
31
0
0
LINE
5
135
100
AcDbEntity
8
0
100
AcDbLine
10
-11
20
44.43809841775532
30
0
11
-11
21
-65.561901582244687
31
0
0
LINE
5
136
100
AcDbEntity
8
0
100
AcDbLine
10
-9
20
44.43809841775532
30
0
11
-9
21
-65.561901582244687
31
0
0
LINE
5
137
100
AcDbEntity
8
0
100
AcDbLine
10
-7
20
44.43809841775532
30
0
11
-7
21
-65.561901582244687
31
0
0
LINE
5
138
100
AcDbEntity
8
0
100
AcDbLine
10
-5
20
44.43809841775532
30
0
11
-5
21
-65.561901582244687
31
0
0
LINE
5
139
100
AcDbEntity
8
0
100
AcDbLine
10
-2.9999999999999982
20
44.43809841775532
30
0
11
-2.9999999999999982
21
-65.561901582244687
31
0
0
LINE
5
140
100
AcDbEntity
8
0
100
AcDbLine
10
-0.99999999999999867
20
44.43809841775532
30
0
11
-0.99999999999999867
21
-65.561901582244687
31
0
0
LINE
5
141
100
AcDbEntity
8
0
100
AcDbLine
10
1.0000000000000009
20
44.43809841775532
30
0
11
1.0000000000000009
21
-65.561901582244687
31
0
0
LINE
5
142
100
AcDbEntity
8
0
100
AcDbLine
10
3.0000000000000004
20
44.43809841775532
30
0
11
3.0000000000000004
21
-65.561901582244687
31
0
0
LINE
5
143
100
AcDbEntity
8
0
100
AcDbLine
10
5
20
44.43809841775532
30
0
11
5
21
-65.561901582244687
31
0
0
LINE
5
144
100
AcDbEntity
8
0
100
AcDbLine
10
7.0000000000000018
20
44.43809841775532
30
0
11
7.0000000000000018
21
-65.561901582244687
31
0
0
LINE
5
145
100
AcDbEntity
8
0
100
AcDbLine
10
9.0000000000000036
20
44.43809841775532
30
0
11
9.0000000000000036
21
-65.561901582244687
31
0
0
LINE
5
146
100
AcDbEntity
8
0
100
AcDbLine
10
11
20
44.43809841775532
30
0
11
11
21
-65.561901582244687
31
0
0
LINE
5
147
100
AcDbEntity
8
0
100
AcDbLine
10
13.000000000000004
20
44.43809841775532
30
0
11
13.000000000000004
21
-65.561901582244687
31
0
0
LINE
5
148
100
AcDbEntity
8
0
100
AcDbLine
10
-12.999999999999998
20
-145.5619015822447
30
0
11
-12.999999999999998
21
-95.561901582244687
31
0
0
LINE
5
149
100
AcDbEntity
8
0
100
AcDbLine
10
-10.999999999999996
20
-145.5619015822447
30
0
11
-10.999999999999996
21
-95.561901582244687
31
0
0
LINE
5
150
100
AcDbEntity
8
0
100
AcDbLine
10
-8.9999999999999964
20
-145.5619015822447
30
0
11
-8.9999999999999964
21
-95.561901582244687
31
0
0
LINE
5
151
100
AcDbEntity
8
0
100
AcDbLine
10
-6.9999999999999973
20
-145.5619015822447
30
0
11
-6.9999999999999973
21
-95.561901582244687
31
0
0
LINE
5
152
100
AcDbEntity
8
0
100
AcDbLine
10
-4.9999999999999982
20
-145.5619015822447
30
0
11
-4.9999999999999982
21
-95.561901582244687
31
0
0
LINE
5
153
100
AcDbEntity
8
0
100
AcDbLine
10
-2.999999999999996
20
-145.5619015822447
30
0
11
-2.999999999999996
21
-95.561901582244687
31
0
0
LINE
5
154
100
AcDbEntity
8
0
100
AcDbLine
10
-0.99999999999999645
20
-145.5619015822447
30
0
11
-0.99999999999999645
21
-95.561901582244687
31
0
0
LINE
5
155
100
AcDbEntity
8
0
100
AcDbLine
10
1.0000000000000031
20
-145.5619015822447
30
0
11
1.0000000000000031
21
-95.561901582244687
31
0
0
LINE
5
156
100
AcDbEntity
8
0
100
AcDbLine
10
3.0000000000000027
20
-145.5619015822447
30
0
11
3.0000000000000027
21
-95.561901582244687
31
0
0
LINE
5
157
100
AcDbEntity
8
0
100
AcDbLine
10
5.0000000000000018
20
-145.5619015822447
30
0
11
5.0000000000000018
21
-95.561901582244687
31
0
0
LINE
5
158
100
AcDbEntity
8
0
100
AcDbLine
10
7.0000000000000036
20
-145.5619015822447
30
0
11
7.0000000000000036
21
-95.561901582244687
31
0
0
LINE
5
159
100
AcDbEntity
8
0
100
AcDbLine
10
9.0000000000000053
20
-145.5619015822447
30
0
11
9.0000000000000053
21
-95.561901582244687
31
0
0
LINE
5
160
100
AcDbEntity
8
0
100
AcDbLine
10
11.000000000000004
20
-145.5619015822447
30
0
11
11.000000000000004
21
-95.561901582244687
31
0
0
LINE
5
161
100
AcDbEntity
8
0
100
AcDbLine
10
13.000000000000005
20
-145.5619015822447
30
0
11
13.000000000000005
21
-95.561901582244687
31
0
0
LINE
5
162
100
AcDbEntity
8
0
100
AcDbLine
10
-12.000000000000002
20
103.43809841775531
30
0
11
-12.000000000000002
21
-6.5619015822446869
31
0
0
LINE
5
163
100
AcDbEntity
8
0
100
AcDbLine
10
-10
20
103.43809841775531
30
0
11
-10
21
-6.5619015822446869
31
0
0
LINE
5
164
100
AcDbEntity
8
0
100
AcDbLine
10
-8
20
103.43809841775531
30
0
11
-8
21
-6.5619015822446869
31
0
0
LINE
5
165
100
AcDbEntity
8
0
100
AcDbLine
10
-6.0000000000000009
20
103.43809841775531
30
0
11
-6.0000000000000009
21
-6.5619015822446869
31
0
0
LINE
5
166
100
AcDbEntity
8
0
100
AcDbLine
10
-4.0000000000000018
20
103.43809841775531
30
0
11
-4.0000000000000018
21
-6.5619015822446869
31
0
0
LINE
5
167
100
AcDbEntity
8
0
100
AcDbLine
10
-1.9999999999999996
20
103.43809841775531
30
0
11
-1.9999999999999996
21
-6.5619015822446869
31
0
0
LINE
5
168
100
AcDbEntity
8
0
100
AcDbLine
10
0
20
103.43809841775531
30
0
11
0
21
-6.5619015822446869
31
0
0
LINE
5
169
100
AcDbEntity
8
0
100
AcDbLine
10
1.9999999999999996
20
103.43809841775531
30
0
11
1.9999999999999996
21
-6.5619015822446869
31
0
0
LINE
5
170
100
AcDbEntity
8
0
100
AcDbLine
10
3.9999999999999991
20
103.43809841775531
30
0
11
3.9999999999999991
21
-6.5619015822446869
31
0
0
LINE
5
171
100
AcDbEntity
8
0
100
AcDbLine
10
5.9999999999999982
20
103.43809841775531
30
0
11
5.9999999999999982
21
-6.5619015822446869
31
0
0
LINE
5
172
100
AcDbEntity
8
0
100
AcDbLine
10
8
20
103.43809841775531
30
0
11
8
21
-6.5619015822446869
31
0
0
LINE
5
173
100
AcDbEntity
8
0
100
AcDbLine
10
10.000000000000002
20
103.43809841775531
30
0
11
10.000000000000002
21
-6.5619015822446869
31
0
0
LINE
5
174
100
AcDbEntity
8
0
100
AcDbLine
10
12
20
103.43809841775531
30
0
11
12
21
-6.5619015822446869
31
0
0
LINE
5
175
100
AcDbEntity
8
0
100
AcDbLine
10
14.000000000000002
20
103.43809841775531
30
0
11
14.000000000000002
21
-6.5619015822446869
31
0
0
LINE
5
176
100
AcDbEntity
8
0
100
AcDbLine
10
15
20
114.43809841775531
30
0
11
15
21
64.438098417755313
31
0
0
LINE
5
177
100
AcDbEntity
8
0
100
AcDbLine
10
15
20
44.43809841775532
30
0
11
15
21
-65.561901582244687
31
0
0
LINE
5
178
100
AcDbEntity
8
0
100
AcDbLine
10
-12.000000000000002
20
-17.561901582244687
30
0
11
-11.999999999999936
21
-127.56190158224469
31
0
0
LINE
5
179
100
AcDbEntity
8
0
100
AcDbLine
10
-10
20
-17.561901582244687
30
0
11
-9.9999999999999325
21
-127.56190158224469
31
0
0
LINE
5
180
100
AcDbEntity
8
0
100
AcDbLine
10
-8
20
-17.561901582244683
30
0
11
-7.9999999999999343
21
-127.56190158224469
31
0
0
LINE
5
181
100
AcDbEntity
8
0
100
AcDbLine
10
-6.0000000000000009
20
-17.561901582244683
30
0
11
-5.9999999999999343
21
-127.56190158224469
31
0
0
LINE
5
182
100
AcDbEntity
8
0
100
AcDbLine
10
-4.0000000000000018
20
-17.56190158224468
30
0
11
-3.9999999999999347
21
-127.56190158224469
31
0
0
LINE
5
183
100
AcDbEntity
8
0
100
AcDbLine
10
-1.9999999999999996
20
-17.56190158224468
30
0
11
-1.9999999999999329
21
-127.56190158224469
31
0
0
LINE
5
184
100
AcDbEntity
8
0
100
AcDbLine
10
0
20
-17.56190158224468
30
0
11
6.661338147750938e-14
21
-127.56190158224469
31
0
0
LINE
5
185
100
AcDbEntity
8
0
100
AcDbLine
10
1.9999999999999996
20
-17.56190158224468
30
0
11
2.0000000000000662
21
-127.56190158224469
31
0
0
LINE
5
186
100
AcDbEntity
8
0
100
AcDbLine
10
3.9999999999999991
20
-17.561901582244676
30
0
11
4.0000000000000657
21
-127.56190158224469
31
0
0
LINE
5
187
100
AcDbEntity
8
0
100
AcDbLine
10
5.9999999999999982
20
-17.561901582244676
30
0
11
6.0000000000000657
21
-127.56190158224469
31
0
0
LINE
5
188
100
AcDbEntity
8
0
100
AcDbLine
10
8
20
-17.561901582244673
30
0
11
8.0000000000000675
21
-127.56190158224467
31
0
0
LINE
5
189
100
AcDbEntity
8
0
100
AcDbLine
10
10.000000000000002
20
-17.561901582244673
30
0
11
10.000000000000069
21
-127.56190158224467
31
0
0
LINE
5
190
100
AcDbEntity
8
0
100
AcDbLine
10
12
20
-17.561901582244673
30
0
11
12.000000000000066
21
-127.56190158224467
31
0
0
LINE
5
191
100
AcDbEntity
8
0
100
AcDbLine
10
14.000000000000002
20
-17.561901582244669
30
0
11
14.000000000000068
21
-127.56190158224467
31
0
0
LINE
5
192
100
AcDbEntity
8
0
100
AcDbLine
10
15.000000000000002
20
-145.5619015822447
30
0
11
15.000000000000002
21
-95.561901582244687
31
0
0
ENDSEC
0
SECTION
2
OBJECTS
0
DICTIONARY
5
C
100
AcDbDictionary
3
ACAD_GROUP
350
D
3
ACAD_MLINESTYLE
350
17
0
DICTIONARY
5
D
100
AcDbDictionary
0
DICTIONARY
5
1A
330
C
100
AcDbDictionary
0
DICTIONARY
5
17
100
AcDbDictionary
0
ENDSEC
0
EOF
