0
SECTION
2
HEADER
9
$INSUNITS
70
4
9
$ACADVER
1
AC1014
9
$HANDSEED
5
FFFF
0
ENDSEC
0
SECTION
2
TABLES
0
TABLE
2
VPORT
5
8
100
AcDbSymbolTable
0
ENDTAB
0
TABLE
2
LTYPE
5
5
100
AcDbSymbolTable
0
LTYPE
5
14
100
AcDbSymbolTableRecord
100
AcDbLinetypeTableRecord
2
BYBLOCK
70
0
0
LTYPE
5
15
100
AcDbSymbolTableRecord
100
AcDbLinetypeTableRecord
2
BYLAYER
70
0
0
ENDTAB
0
TABLE
2
LAYER
5
2
100
AcDbSymbolTable
70
2
0
LAYER
5
50
100
AcDbSymbolTableRecord
100
AcDbLayerTableRecord
2
0
70
0
6
CONTINUOUS
0
ENDTAB
0
TABLE
2
STYLE
5
3
100
AcDbSymbolTable
70
1
0
STYLE
5
11
100
AcDbSymbolTableRecord
100
AcDbTextStyleTableRecord
2
STANDARD
70
0
0
ENDTAB
0
TABLE
2
VIEW
5
6
100
AcDbSymbolTable
70
0
0
ENDTAB
0
TABLE
2
UCS
5
7
100
AcDbSymbolTable
70
0
0
ENDTAB
0
TABLE
2
APPID
5
9
100
AcDbSymbolTable
70
2
0
APPID
5
12
100
AcDbSymbolTableRecord
100
AcDbRegAppTableRecord
2
ACAD
70
0
0
ENDTAB
0
TABLE
2
DIMSTYLE
5
A
100
AcDbSymbolTable
70
1
0
ENDTAB
0
TABLE
2
BLOCK_RECORD
5
1
100
AcDbSymbolTable
70
1
0
BLOCK_RECORD
5
1F
100
AcDbSymbolTableRecord
100
AcDbBlockTableRecord
2
*MODEL_SPACE
0
BLOCK_RECORD
5
1B
100
AcDbSymbolTableRecord
100
AcDbBlockTableRecord
2
*PAPER_SPACE
0
ENDTAB
0
ENDSEC
0
SECTION
2
BLOCKS
0
BLOCK
5
20
100
AcDbEntity
100
AcDbBlockBegin
2
*MODEL_SPACE
0
ENDBLK
5
21
100
AcDbEntity
100
AcDbBlockEnd
0
BLOCK
5
1C
100
AcDbEntity
100
AcDbBlockBegin
2
*PAPER_SPACE
0
ENDBLK
5
1D
100
AcDbEntity
100
AcDbBlockEnd
0
ENDSEC
0
SECTION
2
ENTITIES
0
LINE
5
100
100
AcDbEntity
8
0
100
AcDbLine
10
158.92608346244941
20
349.09825723813128
30
0
11
188.54804846244943
21
349.09825723813128
31
0
0
LINE
5
101
100
AcDbEntity
8
0
100
AcDbLine
10
176.37804835094059
20
294.19650592299604
30
0
11
151.37804835094059
21
294.19650592299604
31
0
0
LINE
5
102
100
AcDbEntity
8
0
100
AcDbLine
10
188.54804835094058
20
324.19650592299604
30
0
11
176.37804835094059
21
324.19650592299604
31
0
0
LINE
5
103
100
AcDbEntity
8
0
100
AcDbLine
10
151.37804835094059
20
344.19650592299604
30
0
11
158.92608346244941
21
349.09825723813128
31
0
0
LINE
5
104
100
AcDbEntity
8
0
100
AcDbLine
10
176.37804835094059
20
324.19650592299604
30
0
11
176.37804835094059
21
294.19650592299604
31
0
0
LINE
5
105
100
AcDbEntity
8
0
100
AcDbLine
10
151.37804835094059
20
344.19650592299604
30
0
11
160.37804835094062
21
344.19650592299604
31
0
0
LINE
5
106
100
AcDbEntity
8
0
100
AcDbLine
10
188.54804835094058
20
294.19650592299604
30
0
11
188.54804835094058
21
324.19650592299604
31
0
0
LINE
5
107
100
AcDbEntity
8
0
100
AcDbLine
10
176.37804846244944
20
519.09825723813128
30
0
11
151.37804846244944
21
519.09825723813128
31
0
0
LINE
5
108
100
AcDbEntity
8
0
100
AcDbLine
10
176.37804846244944
20
549.09825723813128
30
0
11
176.37804846244944
21
519.09825723813128
31
0
0
LINE
5
109
100
AcDbEntity
8
0
100
AcDbLine
10
188.54804846244943
20
549.09825723813128
30
0
11
176.37804846244944
21
549.09825723813128
31
0
0
LINE
5
110
100
AcDbEntity
8
0
100
AcDbLine
10
151.37804846244944
20
569.09825723813128
30
0
11
160.37804846244941
21
569.09825723813128
31
0
0
LINE
5
111
100
AcDbEntity
8
0
100
AcDbLine
10
151.37804846244944
20
569.09825723813128
30
0
11
158.92608357395824
21
574.00000855326653
31
0
0
LINE
5
112
100
AcDbEntity
8
0
100
AcDbLine
10
151.37804846244944
20
519.09825723813128
30
0
11
151.37804846244944
21
569.09825723813128
31
0
0
LINE
5
113
100
AcDbEntity
8
0
100
AcDbLine
10
188.54804846244943
20
349.09825723813128
30
0
11
188.54804846244943
21
549.09825723813128
31
0
0
LINE
5
114
100
AcDbEntity
8
0
100
AcDbLine
10
708.31804835094067
20
294.19650592299604
30
0
11
683.31804835094067
21
294.19650592299604
31
0
0
LINE
5
115
100
AcDbEntity
8
0
100
AcDbLine
10
683.31804835094067
20
294.19650592299604
30
0
11
683.31804835094067
21
324.19650592299604
31
0
0
LINE
5
116
100
AcDbEntity
8
0
100
AcDbLine
10
683.31804835094067
20
324.19650592299604
30
0
11
671.1480483509406
21
324.19650592299604
31
0
0
LINE
5
117
100
AcDbEntity
8
0
100
AcDbLine
10
671.1480483509406
20
324.19650592299604
30
0
11
671.1480483509406
21
294.19650592299604
31
0
0
LINE
5
118
100
AcDbEntity
8
0
100
AcDbLine
10
671.14804823943189
20
349.09825723813128
30
0
11
700.77001323943193
21
349.09825723813128
31
0
0
LINE
5
119
100
AcDbEntity
8
0
100
AcDbLine
10
700.77001323943193
20
349.09825723813128
30
0
11
708.31804835093794
21
344.19650592300349
31
0
0
LINE
5
120
100
AcDbEntity
8
0
100
AcDbLine
10
700.77001323943193
20
349.09825723813128
30
0
11
709.77001323943205
21
349.09825723813128
31
0
0
LINE
5
121
100
AcDbEntity
8
0
100
AcDbLine
10
708.31804835093794
20
344.19650592300349
30
0
11
708.31804835094067
21
294.19650592299604
31
0
0
LINE
5
122
100
AcDbEntity
8
0
100
AcDbLine
10
700.77001312792299
20
574.00000855326653
30
0
11
708.31804823943185
21
569.09825723813128
31
0
0
LINE
5
123
100
AcDbEntity
8
0
100
AcDbLine
10
708.31804823943185
20
519.09825723813117
30
0
11
683.31804823943185
21
519.09825723813128
31
0
0
LINE
5
124
100
AcDbEntity
8
0
100
AcDbLine
10
683.31804823943185
20
519.09825723813128
30
0
11
683.31804823943185
21
549.0982572381314
31
0
0
LINE
5
125
100
AcDbEntity
8
0
100
AcDbLine
10
683.31804823943185
20
549.0982572381314
30
0
11
671.14804823943189
21
549.09825723813128
31
0
0
LINE
5
126
100
AcDbEntity
8
0
100
AcDbLine
10
708.31804823943185
20
569.09825723813128
30
0
11
708.31804823943185
21
519.09825723813117
31
0
0
LINE
5
127
100
AcDbEntity
8
0
100
AcDbLine
10
671.14804823943189
20
549.09825723813128
30
0
11
671.14804823943189
21
349.09825723813128
31
0
0
LINE
5
128
100
AcDbEntity
8
0
100
AcDbLine
10
188.54804835094058
20
294.19650592299604
30
0
11
671.1480483509406
21
294.19650592299604
31
0
0
LINE
5
129
100
AcDbEntity
8
0
100
AcDbLine
10
158.92608357395824
20
574.00000855326653
30
0
11
700.77001312792299
21
574.00000855326653
31
0
0
LWPOLYLINE
5
130
100
AcDbEntity
8
0
100
AcDbPolyline
90
4
70
1
43
0.0
10
1505.7406912182582
20
649.89620151498673
10
995.62570119862141
20
649.99710872923697
10
995.56635739497335
20
349.99711459871548
10
1505.6813474144046
20
349.8962073837049
0
LINE
5
131
100
AcDbEntity
8
0
100
AcDbLine
10
998.80070113660599
20
649.99648067398425
30
0
11
998.74135733275136
21
349.99648654345805
31
0
0
LINE
5
132
100
AcDbEntity
8
0
100
AcDbLine
10
998.77102923467874
20
499.99648360872101
30
0
11
995.59602929679738
21
499.99711166397623
31
0
0
LINE
5
133
100
AcDbEntity
8
0
100
AcDbLine
10
1010.9907011366058
20
649.99406933739192
30
0
11
1010.9313573327513
21
349.99407520684758
31
0
0
LINE
5
134
100
AcDbEntity
8
0
100
AcDbLine
10
1010.9610292346787
20
499.99407227211066
30
0
11
998.77102923467874
21
499.99648360872101
31
0
0
LINE
5
135
100
AcDbEntity
8
0
100
AcDbLine
10
1502.5656912184645
20
649.89682957025161
30
0
11
1502.5063474146098
21
349.89683543897456
31
0
0
LINE
5
136
100
AcDbEntity
8
0
100
AcDbLine
10
1502.5360193163317
20
499.89683146597065
30
0
11
1505.7110193163317
21
499.89620444934593
31
0
0
LINE
5
137
100
AcDbEntity
8
0
100
AcDbLine
10
1490.3756912184645
20
649.89924090684394
30
0
11
1490.3163474146099
21
349.89924677558508
31
0
0
LINE
5
138
100
AcDbEntity
8
0
100
AcDbLine
10
1490.3460193163319
20
499.89924280257196
30
0
11
1502.5360193163317
21
499.89683146597065
31
0
0
LWPOLYLINE
5
139
100
AcDbEntity
8
0
100
AcDbPolyline
90
4
70
1
43
0.0
10
765.08685247333005
20
1148.8033187852334
10
254.97328483485634
20
1150.0121761585301
10
254.52776728263004
20
962.01270404727484
10
764.64133492110363
20
960.8038466741159
0
LINE
5
140
100
AcDbEntity
8
0
100
AcDbLine
10
258.14827583485629
20
1150.0046521256011
30
0
11
257.7027582826301
21
962.00518001434659
31
0
0
LINE
5
141
100
AcDbEntity
8
0
100
AcDbLine
10
761.91185247332987
20
1148.8108428394908
30
0
11
761.46633492110391
21
960.81137072837225
31
0
0
LINE
5
142
100
AcDbEntity
8
0
100
AcDbLine
10
764.86409369721684
20
1054.8035827296746
30
0
11
761.68909369721689
21
1054.8111067839318
31
0
0
LINE
5
143
100
AcDbEntity
8
0
100
AcDbLine
10
749.7218524733297
20
1148.8397304682762
30
0
11
749.27633492110385
21
960.84025835715465
31
0
0
LINE
5
144
100
AcDbEntity
8
0
100
AcDbLine
10
749.49909369721695
20
1054.839994412727
30
0
11
761.68909369721689
21
1054.8111067839318
31
0
0
LINE
5
145
100
AcDbEntity
8
0
100
AcDbLine
10
270.33827583485635
20
1149.9757644968154
30
0
11
269.89275828263021
21
961.97629238556419
31
0
0
LINE
5
146
100
AcDbEntity
8
0
100
AcDbLine
10
257.92551705874325
20
1056.0049160699734
30
0
11
270.11551705874325
21
1055.9760284411905
31
0
0
LINE
5
147
100
AcDbEntity
8
0
100
AcDbLine
10
254.75052605874325
20
1056.0124401029027
30
0
11
257.92551705874325
21
1056.0049160699734
31
0
0
ENDSEC
0
SECTION
2
OBJECTS
0
DICTIONARY
5
C
100
AcDbDictionary
3
ACAD_GROUP
350
D
3
ACAD_MLINESTYLE
350
17
0
DICTIONARY
5
D
100
AcDbDictionary
0
DICTIONARY
5
1A
330
C
100
AcDbDictionary
0
DICTIONARY
5
17
100
AcDbDictionary
0
ENDSEC
0
EOF
