0
SECTION
2
HEADER
9
$INSUNITS
70
4
9
$ACADVER
1
AC1014
9
$HANDSEED
5
FFFF
0
ENDSEC
0
SECTION
2
TABLES
0
TABLE
2
VPORT
5
8
100
AcDbSymbolTable
0
ENDTAB
0
TABLE
2
LTYPE
5
5
100
AcDbSymbolTable
0
LTYPE
5
14
100
AcDbSymbolTableRecord
100
AcDbLinetypeTableRecord
2
BYBLOCK
70
0
0
LTYPE
5
15
100
AcDbSymbolTableRecord
100
AcDbLinetypeTableRecord
2
BYLAYER
70
0
0
ENDTAB
0
TABLE
2
LAYER
5
2
100
AcDbSymbolTable
70
2
0
LAYER
5
50
100
AcDbSymbolTableRecord
100
AcDbLayerTableRecord
2
0
70
0
6
CONTINUOUS
0
ENDTAB
0
TABLE
2
STYLE
5
3
100
AcDbSymbolTable
70
1
0
STYLE
5
11
100
AcDbSymbolTableRecord
100
AcDbTextStyleTableRecord
2
STANDARD
70
0
0
ENDTAB
0
TABLE
2
VIEW
5
6
100
AcDbSymbolTable
70
0
0
ENDTAB
0
TABLE
2
UCS
5
7
100
AcDbSymbolTable
70
0
0
ENDTAB
0
TABLE
2
APPID
5
9
100
AcDbSymbolTable
70
2
0
APPID
5
12
100
AcDbSymbolTableRecord
100
AcDbRegAppTableRecord
2
ACAD
70
0
0
ENDTAB
0
TABLE
2
DIMSTYLE
5
A
100
AcDbSymbolTable
70
1
0
ENDTAB
0
TABLE
2
BLOCK_RECORD
5
1
100
AcDbSymbolTable
70
1
0
BLOCK_RECORD
5
1F
100
AcDbSymbolTableRecord
100
AcDbBlockTableRecord
2
*MODEL_SPACE
0
BLOCK_RECORD
5
1B
100
AcDbSymbolTableRecord
100
AcDbBlockTableRecord
2
*PAPER_SPACE
0
ENDTAB
0
ENDSEC
0
SECTION
2
BLOCKS
0
BLOCK
5
20
100
AcDbEntity
100
AcDbBlockBegin
2
*MODEL_SPACE
0
ENDBLK
5
21
100
AcDbEntity
100
AcDbBlockEnd
0
BLOCK
5
1C
100
AcDbEntity
100
AcDbBlockBegin
2
*PAPER_SPACE
0
ENDBLK
5
1D
100
AcDbEntity
100
AcDbBlockEnd
0
ENDSEC
0
SECTION
2
ENTITIES
0
LINE
5
100
100
AcDbEntity
8
0
100
AcDbLine
10
0
20
0
30
0
11
180
21
0
31
0
0
LINE
5
101
100
AcDbEntity
8
0
100
AcDbLine
10
180
20
0
30
0
11
180
21
89.999999999999645
31
0
0
LINE
5
102
100
AcDbEntity
8
0
100
AcDbLine
10
180
20
89.999999999999645
30
0
11
430.00000000000034
21
90.000000000000696
31
0
0
LINE
5
103
100
AcDbEntity
8
0
100
AcDbLine
10
430.00000000000034
20
90.000000000000696
30
0
11
429.99999999999972
21
6.8849909337544988e-13
31
0
0
LINE
5
104
100
AcDbEntity
8
0
100
AcDbLine
10
429.99999999999972
20
6.8849909337544988e-13
30
0
11
609.99999999999977
21
-3.5527136788005009e-13
31
0
0
LINE
5
105
100
AcDbEntity
8
0
100
AcDbLine
10
609.99999999999977
20
-3.5527136788005009e-13
30
0
11
609.99999999999977
21
609.99999999999966
31
0
0
LINE
5
106
100
AcDbEntity
8
0
100
AcDbLine
10
609.99999999999977
20
609.99999999999966
30
0
11
359.99999999999977
21
609.99999999999989
31
0
0
LINE
5
107
100
AcDbEntity
8
0
100
AcDbLine
10
359.99999999999977
20
609.99999999999989
30
0
11
359.99999999999994
21
329.99999999999989
31
0
0
LINE
5
108
100
AcDbEntity
8
0
100
AcDbLine
10
359.99999999999994
20
329.99999999999989
30
0
11
-4.0413344371862656e-14
21
330
31
0
0
LINE
5
109
100
AcDbEntity
8
0
100
AcDbLine
10
-4.0413344371862656e-14
20
330
30
0
11
0
21
0
31
0
0
LWPOLYLINE
5
110
100
AcDbEntity
8
0
100
AcDbPolyline
90
4
70
1
43
0.0
10
331.16000000001969
20
280.03903750936166
10
31.160000000025434
20
280.03903750936166
42
0.99999999999999989
10
31.160000000016126
20
267.71903750936161
10
331.16000000002037
20
267.71903750936167
42
0.99999999999999989
0
LWPOLYLINE
5
111
100
AcDbEntity
8
0
100
AcDbPolyline
90
4
70
1
43
0.0
10
579.0000511322454
20
539.99999999981708
42
-0.99999999999999989
10
579.00005113229599
20
527.68000000008942
10
390.99994886770992
20
527.67999999939491
42
-1.0000083007269294
10
391.00005113227962
20
540.00000000018235
0
LINE
5
112
100
AcDbEntity
8
0
100
AcDbLine
10
641.93209243512626
20
574.53240640359854
30
0
11
645.93209243512615
21
574.53240640359854
31
0
0
LINE
5
113
100
AcDbEntity
8
0
100
AcDbLine
10
609.99999999999409
20
533.83999999995331
30
0
11
579.00005113227064
21
533.83999999995331
31
0
0
LINE
5
114
100
AcDbEntity
8
0
100
AcDbLine
10
359.99999999999665
20
533.84000000021035
30
0
11
390.99994886772913
21
533.84000000021297
31
0
0
LWPOLYLINE
5
115
100
AcDbEntity
8
0
100
AcDbPolyline
90
4
70
1
43
0.0
10
579.00000000006855
20
447.67999999980009
10
391.00000000006844
20
447.67999999968936
42
0.9999858742489065
10
391.0001740307768
20
435.35999999688096
10
579.00000000018792
20
435.36000000036745
42
0.99999999999999989
0
LINE
5
116
100
AcDbEntity
8
0
100
AcDbLine
10
485.0000000000141
20
527.67999999974177
30
0
11
485.00000000005963
21
447.67999999974461
31
0
0
LWPOLYLINE
5
117
100
AcDbEntity
8
0
100
AcDbPolyline
90
4
70
1
43
0.0
10
579.00008155613443
20
355.35999999920375
10
391.00008155613443
20
355.35999999805063
42
0.99998922385498268
10
391.00021431951092
20
343.03999998520823
10
579.00008155644525
20
343.03999999360371
42
0.99999999999999989
0
LINE
5
118
100
AcDbEntity
8
0
100
AcDbLine
10
485.00008701548217
20
435.35999999862412
30
0
11
485.00008155613449
21
355.35999999862725
31
0
0
LWPOLYLINE
5
119
100
AcDbEntity
8
0
100
AcDbPolyline
90
4
70
1
43
0.0
10
331.15999999999985
20
237.71903750936161
42
-0.99999999999999989
10
331.15999999999985
20
225.39903750936162
10
31.159999999988326
20
225.39903750936162
42
-0.99999999999999989
10
31.160000000011578
20
237.71903750936161
0
LWPOLYLINE
5
120
100
AcDbEntity
8
0
100
AcDbPolyline
90
4
70
1
43
0.0
10
31.159999999999293
20
183.07903750936163
42
-0.99999999999999989
10
31.160000000000636
20
195.39903750936162
10
331.16000000000054
20
195.39903750936162
42
-0.99999999999999989
10
331.16000000000054
20
183.07903750936163
0
LWPOLYLINE
5
121
100
AcDbEntity
8
0
100
AcDbPolyline
90
4
70
1
43
0.0
10
31.160000000000348
20
140.75903750936166
42
-0.99999999999999989
10
31.159999999999606
20
153.07903750936165
10
331.1599999996738
20
153.07903750936407
42
-1.0000004063812764
10
331.15999396725675
20
140.75903750936166
0
LINE
5
122
100
AcDbEntity
8
0
100
AcDbLine
10
338.18371881831013
20
167.38038094081219
30
0
11
342.18371881831001
21
167.38038094081219
31
0
0
LINE
5
123
100
AcDbEntity
8
0
100
AcDbLine
10
25.000000000006487
20
273.87903750938057
30
0
11
-5.0235239848444303e-14
21
273.87903750938057
31
0
0
LINE
5
124
100
AcDbEntity
8
0
100
AcDbLine
10
181.16000000001958
20
280.03903750936166
30
0
11
181.16000000001111
21
330.03903750936161
31
0
0
LINE
5
125
100
AcDbEntity
8
0
100
AcDbLine
10
24.999999999999961
20
231.55903750936159
30
0
11
-4.253670511492223e-14
21
231.55903750936159
31
0
0
LINE
5
126
100
AcDbEntity
8
0
100
AcDbLine
10
331.16000000000054
20
189.23903750936162
30
0
11
331.15999999999997
21
230
31
0
0
LINE
5
127
100
AcDbEntity
8
0
100
AcDbLine
10
24.999999999999972
20
189.23903750936162
30
0
11
-3.4687124086466042e-14
21
189.23903750936162
31
0
0
LINE
5
128
100
AcDbEntity
8
0
100
AcDbLine
10
24.999999999999982
20
146.91903750936146
30
0
11
-1.7992392901964941e-14
21
146.91903750936146
31
0
0
LINE
5
129
100
AcDbEntity
8
0
100
AcDbLine
10
494.93241273138426
20
447.67999999975063
30
0
11
494.93241273161283
21
435.35999999880266
31
0
0
LINE
5
130
100
AcDbEntity
8
0
100
AcDbLine
10
499.97611098590346
20
539.99999999997021
30
0
11
499.97611098594894
21
527.67999999979702
31
0
0
LINE
5
131
100
AcDbEntity
8
0
100
AcDbLine
10
505.04737464798046
20
355.35999999874161
30
0
11
505.04737464852656
21
343.03999999030958
31
0
0
LINE
5
132
100
AcDbEntity
8
0
100
AcDbLine
10
503.86169906878115
20
263.03999998952986
30
0
11
503.86169906932707
21
250.71999998067889
31
0
0
LWPOLYLINE
5
133
100
AcDbEntity
8
0
100
AcDbPolyline
90
4
70
1
43
0.0
10
579.06461767131668
20
263.03999998999961
10
391.06461767131668
20
263.03999998884643
42
0.99998883710576036
10
391.06475519955836
20
250.71999997577529
10
579.0646176716275
20
250.71999998396248
42
0.99999999999999989
0
LWPOLYLINE
5
134
100
AcDbEntity
8
0
100
AcDbPolyline
90
4
70
1
43
0.0
10
391.06482509848161
20
158.39999996617095
10
579.06468643588016
20
158.39999997452625
42
0.99999999999999989
10
579.06468643556946
20
170.71999998043685
10
391.06468643556934
20
170.71999997928373
42
0.99998874500016077
0
LINE
5
135
100
AcDbEntity
8
0
100
AcDbLine
10
503.28134271223803
20
170.71999997997204
30
0
11
503.28134271278401
21
158.3999999711578
31
0
0
LINE
5
136
100
AcDbEntity
8
0
100
AcDbLine
10
485.000147937978
20
343.03999998934307
30
0
11
485.06461767131657
21
263.03999998942299
31
0
0
LINE
5
137
100
AcDbEntity
8
0
100
AcDbLine
10
485.06468643559299
20
250.7199999798689
30
0
11
485.06468643556934
21
170.71999997986029
31
0
0
LINE
5
138
100
AcDbEntity
8
0
100
AcDbLine
10
485.00005113227803
20
539.99999999999977
30
0
11
484.99999999999972
21
609.99999999999977
31
0
0
LINE
5
139
100
AcDbEntity
8
0
100
AcDbLine
10
181.16000000001213
20
267.71903750936161
30
0
11
181.16000000001162
21
237.71903750936161
31
0
0
LINE
5
140
100
AcDbEntity
8
0
100
AcDbLine
10
181.15999999999988
20
225.39903750936162
30
0
11
181.16000000000054
21
195.39903750936162
31
0
0
LINE
5
141
100
AcDbEntity
8
0
100
AcDbLine
10
181.16000000000059
20
183.07903750936163
30
0
11
181.1599999999996
21
153.07903750936163
31
0
0
ENDSEC
0
SECTION
2
OBJECTS
0
DICTIONARY
5
C
100
AcDbDictionary
3
ACAD_GROUP
350
D
3
ACAD_MLINESTYLE
350
17
0
DICTIONARY
5
D
100
AcDbDictionary
0
DICTIONARY
5
1A
330
C
100
AcDbDictionary
0
DICTIONARY
5
17
100
AcDbDictionary
0
ENDSEC
0
EOF
