  0
SECTION
  2
BLOCKS
  0
ENDSEC
  0
SECTION
  2
ENTITIES
  0
LINE
  8
0
 10
33
 20
9.89999
 11
35.9
 21
9.89999
  0
LINE
  8
0
 10
35.9
 20
9.89999
 11
35.9
 21
20.1
  0
LINE
  8
0
 10
35.9
 20
20.1
 11
33
 21
20.1
  0
LINE
  8
0
 10
33
 20
20.1
 11
33
 21
30.1
  0
LINE
  8
0
 10
33
 20
30.1
 11
2.79999
 21
30.1
  0
LINE
  8
0
 10
2.79999
 20
30.1
 11
2.79999
 21
20.1
  0
LINE
  8
0
 10
2.79999
 20
20.1
 11
-0.0999908
 21
20.1
  0
LINE
  8
0
 10
-0.0999908
 20
20.1
 11
-0.0999908
 21
9.89999
  0
LINE
  8
0
 10
-0.0999908
 20
9.89999
 11
2.79999
 21
9.89999
  0
LINE
  8
0
 10
2.79999
 20
9.89999
 11
2.79999
 21
-0.0999908
  0
LINE
  8
0
 10
2.79999
 20
-0.0999908
 11
33
 21
-0.0999908
  0
LINE
  8
0
 10
33
 20
-0.0999908
 11
33
 21
9.89999
  0
LINE
  8
0
 10
28.4833
 20
10.1
 11
28.4833
 21
19.9
  0
LINE
  8
0
 10
28.4833
 20
19.9
 11
31.1833
 21
19.9
  0
LINE
  8
0
 10
31.1833
 20
19.9
 11
31.1833
 21
10.1
  0
LINE
  8
0
 10
31.1833
 20
10.1
 11
28.4833
 21
10.1
  0
LINE
  8
0
 10
16.55
 20
10.1
 11
16.55
 21
19.9
  0
LINE
  8
0
 10
16.55
 20
19.9
 11
19.25
 21
19.9
  0
LINE
  8
0
 10
19.25
 20
19.9
 11
19.25
 21
10.1
  0
LINE
  8
0
 10
19.25
 20
10.1
 11
16.55
 21
10.1
  0
LINE
  8
0
 10
4.61665
 20
10.1
 11
4.61665
 21
19.9
  0
LINE
  8
0
 10
4.61665
 20
19.9
 11
7.31667
 21
19.9
  0
LINE
  8
0
 10
7.31667
 20
19.9
 11
7.31667
 21
10.1
  0
LINE
  8
0
 10
7.31667
 20
10.1
 11
4.61665
 21
10.1
  0
LINE
  8
0
 10
10.5833
 20
10.1
 11
10.5833
 21
19.9
  0
LINE
  8
0
 10
10.5833
 20
19.9
 11
13.2833
 21
19.9
  0
LINE
  8
0
 10
13.2833
 20
19.9
 11
13.2833
 21
10.1
  0
LINE
  8
0
 10
13.2833
 20
10.1
 11
10.5833
 21
10.1
  0
LINE
  8
0
 10
22.5167
 20
10.1
 11
22.5167
 21
19.9
  0
LINE
  8
0
 10
22.5167
 20
19.9
 11
25.2167
 21
19.9
  0
LINE
  8
0
 10
25.2167
 20
19.9
 11
25.2167
 21
10.1
  0
LINE
  8
0
 10
25.2167
 20
10.1
 11
22.5167
 21
10.1
  0
ENDSEC
  0
SECTION
  2
OBJECTS
  0
DICTIONARY
  0
ENDSEC
  0
EOF
