  0
SECTION
  2
BLOCKS
  0
ENDSEC
  0
SECTION
  2
ENTITIES
  0
LINE
  8
0
 10
43
 20
9.89999
 11
45.9
 21
9.89999
  0
LINE
  8
0
 10
45.9
 20
9.89999
 11
45.9
 21
20.1
  0
LINE
  8
0
 10
45.9
 20
20.1
 11
43
 21
20.1
  0
LINE
  8
0
 10
43
 20
20.1
 11
43
 21
30.1
  0
LINE
  8
0
 10
43
 20
30.1
 11
2.79999
 21
30.1
  0
LINE
  8
0
 10
2.79999
 20
30.1
 11
2.79999
 21
20.1
  0
LINE
  8
0
 10
2.79999
 20
20.1
 11
-0.0999908
 21
20.1
  0
LINE
  8
0
 10
-0.0999908
 20
20.1
 11
-0.0999908
 21
9.89999
  0
LINE
  8
0
 10
-0.0999908
 20
9.89999
 11
2.79999
 21
9.89999
  0
LINE
  8
0
 10
2.79999
 20
9.89999
 11
2.79999
 21
-0.0999908
  0
LINE
  8
0
 10
2.79999
 20
-0.0999908
 11
43
 21
-0.0999908
  0
LINE
  8
0
 10
43
 20
-0.0999908
 11
43
 21
9.89999
  0
LINE
  8
0
 10
36.8167
 20
10.1
 11
36.8167
 21
19.9
  0
LINE
  8
0
 10
36.8167
 20
19.9
 11
39.5167
 21
19.9
  0
LINE
  8
0
 10
39.5167
 20
19.9
 11
39.5167
 21
10.1
  0
LINE
  8
0
 10
39.5167
 20
10.1
 11
36.8167
 21
10.1
  0
LINE
  8
0
 10
21.55
 20
10.1
 11
21.55
 21
19.9
  0
LINE
  8
0
 10
21.55
 20
19.9
 11
24.25
 21
19.9
  0
LINE
  8
0
 10
24.25
 20
19.9
 11
24.25
 21
10.1
  0
LINE
  8
0
 10
24.25
 20
10.1
 11
21.55
 21
10.1
  0
LINE
  8
0
 10
6.28333
 20
10.1
 11
6.28333
 21
19.9
  0
LINE
  8
0
 10
6.28333
 20
19.9
 11
8.98332
 21
19.9
  0
LINE
  8
0
 10
8.98332
 20
19.9
 11
8.98332
 21
10.1
  0
LINE
  8
0
 10
8.98332
 20
10.1
 11
6.28333
 21
10.1
  0
LINE
  8
0
 10
13.9167
 20
10.1
 11
13.9167
 21
19.9
  0
LINE
  8
0
 10
13.9167
 20
19.9
 11
16.6167
 21
19.9
  0
LINE
  8
0
 10
16.6167
 20
19.9
 11
16.6167
 21
10.1
  0
LINE
  8
0
 10
16.6167
 20
10.1
 11
13.9167
 21
10.1
  0
LINE
  8
0
 10
29.1833
 20
10.1
 11
29.1833
 21
19.9
  0
LINE
  8
0
 10
29.1833
 20
19.9
 11
31.8833
 21
19.9
  0
LINE
  8
0
 10
31.8833
 20
19.9
 11
31.8833
 21
10.1
  0
LINE
  8
0
 10
31.8833
 20
10.1
 11
29.1833
 21
10.1
  0
ENDSEC
  0
SECTION
  2
OBJECTS
  0
DICTIONARY
  0
ENDSEC
  0
EOF
