  0
SECTION
  2
BLOCKS
  0
ENDSEC
  0
SECTION
  2
ENTITIES
  0
LINE
  8
0
 10
53
 20
9.89999
 11
55.9
 21
9.89999
  0
LINE
  8
0
 10
55.9
 20
9.89999
 11
55.9
 21
20.1
  0
LINE
  8
0
 10
55.9
 20
20.1
 11
53
 21
20.1
  0
LINE
  8
0
 10
53
 20
20.1
 11
53
 21
30.1
  0
LINE
  8
0
 10
53
 20
30.1
 11
2.79999
 21
30.1
  0
LINE
  8
0
 10
2.79999
 20
30.1
 11
2.79999
 21
20.1
  0
LINE
  8
0
 10
2.79999
 20
20.1
 11
-0.0999908
 21
20.1
  0
LINE
  8
0
 10
-0.0999908
 20
20.1
 11
-0.0999908
 21
9.89999
  0
LINE
  8
0
 10
-0.0999908
 20
9.89999
 11
2.79999
 21
9.89999
  0
LINE
  8
0
 10
2.79999
 20
9.89999
 11
2.79999
 21
-0.0999908
  0
LINE
  8
0
 10
2.79999
 20
-0.0999908
 11
53
 21
-0.0999908
  0
LINE
  8
0
 10
53
 20
-0.0999908
 11
53
 21
9.89999
  0
LINE
  8
0
 10
45.15
 20
10.1
 11
45.15
 21
19.9
  0
LINE
  8
0
 10
45.15
 20
19.9
 11
47.85
 21
19.9
  0
LINE
  8
0
 10
47.85
 20
19.9
 11
47.85
 21
10.1
  0
LINE
  8
0
 10
47.85
 20
10.1
 11
45.15
 21
10.1
  0
LINE
  8
0
 10
26.55
 20
10.1
 11
26.55
 21
19.9
  0
LINE
  8
0
 10
26.55
 20
19.9
 11
29.25
 21
19.9
  0
LINE
  8
0
 10
29.25
 20
19.9
 11
29.25
 21
10.1
  0
LINE
  8
0
 10
29.25
 20
10.1
 11
26.55
 21
10.1
  0
LINE
  8
0
 10
7.95
 20
10.1
 11
7.95
 21
19.9
  0
LINE
  8
0
 10
7.95
 20
19.9
 11
10.65
 21
19.9
  0
LINE
  8
0
 10
10.65
 20
19.9
 11
10.65
 21
10.1
  0
LINE
  8
0
 10
10.65
 20
10.1
 11
7.95
 21
10.1
  0
LINE
  8
0
 10
17.25
 20
10.1
 11
17.25
 21
19.9
  0
LINE
  8
0
 10
17.25
 20
19.9
 11
19.95
 21
19.9
  0
LINE
  8
0
 10
19.95
 20
19.9
 11
19.95
 21
10.1
  0
LINE
  8
0
 10
19.95
 20
10.1
 11
17.25
 21
10.1
  0
LINE
  8
0
 10
35.85
 20
10.1
 11
35.85
 21
19.9
  0
LINE
  8
0
 10
35.85
 20
19.9
 11
38.55
 21
19.9
  0
LINE
  8
0
 10
38.55
 20
19.9
 11
38.55
 21
10.1
  0
LINE
  8
0
 10
38.55
 20
10.1
 11
35.85
 21
10.1
  0
ENDSEC
  0
SECTION
  2
OBJECTS
  0
DICTIONARY
  0
ENDSEC
  0
EOF
