  0
SECTION
  2
BLOCKS
  0
ENDSEC
  0
SECTION
  2
ENTITIES
  0
LINE
  8
0
 10
63
 20
9.89999
 11
65.9
 21
9.89999
  0
LINE
  8
0
 10
65.9
 20
9.89999
 11
65.9
 21
20.1
  0
LINE
  8
0
 10
65.9
 20
20.1
 11
63
 21
20.1
  0
LINE
  8
0
 10
63
 20
20.1
 11
63
 21
30.1
  0
LINE
  8
0
 10
63
 20
30.1
 11
2.79999
 21
30.1
  0
LINE
  8
0
 10
2.79999
 20
30.1
 11
2.79999
 21
-0.0999908
  0
LINE
  8
0
 10
2.79999
 20
-0.0999908
 11
63
 21
-0.0999908
  0
LINE
  8
0
 10
63
 20
-0.0999908
 11
63
 21
9.89999
  0
LINE
  8
0
 10
53.4833
 20
10.1
 11
53.4833
 21
19.9
  0
LINE
  8
0
 10
53.4833
 20
19.9
 11
56.1833
 21
19.9
  0
LINE
  8
0
 10
56.1833
 20
19.9
 11
56.1833
 21
10.1
  0
LINE
  8
0
 10
56.1833
 20
10.1
 11
53.4833
 21
10.1
  0
LINE
  8
0
 10
9.61665
 20
10.1
 11
9.61665
 21
19.9
  0
LINE
  8
0
 10
9.61665
 20
19.9
 11
12.3167
 21
19.9
  0
LINE
  8
0
 10
12.3167
 20
19.9
 11
12.3167
 21
10.1
  0
LINE
  8
0
 10
12.3167
 20
10.1
 11
9.61665
 21
10.1
  0
LINE
  8
0
 10
20.5833
 20
10.1
 11
20.5833
 21
19.9
  0
LINE
  8
0
 10
20.5833
 20
19.9
 11
23.2833
 21
19.9
  0
LINE
  8
0
 10
23.2833
 20
19.9
 11
23.2833
 21
10.1
  0
LINE
  8
0
 10
23.2833
 20
10.1
 11
20.5833
 21
10.1
  0
LINE
  8
0
 10
34.25
 20
10.1
 11
31.55
 21
10.1
  0
LINE
  8
0
 10
31.55
 20
10.1
 11
31.55
 21
19.9
  0
LINE
  8
0
 10
31.55
 20
19.9
 11
34.25
 21
19.9
  0
LINE
  8
0
 10
34.25
 20
19.9
 11
34.25
 21
10.1
  0
LINE
  8
0
 10
42.5167
 20
10.1
 11
42.5167
 21
19.9
  0
LINE
  8
0
 10
42.5167
 20
19.9
 11
45.2167
 21
19.9
  0
LINE
  8
0
 10
45.2167
 20
19.9
 11
45.2167
 21
10.1
  0
LINE
  8
0
 10
45.2167
 20
10.1
 11
42.5167
 21
10.1
  0
ENDSEC
  0
SECTION
  2
OBJECTS
  0
DICTIONARY
  0
ENDSEC
  0
EOF
