  0
SECTION
  2
HEADER
  9
$ACADVER
  1
AC1014
  9
$HANDSEED
  5
FFFF
  9
$MEASUREMENT
 70
     1
  0
ENDSEC
  0
SECTION
  2
TABLES
  0
TABLE
  2
VPORT
  5
8
330
0
100
AcDbSymbolTable
 70
     4
  0
VPORT
  5
2E
330
8
100
AcDbSymbolTableRecord
100
AcDbViewportTableRecord
  2
*ACTIVE
 70
     0
 10
0.0
 20
0.0
 11
1.0
 21
1.0
 12
210.0
 22
148.5
 13
0.0
 23
0.0
 14
10.0
 24
10.0
 15
10.0
 25
10.0
 16
0.0
 26
0.0
 36
1.0
 17
0.0
 27
0.0
 37
0.0
 40
341.0
 41
1.24
 42
50.0
 43
0.0
 44
0.0
 50
0.0
 51
0.0
 71
     0
 72
   100
 73
     1
 74
     3
 75
     0
 76
     0
 77
     0
 78
     0
  0
ENDTAB
  0
TABLE
  2
LTYPE
  5
5
330
0
100
AcDbSymbolTable
 70
     1
  0
LTYPE
  5
14
330
5
100
AcDbSymbolTableRecord
100
AcDbLinetypeTableRecord
  2
BYBLOCK
 70
     0
  3

 72
    65
 73
     0
 40
0.0
  0
LTYPE
  5
15
330
5
100
AcDbSymbolTableRecord
100
AcDbLinetypeTableRecord
  2
BYLAYER
 70
     0
  3

 72
    65
 73
     0
 40
0.0
  0
LTYPE
  5
16
330
5
100
AcDbSymbolTableRecord
100
AcDbLinetypeTableRecord
  2
CONTINUOUS
 70
     0
  3
Solid line
 72
    65
 73
     0
 40
0.0
  0
ENDTAB
  0
TABLE
  2
LAYER
  5
2
100
AcDbSymbolTable
 70
2
  0
LAYER
  5
50
100
AcDbSymbolTableRecord
100
AcDbLayerTableRecord
  2
0
 70
0
  6
CONTINUOUS
  0
LAYER
  5
51
100
AcDbSymbolTableRecord
100
AcDbLayerTableRecord
  2
Layer_1
 70
0
  6
CONTINUOUS
  0
ENDTAB
  0
TABLE
  2
STYLE
  5
3
330
0
100
AcDbSymbolTable
 70
     1
  0
STYLE
  5
11
330
3
100
AcDbSymbolTableRecord
100
AcDbTextStyleTableRecord
  2
STANDARD
 70
     0
 40
0.0
 41
1.0
 50
0.0
 71
     0
 42
2.5
  3
txt
  4

  0
ENDTAB
  0
TABLE
  2
VIEW
  5
6
330
0
100
AcDbSymbolTable
 70
     0
  0
ENDTAB
  0
TABLE
  2
UCS
  5
7
330
0
100
AcDbSymbolTable
 70
     0
  0
ENDTAB
  0
TABLE
  2
APPID
  5
9
330
0
100
AcDbSymbolTable
 70
     2
  0
APPID
  5
12
330
9
100
AcDbSymbolTableRecord
100
AcDbRegAppTableRecord
  2
ACAD
 70
     0
  0
ENDTAB
  0
TABLE
  2
DIMSTYLE
  5
A
330
0
100
AcDbSymbolTable
 70
     1
  0
DIMSTYLE
105
27
330
A
100
AcDbSymbolTableRecord
100
AcDbDimStyleTableRecord
  2
ISO-25
 70
     0
  3

  4

  5

  6

  7

 40
1.0
 41
2.5
 42
0.625
 43
3.75
 44
1.25
 45
0.0
 46
0.0
 47
0.0
 48
0.0
140
2.5
141
2.5
142
0.0
143
0.03937007874016
144
1.0
145
0.0
146
1.0
147
0.625
 71
     0
 72
     0
 73
     0
 74
     0
 75
     0
 76
     0
 77
     1
 78
     8
170
     0
171
     3
172
     1
173
     0
174
     0
175
     0
176
     0
177
     0
178
     0
270
     2
271
     2
272
     2
273
     2
274
     3
340
11
275
     0
280
     0
281
     0
282
     0
283
     0
284
     8
285
     0
286
     0
287
     3
288
     0
  0
ENDTAB
  0
TABLE
  2
BLOCK_RECORD
  5
1
330
0
100
AcDbSymbolTable
 70
     1
  0
BLOCK_RECORD
  5
1F
330
1
100
AcDbSymbolTableRecord
100
AcDbBlockTableRecord
  2
*MODEL_SPACE
  0
BLOCK_RECORD
  5
1B
330
1
100
AcDbSymbolTableRecord
100
AcDbBlockTableRecord
  2
*PAPER_SPACE
  0
ENDTAB
  0
ENDSEC
  0
SECTION
  2
BLOCKS
  0
BLOCK
  5
20
330
1F
100
AcDbEntity
  8
0
100
AcDbBlockBegin
  2
*MODEL_SPACE
 70
     0
 10
0.0
 20
0.0
 30
0.0
  3
*MODEL_SPACE
  1

  0
ENDBLK
  5
21
330
1F
100
AcDbEntity
  8
0
100
AcDbBlockEnd
  0
BLOCK
  5
1C
330
1B
100
AcDbEntity
 67
     1
  8
0
100
AcDbBlockBegin
  2
*PAPER_SPACE
  1

  0
ENDBLK
  5
1D
330
1B
100
AcDbEntity
 67
     1
  8
0
100
AcDbBlockEnd
  0
ENDSEC
  0
SECTION
  2
ENTITIES
  0
SPLINE
  5
100
100
AcDbEntity
  8
Layer_1
 62
7
100
AcDbSpline
 70
8
 71
3
 72
8
 73
4
 74
0
 40
0
 40
0
 40
0
 40
0
 40
1
 40
1
 40
1
 40
1
 10
413.257176
 20
742.958646
 30
0.0
 10
237.227816
 20
742.958646
 30
0.0
 10
94.532216
 20
600.263054
 30
0.0
 10
94.532216
 20
424.233646
 30
0.0
  0
SPLINE
  5
101
100
AcDbEntity
  8
Layer_1
 62
7
100
AcDbSpline
 70
8
 71
3
 72
8
 73
4
 74
0
 40
0
 40
0
 40
0
 40
0
 40
1
 40
1
 40
1
 40
1
 10
94.532216
 20
424.233646
 30
0.0
 10
94.532216
 20
248.204262
 30
0.0
 10
237.227816
 20
105.508646
 30
0.0
 10
413.257176
 20
105.508646
 30
0.0
  0
SPLINE
  5
102
100
AcDbEntity
  8
Layer_1
 62
7
100
AcDbSpline
 70
8
 71
3
 72
8
 73
4
 74
0
 40
0
 40
0
 40
0
 40
0
 40
1
 40
1
 40
1
 40
1
 10
413.257176
 20
105.508646
 30
0.0
 10
589.286536
 20
105.508646
 30
0.0
 10
732.007176
 20
248.204262
 30
0.0
 10
732.007176
 20
424.233646
 30
0.0
  0
SPLINE
  5
103
100
AcDbEntity
  8
Layer_1
 62
7
100
AcDbSpline
 70
8
 71
3
 72
8
 73
4
 74
0
 40
0
 40
0
 40
0
 40
0
 40
1
 40
1
 40
1
 40
1
 10
732.007176
 20
424.233646
 30
0.0
 10
732.007176
 20
600.263046
 30
0.0
 10
589.286536
 20
742.958646
 30
0.0
 10
413.257176
 20
742.958646
 30
0.0
  0
SPLINE
  5
104
100
AcDbEntity
  8
Layer_1
 62
7
100
AcDbSpline
 70
8
 71
3
 72
8
 73
4
 74
0
 40
0
 40
0
 40
0
 40
0
 40
1
 40
1
 40
1
 40
1
 10
446.107176
 20
706.708646
 30
0.0
 10
499.775496
 20
700.576758
 30
0.0
 10
548.802056
 20
679.610614
 30
0.0
 10
589.057176
 20
647.983646
 30
0.0
  0
SPLINE
  5
105
100
AcDbEntity
  8
Layer_1
 62
7
100
AcDbSpline
 70
8
 71
3
 72
8
 73
4
 74
0
 40
0
 40
0
 40
0
 40
0
 40
1
 40
1
 40
1
 40
1
 10
589.057176
 20
647.983646
 30
0.0
 10
583.303998
 20
646.422428
 30
0.0
 10
578.056714
 20
643.389523
 30
0.0
 10
573.832136
 20
639.183646
 30
0.0
  0
LWPOLYLINE
  5
106
100
AcDbEntity
  8
Layer_1
 62
7
100
AcDbPolyline
 90
2
 70
0
 10
413.257176
 20
742.958646
 30
0.0
 10
413.257176
 20
742.958646
 30
0.0
  0
SPLINE
  5
107
100
AcDbEntity
  8
Layer_1
 62
7
100
AcDbSpline
 70
8
 71
3
 72
8
 73
4
 74
0
 40
0
 40
0
 40
0
 40
0
 40
1
 40
1
 40
1
 40
1
 10
559.707176
 20
625.058646
 30
0.0
 10
528.084616
 20
648.233214
 30
0.0
 10
490.731576
 20
664.118214
 30
0.0
 10
450.307176
 20
670.333646
 30
0.0
  0
SPLINE
  5
108
100
AcDbEntity
  8
Layer_1
 62
7
100
AcDbSpline
 70
8
 71
3
 72
8
 73
4
 74
0
 40
0
 40
0
 40
0
 40
0
 40
1
 40
1
 40
1
 40
1
 10
450.307176
 20
670.333646
 30
0.0
 10
450.307176
 20
670.333646
 30
0.0
 10
450.307176
 20
690.358646
 30
0.0
 10
450.307176
 20
690.358646
 30
0.0
  0
SPLINE
  5
109
100
AcDbEntity
  8
Layer_1
 62
7
100
AcDbSpline
 70
8
 71
3
 72
8
 73
4
 74
0
 40
0
 40
0
 40
0
 40
0
 40
1
 40
1
 40
1
 40
1
 10
450.307176
 20
690.358646
 30
0.0
 10
450.290320
 20
696.073333
 30
0.0
 10
448.846646
 20
701.693347
 30
0.0
 10
446.107176
 20
706.708646
 30
0.0
  0
LWPOLYLINE
  5
10a
100
AcDbEntity
  8
Layer_1
 62
7
100
AcDbPolyline
 90
2
 70
0
 10
573.832136
 20
639.183646
 30
0.0
 10
559.707176
 20
625.058646
 30
0.0
  0
SPLINE
  5
10b
100
AcDbEntity
  8
Layer_1
 62
7
100
AcDbSpline
 70
8
 71
3
 72
8
 73
4
 74
0
 40
0
 40
0
 40
0
 40
0
 40
1
 40
1
 40
1
 40
1
 10
378.157176
 20
706.433646
 30
0.0
 10
375.513853
 20
701.486776
 30
0.0
 10
374.123286
 20
695.967427
 30
0.0
 10
374.107176
 20
690.358646
 30
0.0
  0
LWPOLYLINE
  5
10c
100
AcDbEntity
  8
Layer_1
 62
7
100
AcDbPolyline
 90
2
 70
0
 10
446.107176
 20
706.708646
 30
0.0
 10
446.107176
 20
706.708646
 30
0.0
  0
SPLINE
  5
10d
100
AcDbEntity
  8
Layer_1
 62
7
100
AcDbSpline
 70
8
 71
3
 72
8
 73
4
 74
0
 40
0
 40
0
 40
0
 40
0
 40
1
 40
1
 40
1
 40
1
 10
374.107176
 20
670.333646
 30
0.0
 10
333.682856
 20
664.118214
 30
0.0
 10
296.329736
 20
648.233214
 30
0.0
 10
264.707176
 20
625.058646
 30
0.0
  0
LWPOLYLINE
  5
10e
100
AcDbEntity
  8
Layer_1
 62
7
100
AcDbPolyline
 90
2
 70
0
 10
374.107176
 20
690.358646
 30
0.0
 10
374.107176
 20
670.333646
 30
0.0
  0
SPLINE
  5
10f
100
AcDbEntity
  8
Layer_1
 62
7
100
AcDbSpline
 70
8
 71
3
 72
8
 73
4
 74
0
 40
0
 40
0
 40
0
 40
0
 40
1
 40
1
 40
1
 40
1
 10
250.582216
 20
639.183646
 30
0.0
 10
246.746577
 20
643.007012
 30
0.0
 10
242.060521
 20
645.868325
 30
0.0
 10
236.907176
 20
647.533646
 30
0.0
  0
SPLINE
  5
110
100
AcDbEntity
  8
Layer_1
 62
7
100
AcDbSpline
 70
8
 71
3
 72
8
 73
4
 74
0
 40
0
 40
0
 40
0
 40
0
 40
1
 40
1
 40
1
 40
1
 10
236.907176
 20
647.533646
 30
0.0
 10
276.700296
 20
678.964102
 30
0.0
 10
325.120056
 20
699.947406
 30
0.0
 10
378.157176
 20
706.433646
 30
0.0
  0
LWPOLYLINE
  5
111
100
AcDbEntity
  8
Layer_1
 62
7
100
AcDbPolyline
 90
2
 70
0
 10
264.707176
 20
625.058646
 30
0.0
 10
250.582216
 20
639.183646
 30
0.0
  0
LWPOLYLINE
  5
112
100
AcDbEntity
  8
Layer_1
 62
7
100
AcDbPolyline
 90
2
 70
0
 10
378.157176
 20
706.433646
 30
0.0
 10
378.157176
 20
706.433646
 30
0.0
  0
SPLINE
  5
113
100
AcDbEntity
  8
Layer_1
 62
7
100
AcDbSpline
 70
8
 71
3
 72
8
 73
4
 74
0
 40
0
 40
0
 40
0
 40
0
 40
1
 40
1
 40
1
 40
1
 10
415.982216
 20
638.933646
 30
0.0
 10
472.587416
 20
637.958206
 30
0.0
 10
523.864216
 20
615.154326
 30
0.0
 10
561.757176
 20
578.558646
 30
0.0
  0
LWPOLYLINE
  5
114
100
AcDbEntity
  8
Layer_1
 62
7
100
AcDbPolyline
 90
3
 70
0
 10
408.432216
 20
690.358646
 30
0.0
 10
415.982216
 20
690.358646
 30
0.0
 10
415.982216
 20
638.933646
 30
0.0
  0
SPLINE
  5
115
100
AcDbEntity
  8
Layer_1
 62
7
100
AcDbSpline
 70
8
 71
3
 72
8
 73
4
 74
0
 40
0
 40
0
 40
0
 40
0
 40
1
 40
1
 40
1
 40
1
 10
567.082216
 20
573.208646
 30
0.0
 10
603.685016
 20
535.314478
 30
0.0
 10
626.506696
 20
484.045118
 30
0.0
 10
627.482216
 20
427.433646
 30
0.0
  0
LWPOLYLINE
  5
116
100
AcDbEntity
  8
Layer_1
 62
7
100
AcDbPolyline
 90
4
 70
0
 10
561.757176
 20
578.558646
 30
0.0
 10
598.107176
 20
614.908646
 30
0.0
 10
603.457176
 20
609.583646
 30
0.0
 10
567.082216
 20
573.208646
 30
0.0
  0
SPLINE
  5
117
100
AcDbEntity
  8
Layer_1
 62
7
100
AcDbSpline
 70
8
 71
3
 72
8
 73
4
 74
0
 40
0
 40
0
 40
0
 40
0
 40
1
 40
1
 40
1
 40
1
 10
627.482216
 20
419.883646
 30
0.0
 10
626.506776
 20
363.278694
 30
0.0
 10
603.702856
 20
311.995630
 30
0.0
 10
567.107176
 20
274.108646
 30
0.0
  0
LWPOLYLINE
  5
118
100
AcDbEntity
  8
Layer_1
 62
7
100
AcDbPolyline
 90
4
 70
0
 10
627.482216
 20
427.433646
 30
0.0
 10
678.882216
 20
427.433646
 30
0.0
 10
678.882216
 20
419.883646
 30
0.0
 10
627.482216
 20
419.883646
 30
0.0
  0
SPLINE
  5
119
100
AcDbEntity
  8
Layer_1
 62
7
100
AcDbSpline
 70
8
 71
3
 72
8
 73
4
 74
0
 40
0
 40
0
 40
0
 40
0
 40
1
 40
1
 40
1
 40
1
 10
561.757176
 20
268.783654
 30
0.0
 10
523.863896
 20
232.192022
 30
0.0
 10
472.589096
 20
209.383870
 30
0.0
 10
415.982216
 20
208.408646
 30
0.0
  0
LWPOLYLINE
  5
11a
100
AcDbEntity
  8
Layer_1
 62
7
100
AcDbPolyline
 90
4
 70
0
 10
567.107176
 20
274.108646
 30
0.0
 10
603.457176
 20
237.758646
 30
0.0
 10
598.107176
 20
232.433646
 30
0.0
 10
561.757176
 20
268.783654
 30
0.0
  0
SPLINE
  5
11b
100
AcDbEntity
  8
Layer_1
 62
7
100
AcDbSpline
 70
8
 71
3
 72
8
 73
4
 74
0
 40
0
 40
0
 40
0
 40
0
 40
1
 40
1
 40
1
 40
1
 10
408.432216
 20
208.408646
 30
0.0
 10
351.825256
 20
209.383870
 30
0.0
 10
300.550456
 20
232.192022
 30
0.0
 10
262.657176
 20
268.783654
 30
0.0
  0
LWPOLYLINE
  5
11c
100
AcDbEntity
  8
Layer_1
 62
7
100
AcDbPolyline
 90
4
 70
0
 10
415.982216
 20
208.408646
 30
0.0
 10
415.982216
 20
156.983646
 30
0.0
 10
408.432216
 20
156.983646
 30
0.0
 10
408.432216
 20
208.408646
 30
0.0
  0
SPLINE
  5
11d
100
AcDbEntity
  8
Layer_1
 62
7
100
AcDbSpline
 70
8
 71
3
 72
8
 73
4
 74
0
 40
0
 40
0
 40
0
 40
0
 40
1
 40
1
 40
1
 40
1
 10
257.307176
 20
274.108646
 30
0.0
 10
220.711496
 20
311.995630
 30
0.0
 10
197.907656
 20
363.278694
 30
0.0
 10
196.932216
 20
419.883646
 30
0.0
  0
LWPOLYLINE
  5
11e
100
AcDbEntity
  8
Layer_1
 62
7
100
AcDbPolyline
 90
4
 70
0
 10
262.657176
 20
268.783654
 30
0.0
 10
226.307176
 20
232.433646
 30
0.0
 10
220.957176
 20
237.758646
 30
0.0
 10
257.307176
 20
274.108646
 30
0.0
  0
SPLINE
  5
11f
100
AcDbEntity
  8
Layer_1
 62
7
100
AcDbSpline
 70
8
 71
3
 72
8
 73
4
 74
0
 40
0
 40
0
 40
0
 40
0
 40
1
 40
1
 40
1
 40
1
 10
196.932216
 20
427.433646
 30
0.0
 10
197.907736
 20
484.045118
 30
0.0
 10
220.729416
 20
535.314470
 30
0.0
 10
257.332216
 20
573.208646
 30
0.0
  0
LWPOLYLINE
  5
120
100
AcDbEntity
  8
Layer_1
 62
7
100
AcDbPolyline
 90
4
 70
0
 10
196.932216
 20
419.883646
 30
0.0
 10
145.507176
 20
419.883646
 30
0.0
 10
145.507176
 20
427.433646
 30
0.0
 10
196.932216
 20
427.433646
 30
0.0
  0
SPLINE
  5
121
100
AcDbEntity
  8
Layer_1
 62
7
100
AcDbSpline
 70
8
 71
3
 72
8
 73
4
 74
0
 40
0
 40
0
 40
0
 40
0
 40
1
 40
1
 40
1
 40
1
 10
262.657176
 20
578.558646
 30
0.0
 10
300.550136
 20
615.154326
 30
0.0
 10
351.827016
 20
637.958206
 30
0.0
 10
408.432216
 20
638.933646
 30
0.0
  0
LWPOLYLINE
  5
122
100
AcDbEntity
  8
Layer_1
 62
7
100
AcDbPolyline
 90
4
 70
0
 10
257.332216
 20
573.208646
 30
0.0
 10
220.957176
 20
609.583646
 30
0.0
 10
226.307176
 20
614.908646
 30
0.0
 10
262.657176
 20
578.558646
 30
0.0
  0
SPLINE
  5
123
100
AcDbEntity
  8
Layer_1
 62
7
100
AcDbSpline
 70
8
 71
3
 72
8
 73
4
 74
0
 40
0
 40
0
 40
0
 40
0
 40
1
 40
1
 40
1
 40
1
 10
636.532136
 20
600.633646
 30
0.0
 10
668.393816
 20
560.317862
 30
0.0
 10
689.538536
 20
511.145070
 30
0.0
 10
695.732136
 20
457.283646
 30
0.0
  0
SPLINE
  5
124
100
AcDbEntity
  8
Layer_1
 62
7
100
AcDbSpline
 70
8
 71
3
 72
8
 73
4
 74
0
 40
0
 40
0
 40
0
 40
0
 40
1
 40
1
 40
1
 40
1
 10
695.732136
 20
457.283646
 30
0.0
 10
690.594343
 20
460.200882
 30
0.0
 10
684.790423
 20
461.742287
 30
0.0
 10
678.882216
 20
461.758646
 30
0.0
  0
LWPOLYLINE
  5
125
100
AcDbEntity
  8
Layer_1
 62
7
100
AcDbPolyline
 90
3
 70
0
 10
408.432216
 20
638.933646
 30
0.0
 10
408.432216
 20
690.358646
 30
0.0
 10
408.432216
 20
690.358646
 30
0.0
  0
SPLINE
  5
126
100
AcDbEntity
  8
Layer_1
 62
7
100
AcDbSpline
 70
8
 71
3
 72
8
 73
4
 74
0
 40
0
 40
0
 40
0
 40
0
 40
1
 40
1
 40
1
 40
1
 10
658.882216
 20
461.758646
 30
0.0
 10
652.664536
 20
502.195766
 30
0.0
 10
636.766696
 20
539.533054
 30
0.0
 10
613.582216
 20
571.158646
 30
0.0
  0
SPLINE
  5
127
100
AcDbEntity
  8
Layer_1
 62
7
100
AcDbSpline
 70
8
 71
3
 72
8
 73
4
 74
0
 40
0
 40
0
 40
0
 40
0
 40
1
 40
1
 40
1
 40
1
 10
613.582216
 20
571.158646
 30
0.0
 10
613.582216
 20
571.158646
 30
0.0
 10
627.732136
 20
585.308646
 30
0.0
 10
627.732136
 20
585.308646
 30
0.0
  0
SPLINE
  5
128
100
AcDbEntity
  8
Layer_1
 62
7
100
AcDbSpline
 70
8
 71
3
 72
8
 73
4
 74
0
 40
0
 40
0
 40
0
 40
0
 40
1
 40
1
 40
1
 40
1
 10
627.732136
 20
585.308646
 30
0.0
 10
631.952969
 20
589.561197
 30
0.0
 10
634.986892
 20
594.844705
 30
0.0
 10
636.532136
 20
600.633646
 30
0.0
  0
LWPOLYLINE
  5
129
100
AcDbEntity
  8
Layer_1
 62
7
100
AcDbPolyline
 90
2
 70
0
 10
678.882216
 20
461.758646
 30
0.0
 10
658.882216
 20
461.758646
 30
0.0
  0
SPLINE
  5
12a
100
AcDbEntity
  8
Layer_1
 62
7
100
AcDbSpline
 70
8
 71
3
 72
8
 73
4
 74
0
 40
0
 40
0
 40
0
 40
0
 40
1
 40
1
 40
1
 40
1
 10
188.457176
 20
598.683646
 30
0.0
 10
190.128400
 20
593.649593
 30
0.0
 10
192.943762
 20
589.071444
 30
0.0
 10
196.682216
 20
585.308646
 30
0.0
  0
LWPOLYLINE
  5
12b
100
AcDbEntity
  8
Layer_1
 62
7
100
AcDbPolyline
 90
2
 70
0
 10
636.532136
 20
600.633646
 30
0.0
 10
636.532136
 20
600.633646
 30
0.0
  0
SPLINE
  5
12c
100
AcDbEntity
  8
Layer_1
 62
7
100
AcDbSpline
 70
8
 71
3
 72
8
 73
4
 74
0
 40
0
 40
0
 40
0
 40
0
 40
1
 40
1
 40
1
 40
1
 10
210.832216
 20
571.158646
 30
0.0
 10
187.647576
 20
539.533054
 30
0.0
 10
171.749816
 20
502.195758
 30
0.0
 10
165.532216
 20
461.758646
 30
0.0
  0
LWPOLYLINE
  5
12d
100
AcDbEntity
  8
Layer_1
 62
7
100
AcDbPolyline
 90
2
 70
0
 10
196.682216
 20
585.308646
 30
0.0
 10
210.832216
 20
571.158646
 30
0.0
  0
SPLINE
  5
12e
100
AcDbEntity
  8
Layer_1
 62
7
100
AcDbSpline
 70
8
 71
3
 72
8
 73
4
 74
0
 40
0
 40
0
 40
0
 40
0
 40
1
 40
1
 40
1
 40
1
 10
145.507176
 20
461.758646
 30
0.0
 10
140.473861
 20
461.738956
 30
0.0
 10
135.506491
 20
460.612336
 30
0.0
 10
130.957176
 20
458.458646
 30
0.0
  0
SPLINE
  5
12f
100
AcDbEntity
  8
Layer_1
 62
7
100
AcDbSpline
 70
8
 71
3
 72
8
 73
4
 74
0
 40
0
 40
0
 40
0
 40
0
 40
1
 40
1
 40
1
 40
1
 10
130.957176
 20
458.458646
 30
0.0
 10
137.217736
 20
510.992590
 30
0.0
 10
157.684616
 20
559.033582
 30
0.0
 10
188.457176
 20
598.683646
 30
0.0
  0
LWPOLYLINE
  5
130
100
AcDbEntity
  8
Layer_1
 62
7
100
AcDbPolyline
 90
2
 70
0
 10
165.532216
 20
461.758646
 30
0.0
 10
145.507176
 20
461.758646
 30
0.0
  0
SPLINE
  5
131
100
AcDbEntity
  8
Layer_1
 62
7
100
AcDbSpline
 70
8
 71
3
 72
8
 73
4
 74
0
 40
0
 40
0
 40
0
 40
0
 40
1
 40
1
 40
1
 40
1
 10
695.582216
 20
389.958646
 30
0.0
 10
689.195816
 20
336.459134
 30
0.0
 10
668.068616
 20
287.617486
 30
0.0
 10
636.332136
 20
247.558646
 30
0.0
  0
SPLINE
  5
132
100
AcDbEntity
  8
Layer_1
 62
7
100
AcDbSpline
 70
8
 71
3
 72
8
 73
4
 74
0
 40
0
 40
0
 40
0
 40
0
 40
1
 40
1
 40
1
 40
1
 10
636.332136
 20
247.558646
 30
0.0
 10
634.711911
 20
253.022912
 30
0.0
 10
631.756296
 20
257.997625
 30
0.0
 10
627.732136
 20
262.033646
 30
0.0
  0
LWPOLYLINE
  5
133
100
AcDbEntity
  8
Layer_1
 62
7
100
AcDbPolyline
 90
2
 70
0
 10
188.457176
 20
598.683646
 30
0.0
 10
188.457176
 20
598.683646
 30
0.0
  0
SPLINE
  5
134
100
AcDbEntity
  8
Layer_1
 62
7
100
AcDbSpline
 70
8
 71
3
 72
8
 73
4
 74
0
 40
0
 40
0
 40
0
 40
0
 40
1
 40
1
 40
1
 40
1
 10
613.607176
 20
276.158646
 30
0.0
 10
636.782936
 20
307.780838
 30
0.0
 10
652.666856
 20
345.133430
 30
0.0
 10
658.882216
 20
385.558646
 30
0.0
  0
SPLINE
  5
135
100
AcDbEntity
  8
Layer_1
 62
7
100
AcDbSpline
 70
8
 71
3
 72
8
 73
4
 74
0
 40
0
 40
0
 40
0
 40
0
 40
1
 40
1
 40
1
 40
1
 10
658.882216
 20
385.558646
 30
0.0
 10
658.882216
 20
385.558646
 30
0.0
 10
678.882216
 20
385.558646
 30
0.0
 10
678.882216
 20
385.558646
 30
0.0
  0
SPLINE
  5
136
100
AcDbEntity
  8
Layer_1
 62
7
100
AcDbSpline
 70
8
 71
3
 72
8
 73
4
 74
0
 40
0
 40
0
 40
0
 40
0
 40
1
 40
1
 40
1
 40
1
 10
678.882216
 20
385.558646
 30
0.0
 10
684.732939
 20
385.577786
 30
0.0
 10
690.481626
 20
387.092410
 30
0.0
 10
695.582216
 20
389.958646
 30
0.0
  0
LWPOLYLINE
  5
137
100
AcDbEntity
  8
Layer_1
 62
7
100
AcDbPolyline
 90
2
 70
0
 10
627.732136
 20
262.033646
 30
0.0
 10
613.607176
 20
276.158646
 30
0.0
  0
SPLINE
  5
138
100
AcDbEntity
  8
Layer_1
 62
7
100
AcDbSpline
 70
8
 71
3
 72
8
 73
4
 74
0
 40
0
 40
0
 40
0
 40
0
 40
1
 40
1
 40
1
 40
1
 10
131.107176
 20
388.783646
 30
0.0
 10
135.616530
 20
386.677167
 30
0.0
 10
140.530108
 20
385.576730
 30
0.0
 10
145.507176
 20
385.558646
 30
0.0
  0
LWPOLYLINE
  5
139
100
AcDbEntity
  8
Layer_1
 62
7
100
AcDbPolyline
 90
2
 70
0
 10
695.582216
 20
389.958646
 30
0.0
 10
695.582216
 20
389.958646
 30
0.0
  0
SPLINE
  5
13a
100
AcDbEntity
  8
Layer_1
 62
7
100
AcDbSpline
 70
8
 71
3
 72
8
 73
4
 74
0
 40
0
 40
0
 40
0
 40
0
 40
1
 40
1
 40
1
 40
1
 10
165.532216
 20
385.558646
 30
0.0
 10
171.747416
 20
345.133438
 30
0.0
 10
187.631496
 20
307.780846
 30
0.0
 10
210.807176
 20
276.158646
 30
0.0
  0
SPLINE
  5
13b
100
AcDbEntity
  8
Layer_1
 62
7
100
AcDbSpline
 70
8
 71
3
 72
8
 73
4
 74
0
 40
0
 40
0
 40
0
 40
0
 40
1
 40
1
 40
1
 40
1
 10
210.807176
 20
276.158646
 30
0.0
 10
210.807176
 20
276.158646
 30
0.0
 10
196.682216
 20
262.033646
 30
0.0
 10
196.682216
 20
262.033646
 30
0.0
  0
SPLINE
  5
13c
100
AcDbEntity
  8
Layer_1
 62
7
100
AcDbSpline
 70
8
 71
3
 72
8
 73
4
 74
0
 40
0
 40
0
 40
0
 40
0
 40
1
 40
1
 40
1
 40
1
 10
196.682216
 20
262.033646
 30
0.0
 10
193.141529
 20
258.466473
 30
0.0
 10
190.427585
 20
254.165128
 30
0.0
 10
188.732216
 20
249.433646
 30
0.0
  0
SPLINE
  5
13d
100
AcDbEntity
  8
Layer_1
 62
7
100
AcDbSpline
 70
8
 71
3
 72
8
 73
4
 74
0
 40
0
 40
0
 40
0
 40
0
 40
1
 40
1
 40
1
 40
1
 10
188.732216
 20
249.433646
 30
0.0
 10
158.047736
 20
288.842502
 30
0.0
 10
137.557896
 20
336.573174
 30
0.0
 10
131.107176
 20
388.783646
 30
0.0
  0
LWPOLYLINE
  5
13e
100
AcDbEntity
  8
Layer_1
 62
7
100
AcDbPolyline
 90
2
 70
0
 10
145.507176
 20
385.558646
 30
0.0
 10
165.532216
 20
385.558646
 30
0.0
  0
SPLINE
  5
13f
100
AcDbEntity
  8
Layer_1
 62
7
100
AcDbSpline
 70
8
 71
3
 72
8
 73
4
 74
0
 40
0
 40
0
 40
0
 40
0
 40
1
 40
1
 40
1
 40
1
 10
264.707176
 20
222.283646
 30
0.0
 10
296.328616
 20
199.110814
 30
0.0
 10
333.682056
 20
183.224830
 30
0.0
 10
374.107176
 20
177.008646
 30
0.0
  0
LWPOLYLINE
  5
140
100
AcDbEntity
  8
Layer_1
 62
7
100
AcDbPolyline
 90
2
 70
0
 10
131.107176
 20
388.783646
 30
0.0
 10
131.107176
 20
388.783646
 30
0.0
  0
SPLINE
  5
141
100
AcDbEntity
  8
Layer_1
 62
7
100
AcDbSpline
 70
8
 71
3
 72
8
 73
4
 74
0
 40
0
 40
0
 40
0
 40
0
 40
1
 40
1
 40
1
 40
1
 10
374.107176
 20
156.983646
 30
0.0
 10
374.125486
 20
151.829141
 30
0.0
 10
375.304673
 20
146.744969
 30
0.0
 10
377.557176
 20
142.108646
 30
0.0
  0
SPLINE
  5
142
100
AcDbEntity
  8
Layer_1
 62
7
100
AcDbSpline
 70
8
 71
3
 72
8
 73
4
 74
0
 40
0
 40
0
 40
0
 40
0
 40
1
 40
1
 40
1
 40
1
 10
377.557176
 20
142.108646
 30
0.0
 10
325.182616
 20
148.626318
 30
0.0
 10
277.316696
 20
169.267126
 30
0.0
 10
237.857176
 20
200.158646
 30
0.0
  0
SPLINE
  5
143
100
AcDbEntity
  8
Layer_1
 62
7
100
AcDbSpline
 70
8
 71
3
 72
8
 73
4
 74
0
 40
0
 40
0
 40
0
 40
0
 40
1
 40
1
 40
1
 40
1
 10
237.857176
 20
200.158646
 30
0.0
 10
242.637896
 20
201.852246
 30
0.0
 10
246.983801
 20
204.584437
 30
0.0
 10
250.582216
 20
208.158646
 30
0.0
  0
LWPOLYLINE
  5
144
100
AcDbEntity
  8
Layer_1
 62
7
100
AcDbPolyline
 90
2
 70
0
 10
374.107176
 20
177.008646
 30
0.0
 10
374.107176
 20
156.983646
 30
0.0
  0
SPLINE
  5
145
100
AcDbEntity
  8
Layer_1
 62
7
100
AcDbSpline
 70
8
 71
3
 72
8
 73
4
 74
0
 40
0
 40
0
 40
0
 40
0
 40
1
 40
1
 40
1
 40
1
 10
559.707176
 20
222.283646
 30
0.0
 10
559.707176
 20
222.283646
 30
0.0
 10
573.832136
 20
208.158646
 30
0.0
 10
573.832136
 20
208.158646
 30
0.0
  0
SPLINE
  5
146
100
AcDbEntity
  8
Layer_1
 62
7
100
AcDbSpline
 70
8
 71
3
 72
8
 73
4
 74
0
 40
0
 40
0
 40
0
 40
0
 40
1
 40
1
 40
1
 40
1
 10
573.832136
 20
208.158646
 30
0.0
 10
577.794113
 20
204.212814
 30
0.0
 10
582.660246
 20
201.294859
 30
0.0
 10
588.007176
 20
199.658646
 30
0.0
  0
SPLINE
  5
147
100
AcDbEntity
  8
Layer_1
 62
7
100
AcDbSpline
 70
8
 71
3
 72
8
 73
4
 74
0
 40
0
 40
0
 40
0
 40
0
 40
1
 40
1
 40
1
 40
1
 10
588.007176
 20
199.658646
 30
0.0
 10
548.101896
 20
168.608230
 30
0.0
 10
499.673976
 20
147.998934
 30
0.0
 10
446.707176
 20
141.833646
 30
0.0
  0
SPLINE
  5
148
100
AcDbEntity
  8
Layer_1
 62
7
100
AcDbSpline
 70
8
 71
3
 72
8
 73
4
 74
0
 40
0
 40
0
 40
0
 40
0
 40
1
 40
1
 40
1
 40
1
 10
446.707176
 20
141.833646
 30
0.0
 10
449.052171
 20
146.541090
 30
0.0
 10
450.283875
 20
151.724513
 30
0.0
 10
450.307176
 20
156.983646
 30
0.0
  0
LWPOLYLINE
  5
149
100
AcDbEntity
  8
Layer_1
 62
7
100
AcDbPolyline
 90
3
 70
0
 10
250.582216
 20
208.158646
 30
0.0
 10
264.707176
 20
222.283646
 30
0.0
 10
264.707176
 20
222.283646
 30
0.0
  0
SPLINE
  5
14a
100
AcDbEntity
  8
Layer_1
 62
7
100
AcDbSpline
 70
8
 71
3
 72
8
 73
4
 74
0
 40
0
 40
0
 40
0
 40
0
 40
1
 40
1
 40
1
 40
1
 10
450.307176
 20
177.008646
 30
0.0
 10
490.732376
 20
183.224830
 30
0.0
 10
528.085736
 20
199.110814
 30
0.0
 10
559.707176
 20
222.283646
 30
0.0
  0
LWPOLYLINE
  5
14b
100
AcDbEntity
  8
Layer_1
 62
7
100
AcDbPolyline
 90
2
 70
0
 10
450.307176
 20
156.983646
 30
0.0
 10
450.307176
 20
177.008646
 30
0.0
  0
SPLINE
  5
14c
100
AcDbEntity
  8
Layer_1
 62
7
100
AcDbSpline
 70
8
 71
3
 72
8
 73
4
 74
0
 40
0
 40
0
 40
0
 40
0
 40
1
 40
1
 40
1
 40
1
 10
414.429416
 20
835.246268
 30
0.0
 10
187.549016
 20
835.246268
 30
0.0
 10
3.629413
 20
651.326678
 30
0.0
 10
3.629413
 20
424.446270
 30
0.0
  0
SPLINE
  5
14d
100
AcDbEntity
  8
Layer_1
 62
7
100
AcDbSpline
 70
8
 71
3
 72
8
 73
4
 74
0
 40
0
 40
0
 40
0
 40
0
 40
1
 40
1
 40
1
 40
1
 10
3.629413
 20
424.446270
 30
0.0
 10
3.629413
 20
197.565862
 30
0.0
 10
187.549016
 20
13.646262
 30
0.0
 10
414.429416
 20
13.646262
 30
0.0
  0
SPLINE
  5
14e
100
AcDbEntity
  8
Layer_1
 62
7
100
AcDbSpline
 70
8
 71
3
 72
8
 73
4
 74
0
 40
0
 40
0
 40
0
 40
0
 40
1
 40
1
 40
1
 40
1
 10
414.429416
 20
13.646262
 30
0.0
 10
641.309816
 20
13.646262
 30
0.0
 10
825.229520
 20
197.565862
 30
0.0
 10
825.229440
 20
424.446270
 30
0.0
  0
SPLINE
  5
14f
100
AcDbEntity
  8
Layer_1
 62
7
100
AcDbSpline
 70
8
 71
3
 72
8
 73
4
 74
0
 40
0
 40
0
 40
0
 40
0
 40
1
 40
1
 40
1
 40
1
 10
825.229440
 20
424.446270
 30
0.0
 10
825.229440
 20
651.326678
 30
0.0
 10
641.309816
 20
835.246268
 30
0.0
 10
414.429416
 20
835.246268
 30
0.0
  0
LWPOLYLINE
  5
150
100
AcDbEntity
  8
Layer_1
 62
7
100
AcDbPolyline
 90
2
 70
0
 10
559.707176
 20
222.283646
 30
0.0
 10
559.707176
 20
222.283646
 30
0.0
  0
SPLINE
  5
151
100
AcDbEntity
  8
Layer_1
 62
7
100
AcDbSpline
 70
8
 71
3
 72
8
 73
4
 74
0
 40
0
 40
0
 40
0
 40
0
 40
1
 40
1
 40
1
 40
1
 10
400.479416
 20
812.446268
 30
0.0
 10
398.089991
 20
808.900332
 30
0.0
 10
396.762941
 20
804.745753
 30
0.0
 10
396.654376
 20
800.471268
 30
0.0
  0
LWPOLYLINE
  5
152
100
AcDbEntity
  8
Layer_1
 62
7
100
AcDbPolyline
 90
2
 70
0
 10
414.429416
 20
835.246268
 30
0.0
 10
414.429416
 20
835.246268
 30
0.0
  0
SPLINE
  5
153
100
AcDbEntity
  8
Layer_1
 62
7
100
AcDbSpline
 70
8
 71
3
 72
8
 73
4
 74
0
 40
0
 40
0
 40
0
 40
0
 40
1
 40
1
 40
1
 40
1
 10
396.329416
 20
786.421268
 30
0.0
 10
313.017016
 20
782.309764
 30
0.0
 10
236.970776
 20
749.938782
 30
0.0
 10
177.729416
 20
698.796270
 30
0.0
  0
LWPOLYLINE
  5
154
100
AcDbEntity
  8
Layer_1
 62
7
100
AcDbPolyline
 90
2
 70
0
 10
396.654376
 20
800.471268
 30
0.0
 10
396.329416
 20
786.421268
 30
0.0
  0
SPLINE
  5
155
100
AcDbEntity
  8
Layer_1
 62
7
100
AcDbSpline
 70
8
 71
3
 72
8
 73
4
 74
0
 40
0
 40
0
 40
0
 40
0
 40
1
 40
1
 40
1
 40
1
 10
167.729416
 20
708.796270
 30
0.0
 10
164.654331
 20
711.864689
 30
0.0
 10
160.755027
 20
713.974995
 30
0.0
 10
156.504376
 20
714.871270
 30
0.0
  0
SPLINE
  5
156
100
AcDbEntity
  8
Layer_1
 62
7
100
AcDbSpline
 70
8
 71
3
 72
8
 73
4
 74
0
 40
0
 40
0
 40
0
 40
0
 40
1
 40
1
 40
1
 40
1
 10
156.504376
 20
714.871270
 30
0.0
 10
221.821576
 20
772.901609
 30
0.0
 10
306.889576
 20
809.146940
 30
0.0
 10
400.479416
 20
812.446268
 30
0.0
  0
LWPOLYLINE
  5
157
100
AcDbEntity
  8
Layer_1
 62
7
100
AcDbPolyline
 90
2
 70
0
 10
177.729416
 20
698.796270
 30
0.0
 10
167.729416
 20
708.796270
 30
0.0
  0
SPLINE
  5
158
100
AcDbEntity
  8
Layer_1
 62
7
100
AcDbSpline
 70
8
 71
3
 72
8
 73
4
 74
0
 40
0
 40
0
 40
0
 40
0
 40
1
 40
1
 40
1
 40
1
 10
446.629416
 20
811.371268
 30
0.0
 10
536.240136
 20
804.034484
 30
0.0
 10
617.130296
 20
766.416645
 30
0.0
 10
679.104376
 20
708.696270
 30
0.0
  0
SPLINE
  5
159
100
AcDbEntity
  8
Layer_1
 62
7
100
AcDbSpline
 70
8
 71
3
 72
8
 73
4
 74
0
 40
0
 40
0
 40
0
 40
0
 40
1
 40
1
 40
1
 40
1
 10
679.104376
 20
708.696270
 30
0.0
 10
674.842915
 20
707.907206
 30
0.0
 10
670.900952
 20
705.901494
 30
0.0
 10
667.754376
 20
702.921270
 30
0.0
  0
LWPOLYLINE
  5
15a
100
AcDbEntity
  8
Layer_1
 62
7
100
AcDbPolyline
 90
2
 70
0
 10
400.479416
 20
812.446268
 30
0.0
 10
400.479416
 20
812.446268
 30
0.0
  0
SPLINE
  5
15b
100
AcDbEntity
  8
Layer_1
 62
7
100
AcDbSpline
 70
8
 71
3
 72
8
 73
4
 74
0
 40
0
 40
0
 40
0
 40
0
 40
1
 40
1
 40
1
 40
1
 10
657.529416
 20
693.171270
 30
0.0
 10
601.388776
 20
743.973486
 30
0.0
 10
529.183656
 20
777.422348
 30
0.0
 10
449.554376
 20
785.096268
 30
0.0
  0
LWPOLYLINE
  5
15c
100
AcDbEntity
  8
Layer_1
 62
7
100
AcDbPolyline
 90
2
 70
0
 10
667.754376
 20
702.921270
 30
0.0
 10
657.529416
 20
693.171270
 30
0.0
  0
SPLINE
  5
15d
100
AcDbEntity
  8
Layer_1
 62
7
100
AcDbSpline
 70
8
 71
3
 72
8
 73
4
 74
0
 40
0
 40
0
 40
0
 40
0
 40
1
 40
1
 40
1
 40
1
 10
449.879416
 20
799.221268
 30
0.0
 10
449.975893
 20
803.498206
 30
0.0
 10
448.848301
 20
807.713666
 30
0.0
 10
446.629416
 20
811.371268
 30
0.0
  0
LWPOLYLINE
  5
15e
100
AcDbEntity
  8
Layer_1
 62
7
100
AcDbPolyline
 90
2
 70
0
 10
449.554376
 20
785.096268
 30
0.0
 10
449.879416
 20
799.221268
 30
0.0
  0
LWPOLYLINE
  5
15f
100
AcDbEntity
  8
Layer_1
 62
7
100
AcDbPolyline
 90
2
 70
0
 10
446.629416
 20
811.371268
 30
0.0
 10
446.629416
 20
811.371268
 30
0.0
  0
SPLINE
  5
160
100
AcDbEntity
  8
Layer_1
 62
7
100
AcDbSpline
 70
8
 71
3
 72
8
 73
4
 74
0
 40
0
 40
0
 40
0
 40
0
 40
1
 40
1
 40
1
 40
1
 10
426.604376
 20
764.196269
 30
0.0
 10
517.014216
 20
761.015246
 30
0.0
 10
598.445016
 20
722.544102
 30
0.0
 10
657.529416
 20
662.121270
 30
0.0
  0
LWPOLYLINE
  5
161
100
AcDbEntity
  8
Layer_1
 62
7
100
AcDbPolyline
 90
3
 70
0
 10
419.104376
 20
799.946268
 30
0.0
 10
427.429416
 20
799.746268
 30
0.0
 10
426.604376
 20
764.196269
 30
0.0
  0
SPLINE
  5
162
100
AcDbEntity
  8
Layer_1
 62
7
100
AcDbSpline
 70
8
 71
3
 72
8
 73
4
 74
0
 40
0
 40
0
 40
0
 40
0
 40
1
 40
1
 40
1
 40
1
 10
663.279416
 20
656.096270
 30
0.0
 10
718.940376
 20
596.328790
 30
0.0
 10
753.323416
 20
516.485246
 30
0.0
 10
754.379416
 20
428.621270
 30
0.0
  0
LWPOLYLINE
  5
163
100
AcDbEntity
  8
Layer_1
 62
7
100
AcDbPolyline
 90
4
 70
0
 10
657.529416
 20
662.121270
 30
0.0
 10
683.254376
 20
686.671270
 30
0.0
 10
689.004376
 20
680.646270
 30
0.0
 10
663.279416
 20
656.096270
 30
0.0
  0
SPLINE
  5
164
100
AcDbEntity
  8
Layer_1
 62
7
100
AcDbSpline
 70
8
 71
3
 72
8
 73
4
 74
0
 40
0
 40
0
 40
0
 40
0
 40
1
 40
1
 40
1
 40
1
 10
754.379416
 20
420.296270
 30
0.0
 10
753.295336
 20
329.554158
 30
0.0
 10
716.658776
 20
247.378510
 30
0.0
 10
657.754376
 20
187.021270
 30
0.0
  0
LWPOLYLINE
  5
165
100
AcDbEntity
  8
Layer_1
 62
7
100
AcDbPolyline
 90
4
 70
0
 10
754.379416
 20
428.621270
 30
0.0
 10
789.929336
 20
428.621270
 30
0.0
 10
789.929336
 20
420.296270
 30
0.0
 10
754.379416
 20
420.296270
 30
0.0
  0
SPLINE
  5
166
100
AcDbEntity
  8
Layer_1
 62
7
100
AcDbSpline
 70
8
 71
3
 72
8
 73
4
 74
0
 40
0
 40
0
 40
0
 40
0
 40
1
 40
1
 40
1
 40
1
 10
651.879416
 20
181.121270
 30
0.0
 10
590.603336
 20
121.313886
 30
0.0
 10
506.818536
 20
84.471270
 30
0.0
 10
414.429416
 20
84.471270
 30
0.0
  0
SPLINE
  5
167
100
AcDbEntity
  8
Layer_1
 62
7
100
AcDbSpline
 70
8
 71
3
 72
8
 73
4
 74
0
 40
0
 40
0
 40
0
 40
0
 40
1
 40
1
 40
1
 40
1
 10
414.429416
 20
84.471270
 30
0.0
 10
413.145896
 20
84.471270
 30
0.0
 10
411.859576
 20
84.482150
 30
0.0
 10
410.579416
 20
84.496230
 30
0.0
  0
LWPOLYLINE
  5
168
100
AcDbEntity
  8
Layer_1
 62
7
100
AcDbPolyline
 90
4
 70
0
 10
657.754376
 20
187.021270
 30
0.0
 10
682.904376
 20
161.871270
 30
0.0
 10
677.004376
 20
155.996270
 30
0.0
 10
651.879416
 20
181.121270
 30
0.0
  0
SPLINE
  5
169
100
AcDbEntity
  8
Layer_1
 62
7
100
AcDbSpline
 70
8
 71
3
 72
8
 73
4
 74
0
 40
0
 40
0
 40
0
 40
0
 40
1
 40
1
 40
1
 40
1
 10
402.254376
 20
84.696230
 30
0.0
 10
311.844616
 20
87.877334
 30
0.0
 10
230.413816
 20
126.348438
 30
0.0
 10
171.329416
 20
186.771270
 30
0.0
  0
LWPOLYLINE
  5
16a
100
AcDbEntity
  8
Layer_1
 62
7
100
AcDbPolyline
 90
4
 70
0
 10
410.579416
 20
84.496230
 30
0.0
 10
409.754376
 20
48.946190
 30
0.0
 10
401.429416
 20
49.146190
 30
0.0
 10
402.254376
 20
84.696230
 30
0.0
  0
SPLINE
  5
16b
100
AcDbEntity
  8
Layer_1
 62
7
100
AcDbSpline
 70
8
 71
3
 72
8
 73
4
 74
0
 40
0
 40
0
 40
0
 40
0
 40
1
 40
1
 40
1
 40
1
 10
165.579416
 20
192.796270
 30
0.0
 10
109.913176
 20
252.569406
 30
0.0
 10
75.529252
 20
332.422470
 30
0.0
 10
74.479412
 20
420.296270
 30
0.0
  0
LWPOLYLINE
  5
16c
100
AcDbEntity
  8
Layer_1
 62
7
100
AcDbPolyline
 90
4
 70
0
 10
171.329416
 20
186.771270
 30
0.0
 10
145.604376
 20
162.246270
 30
0.0
 10
139.854376
 20
168.271270
 30
0.0
 10
165.579416
 20
192.796270
 30
0.0
  0
SPLINE
  5
16d
100
AcDbEntity
  8
Layer_1
 62
7
100
AcDbSpline
 70
8
 71
3
 72
8
 73
4
 74
0
 40
0
 40
0
 40
0
 40
0
 40
1
 40
1
 40
1
 40
1
 10
74.479412
 20
428.621270
 30
0.0
 10
75.569892
 20
519.353502
 30
0.0
 10
112.205416
 20
601.519558
 30
0.0
 10
171.104376
 20
661.871270
 30
0.0
  0
LWPOLYLINE
  5
16e
100
AcDbEntity
  8
Layer_1
 62
7
100
AcDbPolyline
 90
4
 70
0
 10
74.479412
 20
420.296270
 30
0.0
 10
38.929413
 20
420.296270
 30
0.0
 10
38.929413
 20
428.621270
 30
0.0
 10
74.479412
 20
428.621270
 30
0.0
  0
SPLINE
  5
16f
100
AcDbEntity
  8
Layer_1
 62
7
100
AcDbSpline
 70
8
 71
3
 72
8
 73
4
 74
0
 40
0
 40
0
 40
0
 40
0
 40
1
 40
1
 40
1
 40
1
 10
177.004376
 20
667.771270
 30
0.0
 10
238.279336
 20
727.571230
 30
0.0
 10
322.046776
 20
764.421269
 30
0.0
 10
414.429416
 20
764.421269
 30
0.0
  0
SPLINE
  5
170
100
AcDbEntity
  8
Layer_1
 62
7
100
AcDbSpline
 70
8
 71
3
 72
8
 73
4
 74
0
 40
0
 40
0
 40
0
 40
0
 40
1
 40
1
 40
1
 40
1
 10
414.429416
 20
764.421269
 30
0.0
 10
415.712936
 20
764.421269
 30
0.0
 10
416.999256
 20
764.410389
 30
0.0
 10
418.279416
 20
764.396309
 30
0.0
  0
LWPOLYLINE
  5
171
100
AcDbEntity
  8
Layer_1
 62
7
100
AcDbPolyline
 90
4
 70
0
 10
171.104376
 20
661.871270
 30
0.0
 10
145.954376
 20
687.021270
 30
0.0
 10
151.854376
 20
692.921270
 30
0.0
 10
177.004376
 20
667.771270
 30
0.0
  0
SPLINE
  5
172
100
AcDbEntity
  8
Layer_1
 62
7
100
AcDbSpline
 70
8
 71
3
 72
8
 73
4
 74
0
 40
0
 40
0
 40
0
 40
0
 40
1
 40
1
 40
1
 40
1
 10
124.029416
 20
682.371270
 30
0.0
 10
124.918677
 20
678.123467
 30
0.0
 10
127.020133
 20
674.224485
 30
0.0
 10
130.079416
 20
671.146270
 30
0.0
  0
LWPOLYLINE
  5
173
100
AcDbEntity
  8
Layer_1
 62
7
100
AcDbPolyline
 90
3
 70
0
 10
418.279416
 20
764.396309
 30
0.0
 10
419.104376
 20
799.946308
 30
0.0
 10
419.104376
 20
799.946268
 30
0.0
  0
SPLINE
  5
174
100
AcDbEntity
  8
Layer_1
 62
7
100
AcDbSpline
 70
8
 71
3
 72
8
 73
4
 74
0
 40
0
 40
0
 40
0
 40
0
 40
1
 40
1
 40
1
 40
1
 10
140.079416
 20
661.146270
 30
0.0
 10
90.688136
 20
603.935206
 30
0.0
 10
58.878613
 20
531.046182
 30
0.0
 10
53.054373
 20
451.071270
 30
0.0
  0
SPLINE
  5
175
100
AcDbEntity
  8
Layer_1
 62
7
100
AcDbSpline
 70
8
 71
3
 72
8
 73
4
 74
0
 40
0
 40
0
 40
0
 40
0
 40
1
 40
1
 40
1
 40
1
 10
53.054373
 20
451.071270
 30
0.0
 10
53.054373
 20
451.071270
 30
0.0
 10
38.929413
 20
451.071270
 30
0.0
 10
38.929413
 20
451.071270
 30
0.0
  0
SPLINE
  5
176
100
AcDbEntity
  8
Layer_1
 62
7
100
AcDbSpline
 70
8
 71
3
 72
8
 73
4
 74
0
 40
0
 40
0
 40
0
 40
0
 40
1
 40
1
 40
1
 40
1
 10
38.929413
 20
451.071270
 30
0.0
 10
34.631226
 20
451.073085
 30
0.0
 10
30.422866
 20
449.840951
 30
0.0
 10
26.804373
 20
447.521270
 30
0.0
  0
SPLINE
  5
177
100
AcDbEntity
  8
Layer_1
 62
7
100
AcDbSpline
 70
8
 71
3
 72
8
 73
4
 74
0
 40
0
 40
0
 40
0
 40
0
 40
1
 40
1
 40
1
 40
1
 10
26.804373
 20
447.521270
 30
0.0
 10
32.064133
 20
537.521014
 30
0.0
 10
67.882774
 20
619.179726
 30
0.0
 10
124.029416
 20
682.371270
 30
0.0
  0
LWPOLYLINE
  5
178
100
AcDbEntity
  8
Layer_1
 62
7
100
AcDbPolyline
 90
2
 70
0
 10
130.079416
 20
671.146270
 30
0.0
 10
140.079416
 20
661.146270
 30
0.0
  0
SPLINE
  5
179
100
AcDbEntity
  8
Layer_1
 62
7
100
AcDbSpline
 70
8
 71
3
 72
8
 73
4
 74
0
 40
0
 40
0
 40
0
 40
0
 40
1
 40
1
 40
1
 40
1
 10
710.854376
 20
675.446270
 30
0.0
 10
763.540056
 20
613.258510
 30
0.0
 10
796.990080
 20
534.247110
 30
0.0
 10
802.054400
 20
447.496270
 30
0.0
  0
SPLINE
  5
17a
100
AcDbEntity
  8
Layer_1
 62
7
100
AcDbSpline
 70
8
 71
3
 72
8
 73
4
 74
0
 40
0
 40
0
 40
0
 40
0
 40
1
 40
1
 40
1
 40
1
 10
802.054400
 20
447.496270
 30
0.0
 10
798.438589
 20
449.824763
 30
0.0
 10
794.230026
 20
451.065631
 30
0.0
 10
789.929336
 20
451.071270
 30
0.0
  0
LWPOLYLINE
  5
17b
100
AcDbEntity
  8
Layer_1
 62
7
100
AcDbPolyline
 90
2
 70
0
 10
124.029416
 20
682.371270
 30
0.0
 10
124.029416
 20
682.371270
 30
0.0
  0
SPLINE
  5
17c
100
AcDbEntity
  8
Layer_1
 62
7
100
AcDbSpline
 70
8
 71
3
 72
8
 73
4
 74
0
 40
0
 40
0
 40
0
 40
0
 40
1
 40
1
 40
1
 40
1
 10
775.804376
 20
451.071270
 30
0.0
 10
770.199576
 20
528.034646
 30
0.0
 10
740.524456
 20
598.441678
 30
0.0
 10
694.279416
 20
654.621270
 30
0.0
  0
SPLINE
  5
17d
100
AcDbEntity
  8
Layer_1
 62
7
100
AcDbSpline
 70
8
 71
3
 72
8
 73
4
 74
0
 40
0
 40
0
 40
0
 40
0
 40
1
 40
1
 40
1
 40
1
 10
694.279416
 20
654.621270
 30
0.0
 10
694.279416
 20
654.621270
 30
0.0
 10
704.504376
 20
664.396270
 30
0.0
 10
704.504376
 20
664.396270
 30
0.0
  0
SPLINE
  5
17e
100
AcDbEntity
  8
Layer_1
 62
7
100
AcDbSpline
 70
8
 71
3
 72
8
 73
4
 74
0
 40
0
 40
0
 40
0
 40
0
 40
1
 40
1
 40
1
 40
1
 10
704.504376
 20
664.396270
 30
0.0
 10
707.644081
 20
667.388819
 30
0.0
 10
709.849640
 20
671.226839
 30
0.0
 10
710.854376
 20
675.446270
 30
0.0
  0
LWPOLYLINE
  5
17f
100
AcDbEntity
  8
Layer_1
 62
7
100
AcDbPolyline
 90
2
 70
0
 10
789.929336
 20
451.071270
 30
0.0
 10
775.804376
 20
451.071270
 30
0.0
  0
SPLINE
  5
180
100
AcDbEntity
  8
Layer_1
 62
7
100
AcDbSpline
 70
8
 71
3
 72
8
 73
4
 74
0
 40
0
 40
0
 40
0
 40
0
 40
1
 40
1
 40
1
 40
1
 10
26.804373
 20
401.421270
 30
0.0
 10
30.420177
 20
399.092782
 30
0.0
 10
34.628731
 20
397.851914
 30
0.0
 10
38.929413
 20
397.846270
 30
0.0
  0
LWPOLYLINE
  5
181
100
AcDbEntity
  8
Layer_1
 62
7
100
AcDbPolyline
 90
2
 70
0
 10
710.854376
 20
675.446270
 30
0.0
 10
710.854376
 20
675.446270
 30
0.0
  0
SPLINE
  5
182
100
AcDbEntity
  8
Layer_1
 62
7
100
AcDbSpline
 70
8
 71
3
 72
8
 73
4
 74
0
 40
0
 40
0
 40
0
 40
0
 40
1
 40
1
 40
1
 40
1
 10
53.054373
 20
397.846270
 30
0.0
 10
58.654693
 20
320.874310
 30
0.0
 10
88.330296
 20
250.456494
 30
0.0
 10
134.579416
 20
194.271270
 30
0.0
  0
SPLINE
  5
183
100
AcDbEntity
  8
Layer_1
 62
7
100
AcDbSpline
 70
8
 71
3
 72
8
 73
4
 74
0
 40
0
 40
0
 40
0
 40
0
 40
1
 40
1
 40
1
 40
1
 10
134.579416
 20
194.271270
 30
0.0
 10
134.579416
 20
194.271270
 30
0.0
 10
124.354376
 20
184.521270
 30
0.0
 10
124.354376
 20
184.521270
 30
0.0
  0
SPLINE
  5
184
100
AcDbEntity
  8
Layer_1
 62
7
100
AcDbSpline
 70
8
 71
3
 72
8
 73
4
 74
0
 40
0
 40
0
 40
0
 40
0
 40
1
 40
1
 40
1
 40
1
 10
124.354376
 20
184.521270
 30
0.0
 10
121.210515
 20
181.521927
 30
0.0
 10
119.004640
 20
177.674673
 30
0.0
 10
118.004376
 20
173.446270
 30
0.0
  0
SPLINE
  5
185
100
AcDbEntity
  8
Layer_1
 62
7
100
AcDbSpline
 70
8
 71
3
 72
8
 73
4
 74
0
 40
0
 40
0
 40
0
 40
0
 40
1
 40
1
 40
1
 40
1
 10
118.004376
 20
173.446270
 30
0.0
 10
65.313654
 20
235.640006
 30
0.0
 10
31.863733
 20
314.660622
 30
0.0
 10
26.804373
 20
401.421270
 30
0.0
  0
LWPOLYLINE
  5
186
100
AcDbEntity
  8
Layer_1
 62
7
100
AcDbPolyline
 90
2
 70
0
 10
38.929413
 20
397.846270
 30
0.0
 10
53.054373
 20
397.846270
 30
0.0
  0
SPLINE
  5
187
100
AcDbEntity
  8
Layer_1
 62
7
100
AcDbSpline
 70
8
 71
3
 72
8
 73
4
 74
0
 40
0
 40
0
 40
0
 40
0
 40
1
 40
1
 40
1
 40
1
 10
802.054400
 20
401.396310
 30
0.0
 10
796.799920
 20
311.386710
 30
0.0
 10
760.981256
 20
229.718702
 30
0.0
 10
704.829416
 20
166.521310
 30
0.0
  0
SPLINE
  5
188
100
AcDbEntity
  8
Layer_1
 62
7
100
AcDbSpline
 70
8
 71
3
 72
8
 73
4
 74
0
 40
0
 40
0
 40
0
 40
0
 40
1
 40
1
 40
1
 40
1
 10
704.829416
 20
166.521310
 30
0.0
 10
703.940155
 20
170.769113
 30
0.0
 10
701.838699
 20
174.668096
 30
0.0
 10
698.779416
 20
177.746310
 30
0.0
  0
LWPOLYLINE
  5
189
100
AcDbEntity
  8
Layer_1
 62
7
100
AcDbPolyline
 90
2
 70
0
 10
26.804373
 20
401.421270
 30
0.0
 10
26.804373
 20
401.421270
 30
0.0
  0
SPLINE
  5
18a
100
AcDbEntity
  8
Layer_1
 62
7
100
AcDbSpline
 70
8
 71
3
 72
8
 73
4
 74
0
 40
0
 40
0
 40
0
 40
0
 40
1
 40
1
 40
1
 40
1
 10
688.779416
 20
187.746310
 30
0.0
 10
738.174536
 20
244.962542
 30
0.0
 10
769.984616
 20
317.863350
 30
0.0
 10
775.804376
 20
397.846310
 30
0.0
  0
LWPOLYLINE
  5
18b
100
AcDbEntity
  8
Layer_1
 62
7
100
AcDbPolyline
 90
2
 70
0
 10
698.779416
 20
177.746310
 30
0.0
 10
688.779416
 20
187.746310
 30
0.0
  0
SPLINE
  5
18c
100
AcDbEntity
  8
Layer_1
 62
7
100
AcDbSpline
 70
8
 71
3
 72
8
 73
4
 74
0
 40
0
 40
0
 40
0
 40
0
 40
1
 40
1
 40
1
 40
1
 10
789.929336
 20
397.846310
 30
0.0
 10
794.227531
 20
397.844491
 30
0.0
 10
798.435900
 20
399.076626
 30
0.0
 10
802.054400
 20
401.396310
 30
0.0
  0
LWPOLYLINE
  5
18d
100
AcDbEntity
  8
Layer_1
 62
7
100
AcDbPolyline
 90
2
 70
0
 10
775.804376
 20
397.846310
 30
0.0
 10
789.929336
 20
397.846310
 30
0.0
  0
SPLINE
  5
18e
100
AcDbEntity
  8
Layer_1
 62
7
100
AcDbSpline
 70
8
 71
3
 72
8
 73
4
 74
0
 40
0
 40
0
 40
0
 40
0
 40
1
 40
1
 40
1
 40
1
 10
171.329416
 20
155.746310
 30
0.0
 10
227.471736
 20
104.937846
 30
0.0
 10
299.669336
 20
71.470822
 30
0.0
 10
379.304376
 20
63.796310
 30
0.0
  0
SPLINE
  5
18f
100
AcDbEntity
  8
Layer_1
 62
7
100
AcDbSpline
 70
8
 71
3
 72
8
 73
4
 74
0
 40
0
 40
0
 40
0
 40
0
 40
1
 40
1
 40
1
 40
1
 10
379.304376
 20
63.796310
 30
0.0
 10
379.304376
 20
63.796310
 30
0.0
 10
378.979416
 20
49.671310
 30
0.0
 10
378.979416
 20
49.671310
 30
0.0
  0
SPLINE
  5
190
100
AcDbEntity
  8
Layer_1
 62
7
100
AcDbSpline
 70
8
 71
3
 72
8
 73
4
 74
0
 40
0
 40
0
 40
0
 40
0
 40
1
 40
1
 40
1
 40
1
 10
378.979416
 20
49.671310
 30
0.0
 10
378.882937
 20
45.394370
 30
0.0
 10
380.010529
 20
41.178907
 30
0.0
 10
382.229416
 20
37.521302
 30
0.0
  0
SPLINE
  5
191
100
AcDbEntity
  8
Layer_1
 62
7
100
AcDbSpline
 70
8
 71
3
 72
8
 73
4
 74
0
 40
0
 40
0
 40
0
 40
0
 40
1
 40
1
 40
1
 40
1
 10
382.229416
 20
37.521302
 30
0.0
 10
292.606216
 20
44.859150
 30
0.0
 10
211.706856
 20
82.487310
 30
0.0
 10
149.729416
 20
140.221310
 30
0.0
  0
SPLINE
  5
192
100
AcDbEntity
  8
Layer_1
 62
7
100
AcDbSpline
 70
8
 71
3
 72
8
 73
4
 74
0
 40
0
 40
0
 40
0
 40
0
 40
1
 40
1
 40
1
 40
1
 10
149.729416
 20
140.221310
 30
0.0
 10
153.999749
 20
141.005817
 30
0.0
 10
157.950960
 20
143.011824
 30
0.0
 10
161.104376
 20
145.996310
 30
0.0
  0
LWPOLYLINE
  5
193
100
AcDbEntity
  8
Layer_1
 62
7
100
AcDbPolyline
 90
2
 70
0
 10
802.054400
 20
401.396310
 30
0.0
 10
802.054400
 20
401.396310
 30
0.0
  0
SPLINE
  5
194
100
AcDbEntity
  8
Layer_1
 62
7
100
AcDbSpline
 70
8
 71
3
 72
8
 73
4
 74
0
 40
0
 40
0
 40
0
 40
0
 40
1
 40
1
 40
1
 40
1
 10
651.154376
 20
150.096310
 30
0.0
 10
651.154376
 20
150.096310
 30
0.0
 10
661.129416
 20
140.121310
 30
0.0
 10
661.129416
 20
140.121310
 30
0.0
  0
SPLINE
  5
195
100
AcDbEntity
  8
Layer_1
 62
7
100
AcDbSpline
 70
8
 71
3
 72
8
 73
4
 74
0
 40
0
 40
0
 40
0
 40
0
 40
1
 40
1
 40
1
 40
1
 10
661.129416
 20
140.121310
 30
0.0
 10
664.204480
 20
137.052905
 30
0.0
 10
668.103753
 20
134.942600
 30
0.0
 10
672.354376
 20
134.046310
 30
0.0
  0
SPLINE
  5
196
100
AcDbEntity
  8
Layer_1
 62
7
100
AcDbSpline
 70
8
 71
3
 72
8
 73
4
 74
0
 40
0
 40
0
 40
0
 40
0
 40
1
 40
1
 40
1
 40
1
 10
672.354376
 20
134.046310
 30
0.0
 10
607.035656
 20
76.009574
 30
0.0
 10
521.975096
 20
39.745862
 30
0.0
 10
428.379416
 20
36.446182
 30
0.0
  0
SPLINE
  5
197
100
AcDbEntity
  8
Layer_1
 62
7
100
AcDbSpline
 70
8
 71
3
 72
8
 73
4
 74
0
 40
0
 40
0
 40
0
 40
0
 40
1
 40
1
 40
1
 40
1
 10
428.379416
 20
36.446182
 30
0.0
 10
430.768821
 20
39.992141
 30
0.0
 10
432.095844
 20
44.146736
 30
0.0
 10
432.204376
 20
48.421230
 30
0.0
  0
LWPOLYLINE
  5
198
100
AcDbEntity
  8
Layer_1
 62
7
100
AcDbPolyline
 90
3
 70
0
 10
161.104376
 20
145.996310
 30
0.0
 10
171.329416
 20
155.746310
 30
0.0
 10
171.329416
 20
155.746310
 30
0.0
  0
SPLINE
  5
199
100
AcDbEntity
  8
Layer_1
 62
7
100
AcDbSpline
 70
8
 71
3
 72
8
 73
4
 74
0
 40
0
 40
0
 40
0
 40
0
 40
1
 40
1
 40
1
 40
1
 10
432.529416
 20
62.471270
 30
0.0
 10
515.848936
 20
66.581982
 30
0.0
 10
591.907736
 20
98.945854
 30
0.0
 10
651.154376
 20
150.096270
 30
0.0
  0
LWPOLYLINE
  5
19a
100
AcDbEntity
  8
Layer_1
 62
7
100
AcDbPolyline
 90
2
 70
0
 10
432.204376
 20
48.421230
 30
0.0
 10
432.529416
 20
62.471270
 30
0.0
  0
SPLINE
  5
19b
100
AcDbEntity
  8
Layer_1
 62
7
100
AcDbSpline
 70
8
 71
3
 72
8
 73
4
 74
0
 40
0
 40
0
 40
0
 40
0
 40
1
 40
1
 40
1
 40
1
 10
942.449138
 20
535.338222
 30
0.0
 10
927.407858
 20
533.597358
 30
0.0
 10
915.196338
 20
522.897126
 30
0.0
 10
911.574178
 20
508.863222
 30
0.0
  0
SPLINE
  5
19c
100
AcDbEntity
  8
Layer_1
 62
7
100
AcDbSpline
 70
8
 71
3
 72
8
 73
4
 74
0
 40
0
 40
0
 40
0
 40
0
 40
1
 40
1
 40
1
 40
1
 10
911.574178
 20
508.863222
 30
0.0
 10
911.603778
 20
508.395422
 30
0.0
 10
911.642978
 20
507.930598
 30
0.0
 10
911.674178
 20
507.463222
 30
0.0
  0
LWPOLYLINE
  5
19d
100
AcDbEntity
  8
Layer_1
 62
7
100
AcDbPolyline
 90
2
 70
0
 10
651.154376
 20
150.096270
 30
0.0
 10
651.154376
 20
150.096310
 30
0.0
  0
SPLINE
  5
19e
100
AcDbEntity
  8
Layer_1
 62
7
100
AcDbSpline
 70
8
 71
3
 72
8
 73
4
 74
0
 40
0
 40
0
 40
0
 40
0
 40
1
 40
1
 40
1
 40
1
 10
912.324178
 20
499.013222
 30
0.0
 10
915.493618
 20
462.446030
 30
0.0
 10
923.447938
 20
427.254238
 30
0.0
 10
935.574178
 20
394.063222
 30
0.0
  0
LWPOLYLINE
  5
19f
100
AcDbEntity
  8
Layer_1
 62
7
100
AcDbPolyline
 90
4
 70
0
 10
911.674178
 20
507.463222
 30
0.0
 10
947.649138
 20
507.463222
 30
0.0
 10
947.649138
 20
499.013222
 30
0.0
 10
912.324178
 20
499.013222
 30
0.0
  0
SPLINE
  5
1a0
100
AcDbEntity
  8
Layer_1
 62
7
100
AcDbSpline
 70
8
 71
3
 72
8
 73
4
 74
0
 40
0
 40
0
 40
0
 40
0
 40
1
 40
1
 40
1
 40
1
 10
938.749138
 20
385.638222
 30
0.0
 10
953.622338
 20
347.562126
 30
0.0
 10
974.018338
 20
312.248150
 30
0.0
 10
998.949138
 20
280.688222
 30
0.0
  0
LWPOLYLINE
  5
1a1
100
AcDbEntity
  8
Layer_1
 62
7
100
AcDbPolyline
 90
4
 70
0
 10
935.574178
 20
394.063222
 30
0.0
 10
976.549138
 20
394.063222
 30
0.0
 10
976.549138
 20
385.638222
 30
0.0
 10
938.749138
 20
385.638222
 30
0.0
  0
SPLINE
  5
1a2
100
AcDbEntity
  8
Layer_1
 62
7
100
AcDbSpline
 70
8
 71
3
 72
8
 73
4
 74
0
 40
0
 40
0
 40
0
 40
0
 40
1
 40
1
 40
1
 40
1
 10
1005.799218
 20
272.263222
 30
0.0
 10
1046.229618
 20
223.765422
 30
0.0
 10
1097.628738
 20
184.727102
 30
0.0
 10
1156.199218
 20
158.988222
 30
0.0
  0
LWPOLYLINE
  5
1a3
100
AcDbEntity
  8
Layer_1
 62
7
100
AcDbPolyline
 90
4
 70
0
 10
998.949138
 20
280.688222
 30
0.0
 10
1051.649138
 20
280.688222
 30
0.0
 10
1051.649138
 20
272.263222
 30
0.0
 10
1005.799218
 20
272.263222
 30
0.0
  0
SPLINE
  5
1a4
100
AcDbEntity
  8
Layer_1
 62
7
100
AcDbSpline
 70
8
 71
3
 72
8
 73
4
 74
0
 40
0
 40
0
 40
0
 40
0
 40
1
 40
1
 40
1
 40
1
 10
1179.999458
 20
237.138222
 30
0.0
 10
1071.666098
 20
283.061822
 30
0.0
 10
993.943458
 20
381.360382
 30
0.0
 10
982.874418
 20
504.438222
 30
0.0
  0
LWPOLYLINE
  5
1a5
100
AcDbEntity
  8
Layer_1
 62
7
100
AcDbPolyline
 90
24
 70
0
 10
1156.199218
 20
158.988222
 30
0.0
 10
1237.474178
 20
158.988222
 30
0.0
 10
1237.474178
 20
168.588222
 30
0.0
 10
1237.449378
 20
168.588222
 30
0.0
 10
1237.449378
 20
169.513222
 30
0.0
 10
1306.149378
 20
169.513222
 30
0.0
 10
1306.149378
 20
169.563222
 30
0.0
 10
1306.324418
 20
169.563222
 30
0.0
 10
1306.324418
 20
170.013222
 30
0.0
 10
1306.324418
 20
180.288222
 30
0.0
 10
1307.249378
 20
180.288222
 30
0.0
 10
1307.249378
 20
207.963222
 30
0.0
 10
1307.249378
 20
208.263222
 30
0.0
 10
1307.249378
 20
219.188222
 30
0.0
 10
1306.349378
 20
219.188222
 30
0.0
 10
1306.349378
 20
235.913222
 30
0.0
 10
1278.824418
 20
235.913222
 30
0.0
 10
1278.824418
 20
219.188222
 30
0.0
 10
1235.524418
 20
219.188222
 30
0.0
 10
1235.524418
 20
235.763222
 30
0.0
 10
1207.999458
 20
235.763222
 30
0.0
 10
1207.999458
 20
227.138222
 30
0.0
 10
1179.999458
 20
227.138222
 30
0.0
 10
1179.999458
 20
237.138222
 30
0.0
  0
SPLINE
  5
1a6
100
AcDbEntity
  8
Layer_1
 62
7
100
AcDbSpline
 70
8
 71
3
 72
8
 73
4
 74
0
 40
0
 40
0
 40
0
 40
0
 40
1
 40
1
 40
1
 40
1
 10
982.874418
 20
504.013222
 30
0.0
 10
981.071698
 20
520.389502
 30
0.0
 10
967.824098
 20
533.418438
 30
0.0
 10
951.074418
 20
535.338222
 30
0.0
  0
LWPOLYLINE
  5
1a7
100
AcDbEntity
  8
Layer_1
 62
7
100
AcDbPolyline
 90
2
 70
0
 10
982.874418
 20
504.438222
 30
0.0
 10
982.874418
 20
504.013222
 30
0.0
  0
SPLINE
  5
1a8
100
AcDbEntity
  8
Layer_1
 62
7
100
AcDbSpline
 70
8
 71
3
 72
8
 73
4
 74
0
 40
0
 40
0
 40
0
 40
0
 40
1
 40
1
 40
1
 40
1
 10
963.149138
 20
483.213222
 30
0.0
 10
966.567778
 20
459.813182
 30
0.0
 10
972.283698
 20
437.301846
 30
0.0
 10
980.074178
 20
415.888222
 30
0.0
  0
SPLINE
  5
1a9
100
AcDbEntity
  8
Layer_1
 62
7
100
AcDbSpline
 70
8
 71
3
 72
8
 73
4
 74
0
 40
0
 40
0
 40
0
 40
0
 40
1
 40
1
 40
1
 40
1
 10
980.074178
 20
415.888222
 30
0.0
 10
978.909052
 20
416.082121
 30
0.0
 10
977.730274
 20
416.182441
 30
0.0
 10
976.549138
 20
416.188222
 30
0.0
  0
LWPOLYLINE
  5
1aa
100
AcDbEntity
  8
Layer_1
 62
7
100
AcDbPolyline
 90
3
 70
0
 10
951.074418
 20
535.338222
 30
0.0
 10
942.449378
 20
535.338222
 30
0.0
 10
942.449138
 20
535.338222
 30
0.0
  0
SPLINE
  5
1ab
100
AcDbEntity
  8
Layer_1
 62
7
100
AcDbSpline
 70
8
 71
3
 72
8
 73
4
 74
0
 40
0
 40
0
 40
0
 40
0
 40
1
 40
1
 40
1
 40
1
 10
951.424178
 20
416.188222
 30
0.0
 10
945.138498
 20
435.784302
 30
0.0
 10
940.342258
 20
456.061958
 30
0.0
 10
937.224178
 20
476.888222
 30
0.0
  0
SPLINE
  5
1ac
100
AcDbEntity
  8
Layer_1
 62
7
100
AcDbSpline
 70
8
 71
3
 72
8
 73
4
 74
0
 40
0
 40
0
 40
0
 40
0
 40
1
 40
1
 40
1
 40
1
 10
937.224178
 20
476.888222
 30
0.0
 10
937.224178
 20
476.888222
 30
0.0
 10
947.649138
 20
476.888222
 30
0.0
 10
947.649138
 20
476.888222
 30
0.0
  0
SPLINE
  5
1ad
100
AcDbEntity
  8
Layer_1
 62
7
100
AcDbSpline
 70
8
 71
3
 72
8
 73
4
 74
0
 40
0
 40
0
 40
0
 40
0
 40
1
 40
1
 40
1
 40
1
 10
947.649138
 20
476.888222
 30
0.0
 10
953.444636
 20
476.885908
 30
0.0
 10
959.009837
 20
479.156870
 30
0.0
 10
963.149138
 20
483.213222
 30
0.0
  0
LWPOLYLINE
  5
1ae
100
AcDbEntity
  8
Layer_1
 62
7
100
AcDbPolyline
 90
2
 70
0
 10
976.549138
 20
416.188222
 30
0.0
 10
951.424178
 20
416.188222
 30
0.0
  0
SPLINE
  5
1af
100
AcDbEntity
  8
Layer_1
 62
7
100
AcDbSpline
 70
8
 71
3
 72
8
 73
4
 74
0
 40
0
 40
0
 40
0
 40
0
 40
1
 40
1
 40
1
 40
1
 10
996.949138
 20
377.113222
 30
0.0
 10
1010.932498
 20
349.914102
 30
0.0
 10
1028.619618
 20
325.082710
 30
0.0
 10
1049.099218
 20
302.813222
 30
0.0
  0
LWPOLYLINE
  5
1b0
100
AcDbEntity
  8
Layer_1
 62
7
100
AcDbPolyline
 90
2
 70
0
 10
963.149138
 20
483.213222
 30
0.0
 10
963.149138
 20
483.213222
 30
0.0
  0
SPLINE
  5
1b1
100
AcDbEntity
  8
Layer_1
 62
7
100
AcDbSpline
 70
8
 71
3
 72
8
 73
4
 74
0
 40
0
 40
0
 40
0
 40
0
 40
1
 40
1
 40
1
 40
1
 10
1009.924178
 20
302.813222
 30
0.0
 10
995.754658
 20
321.785046
 30
0.0
 10
983.280018
 20
342.096206
 30
0.0
 10
972.724178
 20
363.513222
 30
0.0
  0
SPLINE
  5
1b2
100
AcDbEntity
  8
Layer_1
 62
7
100
AcDbSpline
 70
8
 71
3
 72
8
 73
4
 74
0
 40
0
 40
0
 40
0
 40
0
 40
1
 40
1
 40
1
 40
1
 10
972.724178
 20
363.513222
 30
0.0
 10
972.724178
 20
363.513222
 30
0.0
 10
976.549138
 20
363.513222
 30
0.0
 10
976.549138
 20
363.513222
 30
0.0
  0
SPLINE
  5
1b3
100
AcDbEntity
  8
Layer_1
 62
7
100
AcDbSpline
 70
8
 71
3
 72
8
 73
4
 74
0
 40
0
 40
0
 40
0
 40
0
 40
1
 40
1
 40
1
 40
1
 10
976.549138
 20
363.513222
 30
0.0
 10
985.468245
 20
363.522069
 30
0.0
 10
993.510545
 20
368.883602
 30
0.0
 10
996.949138
 20
377.113222
 30
0.0
  0
LWPOLYLINE
  5
1b4
100
AcDbEntity
  8
Layer_1
 62
7
100
AcDbPolyline
 90
2
 70
0
 10
1049.099218
 20
302.813222
 30
0.0
 10
1009.924178
 20
302.813222
 30
0.0
  0
SPLINE
  5
1b5
100
AcDbEntity
  8
Layer_1
 62
7
100
AcDbSpline
 70
8
 71
3
 72
8
 73
4
 74
0
 40
0
 40
0
 40
0
 40
0
 40
1
 40
1
 40
1
 40
1
 10
1073.774178
 20
278.288222
 30
0.0
 10
1098.745938
 20
256.094518
 30
0.0
 10
1127.112898
 20
237.569606
 30
0.0
 10
1157.874178
 20
223.013222
 30
0.0
  0
SPLINE
  5
1b6
100
AcDbEntity
  8
Layer_1
 62
7
100
AcDbSpline
 70
8
 71
3
 72
8
 73
4
 74
0
 40
0
 40
0
 40
0
 40
0
 40
1
 40
1
 40
1
 40
1
 10
1157.874178
 20
223.013222
 30
0.0
 10
1157.874178
 20
223.013222
 30
0.0
 10
1157.874178
 20
219.188222
 30
0.0
 10
1157.874178
 20
219.188222
 30
0.0
  0
SPLINE
  5
1b7
100
AcDbEntity
  8
Layer_1
 62
7
100
AcDbSpline
 70
8
 71
3
 72
8
 73
4
 74
0
 40
0
 40
0
 40
0
 40
0
 40
1
 40
1
 40
1
 40
1
 10
1157.874178
 20
219.188222
 30
0.0
 10
1157.878560
 20
206.970722
 30
0.0
 10
1167.781717
 20
197.067582
 30
0.0
 10
1179.999218
 20
197.063222
 30
0.0
  0
SPLINE
  5
1b8
100
AcDbEntity
  8
Layer_1
 62
7
100
AcDbSpline
 70
8
 71
3
 72
8
 73
4
 74
0
 40
0
 40
0
 40
0
 40
0
 40
1
 40
1
 40
1
 40
1
 10
1179.999218
 20
197.063222
 30
0.0
 10
1179.999218
 20
197.063222
 30
0.0
 10
1207.999218
 20
197.063222
 30
0.0
 10
1207.999218
 20
197.063222
 30
0.0
  0
SPLINE
  5
1b9
100
AcDbEntity
  8
Layer_1
 62
7
100
AcDbSpline
 70
8
 71
3
 72
8
 73
4
 74
0
 40
0
 40
0
 40
0
 40
0
 40
1
 40
1
 40
1
 40
1
 10
1207.999218
 20
197.063222
 30
0.0
 10
1213.004350
 20
197.067759
 30
0.0
 10
1217.860169
 20
198.768622
 30
0.0
 10
1221.774178
 20
201.888222
 30
0.0
  0
SPLINE
  5
1ba
100
AcDbEntity
  8
Layer_1
 62
7
100
AcDbSpline
 70
8
 71
3
 72
8
 73
4
 74
0
 40
0
 40
0
 40
0
 40
0
 40
1
 40
1
 40
1
 40
1
 10
1221.774178
 20
201.888222
 30
0.0
 10
1223.222781
 20
200.736089
 30
0.0
 10
1224.810186
 20
199.770215
 30
0.0
 10
1226.499218
 20
199.013222
 30
0.0
  0
SPLINE
  5
1bb
100
AcDbEntity
  8
Layer_1
 62
7
100
AcDbSpline
 70
8
 71
3
 72
8
 73
4
 74
0
 40
0
 40
0
 40
0
 40
0
 40
1
 40
1
 40
1
 40
1
 10
1226.499218
 20
199.013222
 30
0.0
 10
1220.005750
 20
195.308382
 30
0.0
 10
1215.821415
 20
188.575859
 30
0.0
 10
1215.374178
 20
181.113222
 30
0.0
  0
LWPOLYLINE
  5
1bc
100
AcDbEntity
  8
Layer_1
 62
7
100
AcDbPolyline
 90
2
 70
0
 10
996.949138
 20
377.113222
 30
0.0
 10
996.949138
 20
377.113222
 30
0.0
  0
SPLINE
  5
1bd
100
AcDbEntity
  8
Layer_1
 62
7
100
AcDbSpline
 70
8
 71
3
 72
8
 73
4
 74
0
 40
0
 40
0
 40
0
 40
0
 40
1
 40
1
 40
1
 40
1
 10
1161.149138
 20
181.113222
 30
0.0
 10
1122.557778
 20
198.598342
 30
0.0
 10
1087.327538
 20
222.214246
 30
0.0
 10
1056.699218
 20
250.738222
 30
0.0
  0
SPLINE
  5
1be
100
AcDbEntity
  8
Layer_1
 62
7
100
AcDbSpline
 70
8
 71
3
 72
8
 73
4
 74
0
 40
0
 40
0
 40
0
 40
0
 40
1
 40
1
 40
1
 40
1
 10
1056.699218
 20
250.738222
 30
0.0
 10
1066.694396
 20
253.084475
 30
0.0
 10
1073.763856
 20
261.996363
 30
0.0
 10
1073.774178
 20
272.263222
 30
0.0
  0
LWPOLYLINE
  5
1bf
100
AcDbEntity
  8
Layer_1
 62
7
100
AcDbPolyline
 90
2
 70
0
 10
1215.374178
 20
181.113222
 30
0.0
 10
1161.149138
 20
181.113222
 30
0.0
  0
SPLINE
  5
1c0
100
AcDbEntity
  8
Layer_1
 62
7
100
AcDbSpline
 70
8
 71
3
 72
8
 73
4
 74
0
 40
0
 40
0
 40
0
 40
0
 40
1
 40
1
 40
1
 40
1
 10
1004.424756
 20
618.815462
 30
0.0
 10
989.383476
 20
617.074598
 30
0.0
 10
977.171956
 20
606.374366
 30
0.0
 10
973.549796
 20
592.340462
 30
0.0
  0
SPLINE
  5
1c1
100
AcDbEntity
  8
Layer_1
 62
7
100
AcDbSpline
 70
8
 71
3
 72
8
 73
4
 74
0
 40
0
 40
0
 40
0
 40
0
 40
1
 40
1
 40
1
 40
1
 10
973.549796
 20
592.340462
 30
0.0
 10
973.579396
 20
591.872662
 30
0.0
 10
973.618596
 20
591.407838
 30
0.0
 10
973.649796
 20
590.940462
 30
0.0
  0
LWPOLYLINE
  5
1c2
100
AcDbEntity
  8
Layer_1
 62
7
100
AcDbPolyline
 90
3
 70
0
 10
1073.774178
 20
272.263222
 30
0.0
 10
1073.774178
 20
278.288222
 30
0.0
 10
1073.774178
 20
278.288222
 30
0.0
  0
SPLINE
  5
1c3
100
AcDbEntity
  8
Layer_1
 62
7
100
AcDbSpline
 70
8
 71
3
 72
8
 73
4
 74
0
 40
0
 40
0
 40
0
 40
0
 40
1
 40
1
 40
1
 40
1
 10
974.299796
 20
582.490462
 30
0.0
 10
977.469236
 20
545.923270
 30
0.0
 10
985.423556
 20
510.731478
 30
0.0
 10
997.549796
 20
477.540462
 30
0.0
  0
LWPOLYLINE
  5
1c4
100
AcDbEntity
  8
Layer_1
 62
7
100
AcDbPolyline
 90
4
 70
0
 10
973.649796
 20
590.940462
 30
0.0
 10
1009.624756
 20
590.940462
 30
0.0
 10
1009.624756
 20
582.490462
 30
0.0
 10
974.299796
 20
582.490462
 30
0.0
  0
SPLINE
  5
1c5
100
AcDbEntity
  8
Layer_1
 62
7
100
AcDbSpline
 70
8
 71
3
 72
8
 73
4
 74
0
 40
0
 40
0
 40
0
 40
0
 40
1
 40
1
 40
1
 40
1
 10
1000.724756
 20
469.115462
 30
0.0
 10
1015.597956
 20
431.039366
 30
0.0
 10
1035.993956
 20
395.725390
 30
0.0
 10
1060.924756
 20
364.165462
 30
0.0
  0
LWPOLYLINE
  5
1c6
100
AcDbEntity
  8
Layer_1
 62
7
100
AcDbPolyline
 90
4
 70
0
 10
997.549796
 20
477.540462
 30
0.0
 10
1038.524756
 20
477.540462
 30
0.0
 10
1038.524756
 20
469.115462
 30
0.0
 10
1000.724756
 20
469.115462
 30
0.0
  0
SPLINE
  5
1c7
100
AcDbEntity
  8
Layer_1
 62
7
100
AcDbSpline
 70
8
 71
3
 72
8
 73
4
 74
0
 40
0
 40
0
 40
0
 40
0
 40
1
 40
1
 40
1
 40
1
 10
1067.774836
 20
355.740462
 30
0.0
 10
1108.205236
 20
307.242662
 30
0.0
 10
1159.604356
 20
268.204342
 30
0.0
 10
1218.174836
 20
242.465462
 30
0.0
  0
LWPOLYLINE
  5
1c8
100
AcDbEntity
  8
Layer_1
 62
7
100
AcDbPolyline
 90
4
 70
0
 10
1060.924756
 20
364.165462
 30
0.0
 10
1113.624756
 20
364.165462
 30
0.0
 10
1113.624756
 20
355.740462
 30
0.0
 10
1067.774836
 20
355.740462
 30
0.0
  0
SPLINE
  5
1c9
100
AcDbEntity
  8
Layer_1
 62
7
100
AcDbSpline
 70
8
 71
3
 72
8
 73
4
 74
0
 40
0
 40
0
 40
0
 40
0
 40
1
 40
1
 40
1
 40
1
 10
1241.975076
 20
320.615462
 30
0.0
 10
1133.641716
 20
366.539062
 30
0.0
 10
1055.919076
 20
464.837622
 30
0.0
 10
1044.850036
 20
587.915462
 30
0.0
  0
LWPOLYLINE
  5
1ca
100
AcDbEntity
  8
Layer_1
 62
7
100
AcDbPolyline
 90
24
 70
0
 10
1218.174836
 20
242.465462
 30
0.0
 10
1299.449796
 20
242.465462
 30
0.0
 10
1299.449796
 20
252.065462
 30
0.0
 10
1299.424996
 20
252.065462
 30
0.0
 10
1299.424996
 20
252.990462
 30
0.0
 10
1368.124996
 20
252.990462
 30
0.0
 10
1368.124996
 20
253.040462
 30
0.0
 10
1368.300036
 20
253.040462
 30
0.0
 10
1368.300036
 20
253.490462
 30
0.0
 10
1368.300036
 20
263.765462
 30
0.0
 10
1369.224996
 20
263.765462
 30
0.0
 10
1369.224996
 20
291.440462
 30
0.0
 10
1369.224996
 20
291.740462
 30
0.0
 10
1369.224996
 20
302.665462
 30
0.0
 10
1368.324996
 20
302.665462
 30
0.0
 10
1368.324996
 20
319.390462
 30
0.0
 10
1340.800036
 20
319.390462
 30
0.0
 10
1340.800036
 20
302.665462
 30
0.0
 10
1297.500036
 20
302.665462
 30
0.0
 10
1297.500036
 20
319.240462
 30
0.0
 10
1269.975076
 20
319.240462
 30
0.0
 10
1269.975076
 20
310.615462
 30
0.0
 10
1241.975076
 20
310.615462
 30
0.0
 10
1241.975076
 20
320.615462
 30
0.0
  0
SPLINE
  5
1cb
100
AcDbEntity
  8
Layer_1
 62
7
100
AcDbSpline
 70
8
 71
3
 72
8
 73
4
 74
0
 40
0
 40
0
 40
0
 40
0
 40
1
 40
1
 40
1
 40
1
 10
1044.850036
 20
587.490462
 30
0.0
 10
1043.047316
 20
603.866742
 30
0.0
 10
1029.799716
 20
616.895678
 30
0.0
 10
1013.050036
 20
618.815462
 30
0.0
  0
LWPOLYLINE
  5
1cc
100
AcDbEntity
  8
Layer_1
 62
7
100
AcDbPolyline
 90
2
 70
0
 10
1044.850036
 20
587.915462
 30
0.0
 10
1044.850036
 20
587.490462
 30
0.0
  0
SPLINE
  5
1cd
100
AcDbEntity
  8
Layer_1
 62
7
100
AcDbSpline
 70
8
 71
3
 72
8
 73
4
 74
0
 40
0
 40
0
 40
0
 40
0
 40
1
 40
1
 40
1
 40
1
 10
1025.124756
 20
566.690462
 30
0.0
 10
1028.543396
 20
543.290422
 30
0.0
 10
1034.259316
 20
520.779086
 30
0.0
 10
1042.049796
 20
499.365462
 30
0.0
  0
SPLINE
  5
1ce
100
AcDbEntity
  8
Layer_1
 62
7
100
AcDbSpline
 70
8
 71
3
 72
8
 73
4
 74
0
 40
0
 40
0
 40
0
 40
0
 40
1
 40
1
 40
1
 40
1
 10
1042.049796
 20
499.365462
 30
0.0
 10
1040.884670
 20
499.559361
 30
0.0
 10
1039.705892
 20
499.659681
 30
0.0
 10
1038.524756
 20
499.665462
 30
0.0
  0
LWPOLYLINE
  5
1cf
100
AcDbEntity
  8
Layer_1
 62
7
100
AcDbPolyline
 90
3
 70
0
 10
1013.050036
 20
618.815462
 30
0.0
 10
1004.424996
 20
618.815462
 30
0.0
 10
1004.424756
 20
618.815462
 30
0.0
  0
SPLINE
  5
1d0
100
AcDbEntity
  8
Layer_1
 62
7
100
AcDbSpline
 70
8
 71
3
 72
8
 73
4
 74
0
 40
0
 40
0
 40
0
 40
0
 40
1
 40
1
 40
1
 40
1
 10
1013.399796
 20
499.665462
 30
0.0
 10
1007.114116
 20
519.261542
 30
0.0
 10
1002.317876
 20
539.539198
 30
0.0
 10
999.199796
 20
560.365462
 30
0.0
  0
SPLINE
  5
1d1
100
AcDbEntity
  8
Layer_1
 62
7
100
AcDbSpline
 70
8
 71
3
 72
8
 73
4
 74
0
 40
0
 40
0
 40
0
 40
0
 40
1
 40
1
 40
1
 40
1
 10
999.199796
 20
560.365462
 30
0.0
 10
999.199796
 20
560.365462
 30
0.0
 10
1009.624756
 20
560.365462
 30
0.0
 10
1009.624756
 20
560.365462
 30
0.0
  0
SPLINE
  5
1d2
100
AcDbEntity
  8
Layer_1
 62
7
100
AcDbSpline
 70
8
 71
3
 72
8
 73
4
 74
0
 40
0
 40
0
 40
0
 40
0
 40
1
 40
1
 40
1
 40
1
 10
1009.624756
 20
560.365462
 30
0.0
 10
1015.420254
 20
560.363148
 30
0.0
 10
1020.985456
 20
562.634110
 30
0.0
 10
1025.124756
 20
566.690462
 30
0.0
  0
LWPOLYLINE
  5
1d3
100
AcDbEntity
  8
Layer_1
 62
7
100
AcDbPolyline
 90
2
 70
0
 10
1038.524756
 20
499.665462
 30
0.0
 10
1013.399796
 20
499.665462
 30
0.0
  0
SPLINE
  5
1d4
100
AcDbEntity
  8
Layer_1
 62
7
100
AcDbSpline
 70
8
 71
3
 72
8
 73
4
 74
0
 40
0
 40
0
 40
0
 40
0
 40
1
 40
1
 40
1
 40
1
 10
1058.924756
 20
460.590462
 30
0.0
 10
1072.908116
 20
433.391342
 30
0.0
 10
1090.595236
 20
408.559950
 30
0.0
 10
1111.074836
 20
386.290462
 30
0.0
  0
LWPOLYLINE
  5
1d5
100
AcDbEntity
  8
Layer_1
 62
7
100
AcDbPolyline
 90
2
 70
0
 10
1025.124756
 20
566.690462
 30
0.0
 10
1025.124756
 20
566.690462
 30
0.0
  0
SPLINE
  5
1d6
100
AcDbEntity
  8
Layer_1
 62
7
100
AcDbSpline
 70
8
 71
3
 72
8
 73
4
 74
0
 40
0
 40
0
 40
0
 40
0
 40
1
 40
1
 40
1
 40
1
 10
1071.899796
 20
386.290462
 30
0.0
 10
1057.730276
 20
405.262286
 30
0.0
 10
1045.255636
 20
425.573446
 30
0.0
 10
1034.699796
 20
446.990462
 30
0.0
  0
SPLINE
  5
1d7
100
AcDbEntity
  8
Layer_1
 62
7
100
AcDbSpline
 70
8
 71
3
 72
8
 73
4
 74
0
 40
0
 40
0
 40
0
 40
0
 40
1
 40
1
 40
1
 40
1
 10
1034.699796
 20
446.990462
 30
0.0
 10
1034.699796
 20
446.990462
 30
0.0
 10
1038.524756
 20
446.990462
 30
0.0
 10
1038.524756
 20
446.990462
 30
0.0
  0
SPLINE
  5
1d8
100
AcDbEntity
  8
Layer_1
 62
7
100
AcDbSpline
 70
8
 71
3
 72
8
 73
4
 74
0
 40
0
 40
0
 40
0
 40
0
 40
1
 40
1
 40
1
 40
1
 10
1038.524756
 20
446.990462
 30
0.0
 10
1047.443864
 20
446.999309
 30
0.0
 10
1055.486164
 20
452.360842
 30
0.0
 10
1058.924756
 20
460.590462
 30
0.0
  0
LWPOLYLINE
  5
1d9
100
AcDbEntity
  8
Layer_1
 62
7
100
AcDbPolyline
 90
2
 70
0
 10
1111.074836
 20
386.290462
 30
0.0
 10
1071.899796
 20
386.290462
 30
0.0
  0
SPLINE
  5
1da
100
AcDbEntity
  8
Layer_1
 62
7
100
AcDbSpline
 70
8
 71
3
 72
8
 73
4
 74
0
 40
0
 40
0
 40
0
 40
0
 40
1
 40
1
 40
1
 40
1
 10
1135.749796
 20
361.765462
 30
0.0
 10
1160.721556
 20
339.571758
 30
0.0
 10
1189.088516
 20
321.046846
 30
0.0
 10
1219.849796
 20
306.490462
 30
0.0
  0
SPLINE
  5
1db
100
AcDbEntity
  8
Layer_1
 62
7
100
AcDbSpline
 70
8
 71
3
 72
8
 73
4
 74
0
 40
0
 40
0
 40
0
 40
0
 40
1
 40
1
 40
1
 40
1
 10
1219.849796
 20
306.490462
 30
0.0
 10
1219.849796
 20
306.490462
 30
0.0
 10
1219.849796
 20
302.665462
 30
0.0
 10
1219.849796
 20
302.665462
 30
0.0
  0
SPLINE
  5
1dc
100
AcDbEntity
  8
Layer_1
 62
7
100
AcDbSpline
 70
8
 71
3
 72
8
 73
4
 74
0
 40
0
 40
0
 40
0
 40
0
 40
1
 40
1
 40
1
 40
1
 10
1219.849796
 20
302.665462
 30
0.0
 10
1219.854178
 20
290.447962
 30
0.0
 10
1229.757336
 20
280.544822
 30
0.0
 10
1241.974836
 20
280.540462
 30
0.0
  0
SPLINE
  5
1dd
100
AcDbEntity
  8
Layer_1
 62
7
100
AcDbSpline
 70
8
 71
3
 72
8
 73
4
 74
0
 40
0
 40
0
 40
0
 40
0
 40
1
 40
1
 40
1
 40
1
 10
1241.974836
 20
280.540462
 30
0.0
 10
1241.974836
 20
280.540462
 30
0.0
 10
1269.974836
 20
280.540462
 30
0.0
 10
1269.974836
 20
280.540462
 30
0.0
  0
SPLINE
  5
1de
100
AcDbEntity
  8
Layer_1
 62
7
100
AcDbSpline
 70
8
 71
3
 72
8
 73
4
 74
0
 40
0
 40
0
 40
0
 40
0
 40
1
 40
1
 40
1
 40
1
 10
1269.974836
 20
280.540462
 30
0.0
 10
1274.979969
 20
280.544999
 30
0.0
 10
1279.835787
 20
282.245862
 30
0.0
 10
1283.749796
 20
285.365462
 30
0.0
  0
SPLINE
  5
1df
100
AcDbEntity
  8
Layer_1
 62
7
100
AcDbSpline
 70
8
 71
3
 72
8
 73
4
 74
0
 40
0
 40
0
 40
0
 40
0
 40
1
 40
1
 40
1
 40
1
 10
1283.749796
 20
285.365462
 30
0.0
 10
1285.198400
 20
284.213329
 30
0.0
 10
1286.785805
 20
283.247455
 30
0.0
 10
1288.474836
 20
282.490462
 30
0.0
  0
SPLINE
  5
1e0
100
AcDbEntity
  8
Layer_1
 62
7
100
AcDbSpline
 70
8
 71
3
 72
8
 73
4
 74
0
 40
0
 40
0
 40
0
 40
0
 40
1
 40
1
 40
1
 40
1
 10
1288.474836
 20
282.490462
 30
0.0
 10
1281.981368
 20
278.785622
 30
0.0
 10
1277.797033
 20
272.053099
 30
0.0
 10
1277.349796
 20
264.590462
 30
0.0
  0
LWPOLYLINE
  5
1e1
100
AcDbEntity
  8
Layer_1
 62
7
100
AcDbPolyline
 90
2
 70
0
 10
1058.924756
 20
460.590462
 30
0.0
 10
1058.924756
 20
460.590462
 30
0.0
  0
SPLINE
  5
1e2
100
AcDbEntity
  8
Layer_1
 62
7
100
AcDbSpline
 70
8
 71
3
 72
8
 73
4
 74
0
 40
0
 40
0
 40
0
 40
0
 40
1
 40
1
 40
1
 40
1
 10
1223.124756
 20
264.590462
 30
0.0
 10
1184.533396
 20
282.075582
 30
0.0
 10
1149.303156
 20
305.691486
 30
0.0
 10
1118.674836
 20
334.215462
 30
0.0
  0
SPLINE
  5
1e3
100
AcDbEntity
  8
Layer_1
 62
7
100
AcDbSpline
 70
8
 71
3
 72
8
 73
4
 74
0
 40
0
 40
0
 40
0
 40
0
 40
1
 40
1
 40
1
 40
1
 10
1118.674836
 20
334.215462
 30
0.0
 10
1128.670015
 20
336.561715
 30
0.0
 10
1135.739475
 20
345.473603
 30
0.0
 10
1135.749796
 20
355.740462
 30
0.0
  0
LWPOLYLINE
  5
1e4
100
AcDbEntity
  8
Layer_1
 62
7
100
AcDbPolyline
 90
2
 70
0
 10
1277.349796
 20
264.590462
 30
0.0
 10
1223.124756
 20
264.590462
 30
0.0
  0
SPLINE
  5
1e5
100
AcDbEntity
  8
Layer_1
 62
7
100
AcDbSpline
 70
8
 71
3
 72
8
 73
4
 74
0
 40
0
 40
0
 40
0
 40
0
 40
1
 40
1
 40
1
 40
1
 10
1067.619942
 20
697.766086
 30
0.0
 10
1052.578662
 20
696.025222
 30
0.0
 10
1040.367142
 20
685.324990
 30
0.0
 10
1036.744982
 20
671.291086
 30
0.0
  0
SPLINE
  5
1e6
100
AcDbEntity
  8
Layer_1
 62
7
100
AcDbSpline
 70
8
 71
3
 72
8
 73
4
 74
0
 40
0
 40
0
 40
0
 40
0
 40
1
 40
1
 40
1
 40
1
 10
1036.744982
 20
671.291086
 30
0.0
 10
1036.774582
 20
670.823286
 30
0.0
 10
1036.813782
 20
670.358462
 30
0.0
 10
1036.844982
 20
669.891086
 30
0.0
  0
LWPOLYLINE
  5
1e7
100
AcDbEntity
  8
Layer_1
 62
7
100
AcDbPolyline
 90
3
 70
0
 10
1135.749796
 20
355.740462
 30
0.0
 10
1135.749796
 20
361.765462
 30
0.0
 10
1135.749796
 20
361.765462
 30
0.0
  0
SPLINE
  5
1e8
100
AcDbEntity
  8
Layer_1
 62
7
100
AcDbSpline
 70
8
 71
3
 72
8
 73
4
 74
0
 40
0
 40
0
 40
0
 40
0
 40
1
 40
1
 40
1
 40
1
 10
1037.494982
 20
661.441086
 30
0.0
 10
1040.664422
 20
624.873894
 30
0.0
 10
1048.618742
 20
589.682102
 30
0.0
 10
1060.744982
 20
556.491086
 30
0.0
  0
LWPOLYLINE
  5
1e9
100
AcDbEntity
  8
Layer_1
 62
7
100
AcDbPolyline
 90
4
 70
0
 10
1036.844982
 20
669.891086
 30
0.0
 10
1072.819942
 20
669.891086
 30
0.0
 10
1072.819942
 20
661.441086
 30
0.0
 10
1037.494982
 20
661.441086
 30
0.0
  0
SPLINE
  5
1ea
100
AcDbEntity
  8
Layer_1
 62
7
100
AcDbSpline
 70
8
 71
3
 72
8
 73
4
 74
0
 40
0
 40
0
 40
0
 40
0
 40
1
 40
1
 40
1
 40
1
 10
1063.919942
 20
548.066086
 30
0.0
 10
1078.793142
 20
509.989990
 30
0.0
 10
1099.189142
 20
474.676014
 30
0.0
 10
1124.119942
 20
443.116086
 30
0.0
  0
LWPOLYLINE
  5
1eb
100
AcDbEntity
  8
Layer_1
 62
7
100
AcDbPolyline
 90
4
 70
0
 10
1060.744982
 20
556.491086
 30
0.0
 10
1101.719942
 20
556.491086
 30
0.0
 10
1101.719942
 20
548.066086
 30
0.0
 10
1063.919942
 20
548.066086
 30
0.0
  0
SPLINE
  5
1ec
100
AcDbEntity
  8
Layer_1
 62
7
100
AcDbSpline
 70
8
 71
3
 72
8
 73
4
 74
0
 40
0
 40
0
 40
0
 40
0
 40
1
 40
1
 40
1
 40
1
 10
1130.970022
 20
434.691086
 30
0.0
 10
1171.400422
 20
386.193286
 30
0.0
 10
1222.799542
 20
347.154966
 30
0.0
 10
1281.370022
 20
321.416086
 30
0.0
  0
LWPOLYLINE
  5
1ed
100
AcDbEntity
  8
Layer_1
 62
7
100
AcDbPolyline
 90
4
 70
0
 10
1124.119942
 20
443.116086
 30
0.0
 10
1176.819942
 20
443.116086
 30
0.0
 10
1176.819942
 20
434.691086
 30
0.0
 10
1130.970022
 20
434.691086
 30
0.0
  0
SPLINE
  5
1ee
100
AcDbEntity
  8
Layer_1
 62
7
100
AcDbSpline
 70
8
 71
3
 72
8
 73
4
 74
0
 40
0
 40
0
 40
0
 40
0
 40
1
 40
1
 40
1
 40
1
 10
1305.170262
 20
399.566086
 30
0.0
 10
1196.836902
 20
445.489686
 30
0.0
 10
1119.114262
 20
543.788246
 30
0.0
 10
1108.045222
 20
666.866086
 30
0.0
  0
LWPOLYLINE
  5
1ef
100
AcDbEntity
  8
Layer_1
 62
7
100
AcDbPolyline
 90
24
 70
0
 10
1281.370022
 20
321.416086
 30
0.0
 10
1362.644982
 20
321.416086
 30
0.0
 10
1362.644982
 20
331.016086
 30
0.0
 10
1362.620182
 20
331.016086
 30
0.0
 10
1362.620182
 20
331.941086
 30
0.0
 10
1431.320182
 20
331.941086
 30
0.0
 10
1431.320182
 20
331.991086
 30
0.0
 10
1431.495222
 20
331.991086
 30
0.0
 10
1431.495222
 20
332.441086
 30
0.0
 10
1431.495222
 20
342.716086
 30
0.0
 10
1432.420182
 20
342.716086
 30
0.0
 10
1432.420182
 20
370.391086
 30
0.0
 10
1432.420182
 20
370.691086
 30
0.0
 10
1432.420182
 20
381.616086
 30
0.0
 10
1431.520182
 20
381.616086
 30
0.0
 10
1431.520182
 20
398.341086
 30
0.0
 10
1403.995222
 20
398.341086
 30
0.0
 10
1403.995222
 20
381.616086
 30
0.0
 10
1360.695222
 20
381.616086
 30
0.0
 10
1360.695222
 20
398.191086
 30
0.0
 10
1333.170262
 20
398.191086
 30
0.0
 10
1333.170262
 20
389.566086
 30
0.0
 10
1305.170262
 20
389.566086
 30
0.0
 10
1305.170262
 20
399.566086
 30
0.0
  0
SPLINE
  5
1f0
100
AcDbEntity
  8
Layer_1
 62
7
100
AcDbSpline
 70
8
 71
3
 72
8
 73
4
 74
0
 40
0
 40
0
 40
0
 40
0
 40
1
 40
1
 40
1
 40
1
 10
1108.045222
 20
666.441086
 30
0.0
 10
1106.242502
 20
682.817366
 30
0.0
 10
1092.994902
 20
695.846302
 30
0.0
 10
1076.245222
 20
697.766086
 30
0.0
  0
LWPOLYLINE
  5
1f1
100
AcDbEntity
  8
Layer_1
 62
7
100
AcDbPolyline
 90
2
 70
0
 10
1108.045222
 20
666.866086
 30
0.0
 10
1108.045222
 20
666.441086
 30
0.0
  0
SPLINE
  5
1f2
100
AcDbEntity
  8
Layer_1
 62
7
100
AcDbSpline
 70
8
 71
3
 72
8
 73
4
 74
0
 40
0
 40
0
 40
0
 40
0
 40
1
 40
1
 40
1
 40
1
 10
1088.319942
 20
645.641086
 30
0.0
 10
1091.738582
 20
622.241046
 30
0.0
 10
1097.454502
 20
599.729710
 30
0.0
 10
1105.244982
 20
578.316086
 30
0.0
  0
SPLINE
  5
1f3
100
AcDbEntity
  8
Layer_1
 62
7
100
AcDbSpline
 70
8
 71
3
 72
8
 73
4
 74
0
 40
0
 40
0
 40
0
 40
0
 40
1
 40
1
 40
1
 40
1
 10
1105.244982
 20
578.316086
 30
0.0
 10
1104.079856
 20
578.509985
 30
0.0
 10
1102.901078
 20
578.610305
 30
0.0
 10
1101.719942
 20
578.616086
 30
0.0
  0
LWPOLYLINE
  5
1f4
100
AcDbEntity
  8
Layer_1
 62
7
100
AcDbPolyline
 90
3
 70
0
 10
1076.245222
 20
697.766086
 30
0.0
 10
1067.620182
 20
697.766086
 30
0.0
 10
1067.619942
 20
697.766086
 30
0.0
  0
SPLINE
  5
1f5
100
AcDbEntity
  8
Layer_1
 62
7
100
AcDbSpline
 70
8
 71
3
 72
8
 73
4
 74
0
 40
0
 40
0
 40
0
 40
0
 40
1
 40
1
 40
1
 40
1
 10
1076.594982
 20
578.616086
 30
0.0
 10
1070.309302
 20
598.212166
 30
0.0
 10
1065.513062
 20
618.489822
 30
0.0
 10
1062.394982
 20
639.316086
 30
0.0
  0
SPLINE
  5
1f6
100
AcDbEntity
  8
Layer_1
 62
7
100
AcDbSpline
 70
8
 71
3
 72
8
 73
4
 74
0
 40
0
 40
0
 40
0
 40
0
 40
1
 40
1
 40
1
 40
1
 10
1062.394982
 20
639.316086
 30
0.0
 10
1062.394982
 20
639.316086
 30
0.0
 10
1072.819942
 20
639.316086
 30
0.0
 10
1072.819942
 20
639.316086
 30
0.0
  0
SPLINE
  5
1f7
100
AcDbEntity
  8
Layer_1
 62
7
100
AcDbSpline
 70
8
 71
3
 72
8
 73
4
 74
0
 40
0
 40
0
 40
0
 40
0
 40
1
 40
1
 40
1
 40
1
 10
1072.819942
 20
639.316086
 30
0.0
 10
1078.615441
 20
639.313772
 30
0.0
 10
1084.180642
 20
641.584734
 30
0.0
 10
1088.319942
 20
645.641086
 30
0.0
  0
LWPOLYLINE
  5
1f8
100
AcDbEntity
  8
Layer_1
 62
7
100
AcDbPolyline
 90
2
 70
0
 10
1101.719942
 20
578.616086
 30
0.0
 10
1076.594982
 20
578.616086
 30
0.0
  0
SPLINE
  5
1f9
100
AcDbEntity
  8
Layer_1
 62
7
100
AcDbSpline
 70
8
 71
3
 72
8
 73
4
 74
0
 40
0
 40
0
 40
0
 40
0
 40
1
 40
1
 40
1
 40
1
 10
1122.119942
 20
539.541086
 30
0.0
 10
1136.103302
 20
512.341966
 30
0.0
 10
1153.790422
 20
487.510574
 30
0.0
 10
1174.270022
 20
465.241086
 30
0.0
  0
LWPOLYLINE
  5
1fa
100
AcDbEntity
  8
Layer_1
 62
7
100
AcDbPolyline
 90
2
 70
0
 10
1088.319942
 20
645.641086
 30
0.0
 10
1088.319942
 20
645.641086
 30
0.0
  0
SPLINE
  5
1fb
100
AcDbEntity
  8
Layer_1
 62
7
100
AcDbSpline
 70
8
 71
3
 72
8
 73
4
 74
0
 40
0
 40
0
 40
0
 40
0
 40
1
 40
1
 40
1
 40
1
 10
1135.094982
 20
465.241086
 30
0.0
 10
1120.925462
 20
484.212910
 30
0.0
 10
1108.450822
 20
504.524070
 30
0.0
 10
1097.894982
 20
525.941086
 30
0.0
  0
SPLINE
  5
1fc
100
AcDbEntity
  8
Layer_1
 62
7
100
AcDbSpline
 70
8
 71
3
 72
8
 73
4
 74
0
 40
0
 40
0
 40
0
 40
0
 40
1
 40
1
 40
1
 40
1
 10
1097.894982
 20
525.941086
 30
0.0
 10
1097.894982
 20
525.941086
 30
0.0
 10
1101.719942
 20
525.941086
 30
0.0
 10
1101.719942
 20
525.941086
 30
0.0
  0
SPLINE
  5
1fd
100
AcDbEntity
  8
Layer_1
 62
7
100
AcDbSpline
 70
8
 71
3
 72
8
 73
4
 74
0
 40
0
 40
0
 40
0
 40
0
 40
1
 40
1
 40
1
 40
1
 10
1101.719942
 20
525.941086
 30
0.0
 10
1110.639050
 20
525.949933
 30
0.0
 10
1118.681350
 20
531.311466
 30
0.0
 10
1122.119942
 20
539.541086
 30
0.0
  0
LWPOLYLINE
  5
1fe
100
AcDbEntity
  8
Layer_1
 62
7
100
AcDbPolyline
 90
2
 70
0
 10
1174.270022
 20
465.241086
 30
0.0
 10
1135.094982
 20
465.241086
 30
0.0
  0
SPLINE
  5
1ff
100
AcDbEntity
  8
Layer_1
 62
7
100
AcDbSpline
 70
8
 71
3
 72
8
 73
4
 74
0
 40
0
 40
0
 40
0
 40
0
 40
1
 40
1
 40
1
 40
1
 10
1198.944982
 20
440.716086
 30
0.0
 10
1223.916742
 20
418.522382
 30
0.0
 10
1252.283702
 20
399.997470
 30
0.0
 10
1283.044982
 20
385.441086
 30
0.0
  0
SPLINE
  5
200
100
AcDbEntity
  8
Layer_1
 62
7
100
AcDbSpline
 70
8
 71
3
 72
8
 73
4
 74
0
 40
0
 40
0
 40
0
 40
0
 40
1
 40
1
 40
1
 40
1
 10
1283.044982
 20
385.441086
 30
0.0
 10
1283.044982
 20
385.441086
 30
0.0
 10
1283.044982
 20
381.616086
 30
0.0
 10
1283.044982
 20
381.616086
 30
0.0
  0
SPLINE
  5
201
100
AcDbEntity
  8
Layer_1
 62
7
100
AcDbSpline
 70
8
 71
3
 72
8
 73
4
 74
0
 40
0
 40
0
 40
0
 40
0
 40
1
 40
1
 40
1
 40
1
 10
1283.044982
 20
381.616086
 30
0.0
 10
1283.049365
 20
369.398586
 30
0.0
 10
1292.952522
 20
359.495446
 30
0.0
 10
1305.170022
 20
359.491086
 30
0.0
  0
SPLINE
  5
202
100
AcDbEntity
  8
Layer_1
 62
7
100
AcDbSpline
 70
8
 71
3
 72
8
 73
4
 74
0
 40
0
 40
0
 40
0
 40
0
 40
1
 40
1
 40
1
 40
1
 10
1305.170022
 20
359.491086
 30
0.0
 10
1305.170022
 20
359.491086
 30
0.0
 10
1333.170022
 20
359.491086
 30
0.0
 10
1333.170022
 20
359.491086
 30
0.0
  0
SPLINE
  5
203
100
AcDbEntity
  8
Layer_1
 62
7
100
AcDbSpline
 70
8
 71
3
 72
8
 73
4
 74
0
 40
0
 40
0
 40
0
 40
0
 40
1
 40
1
 40
1
 40
1
 10
1333.170022
 20
359.491086
 30
0.0
 10
1338.175155
 20
359.495623
 30
0.0
 10
1343.030973
 20
361.196486
 30
0.0
 10
1346.944982
 20
364.316086
 30
0.0
  0
SPLINE
  5
204
100
AcDbEntity
  8
Layer_1
 62
7
100
AcDbSpline
 70
8
 71
3
 72
8
 73
4
 74
0
 40
0
 40
0
 40
0
 40
0
 40
1
 40
1
 40
1
 40
1
 10
1346.944982
 20
364.316086
 30
0.0
 10
1348.393586
 20
363.163953
 30
0.0
 10
1349.980991
 20
362.198079
 30
0.0
 10
1351.670022
 20
361.441086
 30
0.0
  0
SPLINE
  5
205
100
AcDbEntity
  8
Layer_1
 62
7
100
AcDbSpline
 70
8
 71
3
 72
8
 73
4
 74
0
 40
0
 40
0
 40
0
 40
0
 40
1
 40
1
 40
1
 40
1
 10
1351.670022
 20
361.441086
 30
0.0
 10
1345.176554
 20
357.736246
 30
0.0
 10
1340.992220
 20
351.003723
 30
0.0
 10
1340.544982
 20
343.541086
 30
0.0
  0
LWPOLYLINE
  5
206
100
AcDbEntity
  8
Layer_1
 62
7
100
AcDbPolyline
 90
2
 70
0
 10
1122.119942
 20
539.541086
 30
0.0
 10
1122.119942
 20
539.541086
 30
0.0
  0
SPLINE
  5
207
100
AcDbEntity
  8
Layer_1
 62
7
100
AcDbSpline
 70
8
 71
3
 72
8
 73
4
 74
0
 40
0
 40
0
 40
0
 40
0
 40
1
 40
1
 40
1
 40
1
 10
1286.319942
 20
343.541086
 30
0.0
 10
1247.728582
 20
361.026206
 30
0.0
 10
1212.498342
 20
384.642110
 30
0.0
 10
1181.870022
 20
413.166086
 30
0.0
  0
SPLINE
  5
208
100
AcDbEntity
  8
Layer_1
 62
7
100
AcDbSpline
 70
8
 71
3
 72
8
 73
4
 74
0
 40
0
 40
0
 40
0
 40
0
 40
1
 40
1
 40
1
 40
1
 10
1181.870022
 20
413.166086
 30
0.0
 10
1191.865201
 20
415.512339
 30
0.0
 10
1198.934661
 20
424.424227
 30
0.0
 10
1198.944982
 20
434.691086
 30
0.0
  0
LWPOLYLINE
  5
209
100
AcDbEntity
  8
Layer_1
 62
7
100
AcDbPolyline
 90
2
 70
0
 10
1340.544982
 20
343.541086
 30
0.0
 10
1286.319942
 20
343.541086
 30
0.0
  0
SPLINE
  5
20a
100
AcDbEntity
  8
Layer_1
 62
7
100
AcDbSpline
 70
8
 71
3
 72
8
 73
4
 74
0
 40
0
 40
0
 40
0
 40
0
 40
1
 40
1
 40
1
 40
1
 10
414.482568
 20
572.571334
 30
0.0
 10
336.654488
 20
572.571334
 30
0.0
 10
273.582616
 20
509.499414
 30
0.0
 10
273.582616
 20
431.671326
 30
0.0
  0
SPLINE
  5
20b
100
AcDbEntity
  8
Layer_1
 62
7
100
AcDbSpline
 70
8
 71
3
 72
8
 73
4
 74
0
 40
0
 40
0
 40
0
 40
0
 40
1
 40
1
 40
1
 40
1
 10
273.582616
 20
431.671326
 30
0.0
 10
273.582616
 20
353.843406
 30
0.0
 10
336.654488
 20
290.746366
 30
0.0
 10
414.482568
 20
290.746366
 30
0.0
  0
SPLINE
  5
20c
100
AcDbEntity
  8
Layer_1
 62
7
100
AcDbSpline
 70
8
 71
3
 72
8
 73
4
 74
0
 40
0
 40
0
 40
0
 40
0
 40
1
 40
1
 40
1
 40
1
 10
414.482568
 20
290.746366
 30
0.0
 10
492.310648
 20
290.746366
 30
0.0
 10
555.407608
 20
353.843406
 30
0.0
 10
555.407608
 20
431.671326
 30
0.0
  0
SPLINE
  5
20d
100
AcDbEntity
  8
Layer_1
 62
7
100
AcDbSpline
 70
8
 71
3
 72
8
 73
4
 74
0
 40
0
 40
0
 40
0
 40
0
 40
1
 40
1
 40
1
 40
1
 10
555.407608
 20
431.671326
 30
0.0
 10
555.407608
 20
509.499414
 30
0.0
 10
492.310648
 20
572.571334
 30
0.0
 10
414.482568
 20
572.571334
 30
0.0
  0
LWPOLYLINE
  5
20e
100
AcDbEntity
  8
Layer_1
 62
7
100
AcDbPolyline
 90
3
 70
0
 10
1198.944982
 20
434.691086
 30
0.0
 10
1198.944982
 20
440.716086
 30
0.0
 10
1198.944982
 20
440.716086
 30
0.0
  0
LWPOLYLINE
  5
20f
100
AcDbEntity
  8
Layer_1
 62
7
100
AcDbPolyline
 90
2
 70
0
 10
414.482568
 20
572.571334
 30
0.0
 10
414.482568
 20
572.571334
 30
0.0
  0
LWPOLYLINE
  5
210
100
AcDbEntity
  8
Layer_1
 62
7
100
AcDbPolyline
 90
6
 70
0
 10
410.807608
 20
544.521334
 30
0.0
 10
418.232568
 20
544.521334
 30
0.0
 10
418.232568
 20
517.246294
 30
0.0
 10
410.807608
 20
517.246294
 30
0.0
 10
410.807608
 20
544.521334
 30
0.0
 10
410.807608
 20
544.521334
 30
0.0
  0
LWPOLYLINE
  5
211
100
AcDbEntity
  8
Layer_1
 62
7
100
AcDbPolyline
 90
6
 70
0
 10
337.332624
 20
514.096294
 30
0.0
 10
356.632624
 20
494.796294
 30
0.0
 10
351.382624
 20
489.546286
 30
0.0
 10
332.082624
 20
508.846294
 30
0.0
 10
337.332624
 20
514.096294
 30
0.0
 10
337.332624
 20
514.096294
 30
0.0
  0
LWPOLYLINE
  5
212
100
AcDbEntity
  8
Layer_1
 62
7
100
AcDbPolyline
 90
6
 70
0
 10
491.682568
 20
514.096294
 30
0.0
 10
496.932568
 20
508.846294
 30
0.0
 10
477.657608
 20
489.546286
 30
0.0
 10
472.407608
 20
494.796294
 30
0.0
 10
491.682568
 20
514.096294
 30
0.0
 10
491.682568
 20
514.096294
 30
0.0
  0
SPLINE
  5
213
100
AcDbEntity
  8
Layer_1
 62
7
100
AcDbSpline
 70
8
 71
3
 72
8
 73
4
 74
0
 40
0
 40
0
 40
0
 40
0
 40
1
 40
1
 40
1
 40
1
 10
418.057608
 20
448.096286
 30
0.0
 10
419.926968
 20
447.713806
 30
0.0
 10
421.671288
 20
446.994446
 30
0.0
 10
423.257608
 20
446.046286
 30
0.0
  0
LWPOLYLINE
  5
214
100
AcDbEntity
  8
Layer_1
 62
7
100
AcDbPolyline
 90
3
 70
0
 10
410.632568
 20
473.796286
 30
0.0
 10
418.057608
 20
473.796286
 30
0.0
 10
418.057608
 20
448.096286
 30
0.0
  0
SPLINE
  5
215
100
AcDbEntity
  8
Layer_1
 62
7
100
AcDbSpline
 70
8
 71
3
 72
8
 73
4
 74
0
 40
0
 40
0
 40
0
 40
0
 40
1
 40
1
 40
1
 40
1
 10
428.657608
 20
440.946286
 30
0.0
 10
429.706648
 20
439.368446
 30
0.0
 10
430.489928
 20
437.588686
 30
0.0
 10
430.957608
 20
435.696286
 30
0.0
  0
LWPOLYLINE
  5
216
100
AcDbEntity
  8
Layer_1
 62
7
100
AcDbPolyline
 90
4
 70
0
 10
423.257608
 20
446.046286
 30
0.0
 10
441.457608
 20
464.246286
 30
0.0
 10
446.707608
 20
458.996286
 30
0.0
 10
428.657608
 20
440.946286
 30
0.0
  0
SPLINE
  5
217
100
AcDbEntity
  8
Layer_1
 62
7
100
AcDbSpline
 70
8
 71
3
 72
8
 73
4
 74
0
 40
0
 40
0
 40
0
 40
0
 40
1
 40
1
 40
1
 40
1
 10
431.107608
 20
428.271326
 30
0.0
 10
430.706248
 20
426.323966
 30
0.0
 10
429.945288
 20
424.508126
 30
0.0
 10
428.932568
 20
422.871326
 30
0.0
  0
LWPOLYLINE
  5
218
100
AcDbEntity
  8
Layer_1
 62
7
100
AcDbPolyline
 90
4
 70
0
 10
430.957608
 20
435.696286
 30
0.0
 10
456.507608
 20
435.696286
 30
0.0
 10
456.507608
 20
428.271326
 30
0.0
 10
431.107608
 20
428.271326
 30
0.0
  0
SPLINE
  5
219
100
AcDbEntity
  8
Layer_1
 62
7
100
AcDbSpline
 70
8
 71
3
 72
8
 73
4
 74
0
 40
0
 40
0
 40
0
 40
0
 40
1
 40
1
 40
1
 40
1
 10
423.732568
 20
417.571326
 30
0.0
 10
422.118968
 20
416.533726
 30
0.0
 10
420.311848
 20
415.757246
 30
0.0
 10
418.382568
 20
415.321326
 30
0.0
  0
LWPOLYLINE
  5
21a
100
AcDbEntity
  8
Layer_1
 62
7
100
AcDbPolyline
 90
4
 70
0
 10
428.932568
 20
422.871326
 30
0.0
 10
446.932568
 20
404.871326
 30
0.0
 10
441.682568
 20
399.621326
 30
0.0
 10
423.732568
 20
417.571326
 30
0.0
  0
SPLINE
  5
21b
100
AcDbEntity
  8
Layer_1
 62
7
100
AcDbSpline
 70
8
 71
3
 72
8
 73
4
 74
0
 40
0
 40
0
 40
0
 40
0
 40
1
 40
1
 40
1
 40
1
 10
410.957608
 20
415.321326
 30
0.0
 10
409.056736
 20
415.752526
 30
0.0
 10
407.277536
 20
416.505006
 30
0.0
 10
405.682576
 20
417.521326
 30
0.0
  0
LWPOLYLINE
  5
21c
100
AcDbEntity
  8
Layer_1
 62
7
100
AcDbPolyline
 90
4
 70
0
 10
418.382568
 20
415.321326
 30
0.0
 10
418.382568
 20
389.846366
 30
0.0
 10
410.957608
 20
389.846366
 30
0.0
 10
410.957608
 20
415.321326
 30
0.0
  0
SPLINE
  5
21d
100
AcDbEntity
  8
Layer_1
 62
7
100
AcDbSpline
 70
8
 71
3
 72
8
 73
4
 74
0
 40
0
 40
0
 40
0
 40
0
 40
1
 40
1
 40
1
 40
1
 10
400.457616
 20
422.796286
 30
0.0
 10
399.478336
 20
424.361246
 30
0.0
 10
398.753376
 20
426.091486
 30
0.0
 10
398.332576
 20
427.946286
 30
0.0
  0
LWPOLYLINE
  5
21e
100
AcDbEntity
  8
Layer_1
 62
7
100
AcDbPolyline
 90
4
 70
0
 10
405.682576
 20
417.521326
 30
0.0
 10
387.557616
 20
399.396366
 30
0.0
 10
382.307616
 20
404.646286
 30
0.0
 10
400.457616
 20
422.796286
 30
0.0
  0
SPLINE
  5
21f
100
AcDbEntity
  8
Layer_1
 62
7
100
AcDbSpline
 70
8
 71
3
 72
8
 73
4
 74
0
 40
0
 40
0
 40
0
 40
0
 40
1
 40
1
 40
1
 40
1
 10
398.332576
 20
435.371326
 30
0.0
 10
398.746016
 20
437.201006
 30
0.0
 10
399.450096
 20
438.922526
 30
0.0
 10
400.407616
 20
440.471326
 30
0.0
  0
LWPOLYLINE
  5
220
100
AcDbEntity
  8
Layer_1
 62
7
100
AcDbPolyline
 90
4
 70
0
 10
398.332576
 20
427.946286
 30
0.0
 10
372.532616
 20
427.946286
 30
0.0
 10
372.532616
 20
435.371326
 30
0.0
 10
398.332576
 20
435.371326
 30
0.0
  0
SPLINE
  5
221
100
AcDbEntity
  8
Layer_1
 62
7
100
AcDbSpline
 70
8
 71
3
 72
8
 73
4
 74
0
 40
0
 40
0
 40
0
 40
0
 40
1
 40
1
 40
1
 40
1
 10
405.607616
 20
445.771326
 30
0.0
 10
407.132096
 20
446.754286
 30
0.0
 10
408.822496
 20
447.472766
 30
0.0
 10
410.632568
 20
447.921326
 30
0.0
  0
LWPOLYLINE
  5
222
100
AcDbEntity
  8
Layer_1
 62
7
100
AcDbPolyline
 90
4
 70
0
 10
400.407616
 20
440.471326
 30
0.0
 10
382.082576
 20
458.771326
 30
0.0
 10
387.332576
 20
464.021326
 30
0.0
 10
405.607616
 20
445.771326
 30
0.0
  0
LWPOLYLINE
  5
223
100
AcDbEntity
  8
Layer_1
 62
7
100
AcDbPolyline
 90
3
 70
0
 10
410.632568
 20
447.921326
 30
0.0
 10
410.632568
 20
473.796286
 30
0.0
 10
410.632568
 20
473.796286
 30
0.0
  0
LWPOLYLINE
  5
224
100
AcDbEntity
  8
Layer_1
 62
7
100
AcDbPolyline
 90
6
 70
0
 10
301.657616
 20
435.371326
 30
0.0
 10
328.932624
 20
435.371326
 30
0.0
 10
328.932624
 20
427.946286
 30
0.0
 10
301.657616
 20
427.946286
 30
0.0
 10
301.657616
 20
435.371326
 30
0.0
 10
301.657616
 20
435.371326
 30
0.0
  0
LWPOLYLINE
  5
225
100
AcDbEntity
  8
Layer_1
 62
7
100
AcDbPolyline
 90
6
 70
0
 10
500.082568
 20
435.371326
 30
0.0
 10
527.357608
 20
435.371326
 30
0.0
 10
527.357608
 20
427.946286
 30
0.0
 10
500.082568
 20
427.946286
 30
0.0
 10
500.082568
 20
435.371326
 30
0.0
 10
500.082568
 20
435.371326
 30
0.0
  0
LWPOLYLINE
  5
226
100
AcDbEntity
  8
Layer_1
 62
7
100
AcDbPolyline
 90
6
 70
0
 10
351.382624
 20
373.771326
 30
0.0
 10
356.632624
 20
368.521326
 30
0.0
 10
337.332624
 20
349.246366
 30
0.0
 10
332.082624
 20
354.496366
 30
0.0
 10
351.382624
 20
373.771326
 30
0.0
 10
351.382624
 20
373.771326
 30
0.0
  0
LWPOLYLINE
  5
227
100
AcDbEntity
  8
Layer_1
 62
7
100
AcDbPolyline
 90
6
 70
0
 10
477.657608
 20
373.771326
 30
0.0
 10
496.932568
 20
354.496366
 30
0.0
 10
491.682568
 20
349.246366
 30
0.0
 10
472.407608
 20
368.521326
 30
0.0
 10
477.657608
 20
373.771326
 30
0.0
 10
477.657608
 20
373.771326
 30
0.0
  0
SPLINE
  5
228
100
AcDbEntity
  8
Layer_1
 62
7
100
AcDbSpline
 70
8
 71
3
 72
8
 73
4
 74
0
 40
0
 40
0
 40
0
 40
0
 40
1
 40
1
 40
1
 40
1
 10
1262.082080
 20
601.591046
 30
0.0
 10
1226.888320
 20
601.591046
 30
0.0
 10
1198.357040
 20
573.059398
 30
0.0
 10
1198.357040
 20
537.866046
 30
0.0
  0
SPLINE
  5
229
100
AcDbEntity
  8
Layer_1
 62
7
100
AcDbSpline
 70
8
 71
3
 72
8
 73
4
 74
0
 40
0
 40
0
 40
0
 40
0
 40
1
 40
1
 40
1
 40
1
 10
1198.357040
 20
537.866046
 30
0.0
 10
1198.357040
 20
502.672726
 30
0.0
 10
1226.888320
 20
474.141046
 30
0.0
 10
1262.082080
 20
474.141046
 30
0.0
  0
SPLINE
  5
22a
100
AcDbEntity
  8
Layer_1
 62
7
100
AcDbSpline
 70
8
 71
3
 72
8
 73
4
 74
0
 40
0
 40
0
 40
0
 40
0
 40
1
 40
1
 40
1
 40
1
 10
1262.082080
 20
474.141046
 30
0.0
 10
1297.275760
 20
474.141046
 30
0.0
 10
1325.807040
 20
502.672726
 30
0.0
 10
1325.807040
 20
537.866046
 30
0.0
  0
SPLINE
  5
22b
100
AcDbEntity
  8
Layer_1
 62
7
100
AcDbSpline
 70
8
 71
3
 72
8
 73
4
 74
0
 40
0
 40
0
 40
0
 40
0
 40
1
 40
1
 40
1
 40
1
 10
1325.807040
 20
537.866046
 30
0.0
 10
1325.807040
 20
573.059398
 30
0.0
 10
1297.275760
 20
601.591046
 30
0.0
 10
1262.082080
 20
601.591046
 30
0.0
  0
LWPOLYLINE
  5
22c
100
AcDbEntity
  8
Layer_1
 62
7
100
AcDbPolyline
 90
6
 70
0
 10
410.807608
 20
346.096366
 30
0.0
 10
418.232568
 20
346.096366
 30
0.0
 10
418.232568
 20
318.821406
 30
0.0
 10
410.807608
 20
318.821406
 30
0.0
 10
410.807608
 20
346.096366
 30
0.0
 10
410.807608
 20
346.096366
 30
0.0
  0
LWPOLYLINE
  5
22d
100
AcDbEntity
  8
Layer_1
 62
7
100
AcDbPolyline
 90
2
 70
0
 10
1262.082080
 20
601.591046
 30
0.0
 10
1262.082080
 20
601.591046
 30
0.0
  0
LWPOLYLINE
  5
22e
100
AcDbEntity
  8
Layer_1
 62
7
100
AcDbPolyline
 90
6
 70
0
 10
1258.957040
 20
580.416046
 30
0.0
 10
1266.382080
 20
580.416046
 30
0.0
 10
1266.382080
 20
553.166046
 30
0.0
 10
1258.957040
 20
553.166046
 30
0.0
 10
1258.957040
 20
580.416046
 30
0.0
 10
1258.957040
 20
580.416046
 30
0.0
  0
LWPOLYLINE
  5
22f
100
AcDbEntity
  8
Layer_1
 62
7
100
AcDbPolyline
 90
6
 70
0
 10
1289.782080
 20
570.866046
 30
0.0
 10
1295.032080
 20
565.616046
 30
0.0
 10
1275.757040
 20
546.341046
 30
0.0
 10
1270.507040
 20
551.591046
 30
0.0
 10
1289.782080
 20
570.866046
 30
0.0
 10
1289.782080
 20
570.866046
 30
0.0
  0
SPLINE
  5
230
100
AcDbEntity
  8
Layer_1
 62
7
100
AcDbSpline
 70
8
 71
3
 72
8
 73
4
 74
0
 40
0
 40
0
 40
0
 40
0
 40
1
 40
1
 40
1
 40
1
 10
1262.832080
 20
544.216046
 30
0.0
 10
1268.279120
 20
544.216046
 30
0.0
 10
1269.157040
 20
543.714598
 30
0.0
 10
1269.157040
 20
538.266046
 30
0.0
  0
SPLINE
  5
231
100
AcDbEntity
  8
Layer_1
 62
7
100
AcDbSpline
 70
8
 71
3
 72
8
 73
4
 74
0
 40
0
 40
0
 40
0
 40
0
 40
1
 40
1
 40
1
 40
1
 10
1269.157040
 20
538.266046
 30
0.0
 10
1269.157040
 20
532.817494
 30
0.0
 10
1268.379120
 20
532.166046
 30
0.0
 10
1262.932080
 20
532.166046
 30
0.0
  0
SPLINE
  5
232
100
AcDbEntity
  8
Layer_1
 62
7
100
AcDbSpline
 70
8
 71
3
 72
8
 73
4
 74
0
 40
0
 40
0
 40
0
 40
0
 40
1
 40
1
 40
1
 40
1
 10
1262.932080
 20
532.166046
 30
0.0
 10
1257.485040
 20
532.166046
 30
0.0
 10
1256.682080
 20
532.942494
 30
0.0
 10
1256.682080
 20
538.391046
 30
0.0
  0
SPLINE
  5
233
100
AcDbEntity
  8
Layer_1
 62
7
100
AcDbSpline
 70
8
 71
3
 72
8
 73
4
 74
0
 40
0
 40
0
 40
0
 40
0
 40
1
 40
1
 40
1
 40
1
 10
1256.682080
 20
538.391046
 30
0.0
 10
1256.682080
 20
543.839598
 30
0.0
 10
1257.385040
 20
544.216046
 30
0.0
 10
1262.832080
 20
544.216046
 30
0.0
  0
LWPOLYLINE
  5
234
100
AcDbEntity
  8
Layer_1
 62
7
100
AcDbPolyline
 90
6
 70
0
 10
1235.657040
 20
570.641046
 30
0.0
 10
1254.957040
 20
551.366046
 30
0.0
 10
1249.707040
 20
546.116046
 30
0.0
 10
1230.407040
 20
565.391046
 30
0.0
 10
1235.657040
 20
570.641046
 30
0.0
 10
1235.657040
 20
570.641046
 30
0.0
  0
LWPOLYLINE
  5
235
100
AcDbEntity
  8
Layer_1
 62
7
100
AcDbPolyline
 90
2
 70
0
 10
1262.832080
 20
544.216046
 30
0.0
 10
1262.832080
 20
544.216046
 30
0.0
  0
LWPOLYLINE
  5
236
100
AcDbEntity
  8
Layer_1
 62
7
100
AcDbPolyline
 90
6
 70
0
 10
1277.557040
 20
542.316046
 30
0.0
 10
1304.832080
 20
542.316046
 30
0.0
 10
1304.832080
 20
534.891046
 30
0.0
 10
1277.557040
 20
534.891046
 30
0.0
 10
1277.557040
 20
542.316046
 30
0.0
 10
1277.557040
 20
542.316046
 30
0.0
  0
LWPOLYLINE
  5
237
100
AcDbEntity
  8
Layer_1
 62
7
100
AcDbPolyline
 90
6
 70
0
 10
1220.857040
 20
541.991046
 30
0.0
 10
1248.132080
 20
541.991046
 30
0.0
 10
1248.132080
 20
534.566046
 30
0.0
 10
1220.857040
 20
534.566046
 30
0.0
 10
1220.857040
 20
541.991046
 30
0.0
 10
1220.857040
 20
541.991046
 30
0.0
  0
LWPOLYLINE
  5
238
100
AcDbEntity
  8
Layer_1
 62
7
100
AcDbPolyline
 90
6
 70
0
 10
1275.982080
 20
530.791046
 30
0.0
 10
1295.257040
 20
511.491046
 30
0.0
 10
1290.007040
 20
506.241046
 30
0.0
 10
1270.732080
 20
525.516046
 30
0.0
 10
1275.982080
 20
530.791046
 30
0.0
 10
1275.982080
 20
530.791046
 30
0.0
  0
LWPOLYLINE
  5
239
100
AcDbEntity
  8
Layer_1
 62
7
100
AcDbPolyline
 90
6
 70
0
 10
1249.932080
 20
530.566046
 30
0.0
 10
1255.182080
 20
525.316046
 30
0.0
 10
1235.882080
 20
506.016006
 30
0.0
 10
1230.632080
 20
511.266046
 30
0.0
 10
1249.932080
 20
530.566046
 30
0.0
 10
1249.932080
 20
530.566046
 30
0.0
  0
SPLINE
  5
23a
100
AcDbEntity
  8
Layer_1
 62
7
100
AcDbSpline
 70
8
 71
3
 72
8
 73
4
 74
0
 40
0
 40
0
 40
0
 40
0
 40
1
 40
1
 40
1
 40
1
 10
1212.903520
 20
837.853733
 30
0.0
 10
1000.918240
 20
837.853733
 30
0.0
 10
829.078560
 20
665.988982
 30
0.0
 10
829.078560
 20
454.003686
 30
0.0
  0
SPLINE
  5
23b
100
AcDbEntity
  8
Layer_1
 62
7
100
AcDbSpline
 70
8
 71
3
 72
8
 73
4
 74
0
 40
0
 40
0
 40
0
 40
0
 40
1
 40
1
 40
1
 40
1
 10
829.078560
 20
454.003686
 30
0.0
 10
829.078560
 20
242.018486
 30
0.0
 10
1000.918240
 20
70.178710
 30
0.0
 10
1212.903520
 20
70.178710
 30
0.0
  0
SPLINE
  5
23c
100
AcDbEntity
  8
Layer_1
 62
7
100
AcDbSpline
 70
8
 71
3
 72
8
 73
4
 74
0
 40
0
 40
0
 40
0
 40
0
 40
1
 40
1
 40
1
 40
1
 10
1212.903520
 20
70.178710
 30
0.0
 10
1424.888720
 20
70.178710
 30
0.0
 10
1596.753440
 20
242.018486
 30
0.0
 10
1596.753440
 20
454.003686
 30
0.0
  0
SPLINE
  5
23d
100
AcDbEntity
  8
Layer_1
 62
7
100
AcDbSpline
 70
8
 71
3
 72
8
 73
4
 74
0
 40
0
 40
0
 40
0
 40
0
 40
1
 40
1
 40
1
 40
1
 10
1596.753440
 20
454.003686
 30
0.0
 10
1596.753440
 20
665.988982
 30
0.0
 10
1424.888720
 20
837.853733
 30
0.0
 10
1212.903520
 20
837.853733
 30
0.0
  0
LWPOLYLINE
  5
23e
100
AcDbEntity
  8
Layer_1
 62
7
100
AcDbPolyline
 90
6
 70
0
 10
1259.282080
 20
523.741046
 30
0.0
 10
1266.707040
 20
523.741046
 30
0.0
 10
1266.707040
 20
496.466086
 30
0.0
 10
1259.282080
 20
496.466086
 30
0.0
 10
1259.282080
 20
523.741046
 30
0.0
 10
1259.282080
 20
523.741046
 30
0.0
  0
SPLINE
  5
23f
100
AcDbEntity
  8
Layer_1
 62
7
100
AcDbSpline
 70
8
 71
3
 72
8
 73
4
 74
0
 40
0
 40
0
 40
0
 40
0
 40
1
 40
1
 40
1
 40
1
 10
1240.203520
 20
811.503725
 30
0.0
 10
1317.571360
 20
805.698373
 30
0.0
 10
1388.002480
 20
775.520629
 30
0.0
 10
1443.853440
 20
728.503710
 30
0.0
  0
SPLINE
  5
240
100
AcDbEntity
  8
Layer_1
 62
7
100
AcDbSpline
 70
8
 71
3
 72
8
 73
4
 74
0
 40
0
 40
0
 40
0
 40
0
 40
1
 40
1
 40
1
 40
1
 10
1443.853440
 20
728.503710
 30
0.0
 10
1440.905568
 20
727.247012
 30
0.0
 10
1438.224356
 20
725.439747
 30
0.0
 10
1435.953440
 20
723.178734
 30
0.0
  0
LWPOLYLINE
  5
241
100
AcDbEntity
  8
Layer_1
 62
7
100
AcDbPolyline
 90
2
 70
0
 10
1212.903520
 20
837.853733
 30
0.0
 10
1212.903520
 20
837.853733
 30
0.0
  0
SPLINE
  5
242
100
AcDbEntity
  8
Layer_1
 62
7
100
AcDbSpline
 70
8
 71
3
 72
8
 73
4
 74
0
 40
0
 40
0
 40
0
 40
0
 40
1
 40
1
 40
1
 40
1
 10
1425.778400
 20
713.003694
 30
0.0
 10
1375.007200
 20
755.576590
 30
0.0
 10
1311.262400
 20
783.282325
 30
0.0
 10
1241.453520
 20
789.378733
 30
0.0
  0
SPLINE
  5
243
100
AcDbEntity
  8
Layer_1
 62
7
100
AcDbSpline
 70
8
 71
3
 72
8
 73
4
 74
0
 40
0
 40
0
 40
0
 40
0
 40
1
 40
1
 40
1
 40
1
 10
1241.453520
 20
789.378733
 30
0.0
 10
1241.453520
 20
789.378733
 30
0.0
 10
1241.453520
 20
803.753725
 30
0.0
 10
1241.453520
 20
803.753725
 30
0.0
  0
SPLINE
  5
244
100
AcDbEntity
  8
Layer_1
 62
7
100
AcDbSpline
 70
8
 71
3
 72
8
 73
4
 74
0
 40
0
 40
0
 40
0
 40
0
 40
1
 40
1
 40
1
 40
1
 10
1241.453520
 20
803.753725
 30
0.0
 10
1241.444134
 20
806.386485
 30
0.0
 10
1241.022354
 20
809.001522
 30
0.0
 10
1240.203520
 20
811.503725
 30
0.0
  0
LWPOLYLINE
  5
245
100
AcDbEntity
  8
Layer_1
 62
7
100
AcDbPolyline
 90
2
 70
0
 10
1435.953440
 20
723.178734
 30
0.0
 10
1425.778400
 20
713.003694
 30
0.0
  0
SPLINE
  5
246
100
AcDbEntity
  8
Layer_1
 62
7
100
AcDbSpline
 70
8
 71
3
 72
8
 73
4
 74
0
 40
0
 40
0
 40
0
 40
0
 40
1
 40
1
 40
1
 40
1
 10
1184.253520
 20
811.403725
 30
0.0
 10
1183.461897
 20
808.930751
 30
0.0
 10
1183.057122
 20
806.350311
 30
0.0
 10
1183.053520
 20
803.753725
 30
0.0
  0
LWPOLYLINE
  5
247
100
AcDbEntity
  8
Layer_1
 62
7
100
AcDbPolyline
 90
2
 70
0
 10
1240.203520
 20
811.503725
 30
0.0
 10
1240.203520
 20
811.503725
 30
0.0
  0
SPLINE
  5
248
100
AcDbEntity
  8
Layer_1
 62
7
100
AcDbSpline
 70
8
 71
3
 72
8
 73
4
 74
0
 40
0
 40
0
 40
0
 40
0
 40
1
 40
1
 40
1
 40
1
 10
1183.053520
 20
789.378733
 30
0.0
 10
1113.244720
 20
783.282325
 30
0.0
 10
1049.499840
 20
755.576606
 30
0.0
 10
998.728560
 20
713.003694
 30
0.0
  0
SPLINE
  5
249
100
AcDbEntity
  8
Layer_1
 62
7
100
AcDbSpline
 70
8
 71
3
 72
8
 73
4
 74
0
 40
0
 40
0
 40
0
 40
0
 40
1
 40
1
 40
1
 40
1
 10
998.728560
 20
713.003694
 30
0.0
 10
998.728560
 20
713.003694
 30
0.0
 10
988.553520
 20
723.178734
 30
0.0
 10
988.553520
 20
723.178734
 30
0.0
  0
SPLINE
  5
24a
100
AcDbEntity
  8
Layer_1
 62
7
100
AcDbSpline
 70
8
 71
3
 72
8
 73
4
 74
0
 40
0
 40
0
 40
0
 40
0
 40
1
 40
1
 40
1
 40
1
 10
988.553520
 20
723.178734
 30
0.0
 10
986.504946
 20
725.221017
 30
0.0
 10
984.120131
 20
726.895453
 30
0.0
 10
981.503520
 20
728.128710
 30
0.0
  0
SPLINE
  5
24b
100
AcDbEntity
  8
Layer_1
 62
7
100
AcDbSpline
 70
8
 71
3
 72
8
 73
4
 74
0
 40
0
 40
0
 40
0
 40
0
 40
1
 40
1
 40
1
 40
1
 10
981.503520
 20
728.128710
 30
0.0
 10
1037.096480
 20
775.087181
 30
0.0
 10
1107.209840
 20
805.333597
 30
0.0
 10
1184.253520
 20
811.403725
 30
0.0
  0
LWPOLYLINE
  5
24c
100
AcDbEntity
  8
Layer_1
 62
7
100
AcDbPolyline
 90
2
 70
0
 10
1183.053520
 20
803.753725
 30
0.0
 10
1183.053520
 20
789.378733
 30
0.0
  0
LWPOLYLINE
  5
24d
100
AcDbEntity
  8
Layer_1
 62
7
100
AcDbPolyline
 90
2
 70
0
 10
1184.253520
 20
811.403725
 30
0.0
 10
1184.253520
 20
811.403725
 30
0.0
  0
SPLINE
  5
24e
100
AcDbEntity
  8
Layer_1
 62
7
100
AcDbSpline
 70
8
 71
3
 72
8
 73
4
 74
0
 40
0
 40
0
 40
0
 40
0
 40
1
 40
1
 40
1
 40
1
 10
1216.253520
 20
765.503725
 30
0.0
 10
1298.109120
 20
764.460333
 30
0.0
 10
1372.233440
 20
731.410902
 30
0.0
 10
1426.728480
 20
678.303702
 30
0.0
  0
LWPOLYLINE
  5
24f
100
AcDbEntity
  8
Layer_1
 62
7
100
AcDbPolyline
 90
3
 70
0
 10
1208.253520
 20
803.753725
 30
0.0
 10
1216.253520
 20
803.753725
 30
0.0
 10
1216.253520
 20
765.503725
 30
0.0
  0
SPLINE
  5
250
100
AcDbEntity
  8
Layer_1
 62
7
100
AcDbSpline
 70
8
 71
3
 72
8
 73
4
 74
0
 40
0
 40
0
 40
0
 40
0
 40
1
 40
1
 40
1
 40
1
 10
1432.378400
 20
672.653702
 30
0.0
 10
1485.485600
 20
618.158742
 30
0.0
 10
1518.534960
 20
544.034334
 30
0.0
 10
1519.578400
 20
462.178726
 30
0.0
  0
LWPOLYLINE
  5
251
100
AcDbEntity
  8
Layer_1
 62
7
100
AcDbPolyline
 90
4
 70
0
 10
1426.728480
 20
678.303702
 30
0.0
 10
1453.778400
 20
705.353694
 30
0.0
 10
1459.428480
 20
699.703694
 30
0.0
 10
1432.378400
 20
672.653702
 30
0.0
  0
SPLINE
  5
252
100
AcDbEntity
  8
Layer_1
 62
7
100
AcDbSpline
 70
8
 71
3
 72
8
 73
4
 74
0
 40
0
 40
0
 40
0
 40
0
 40
1
 40
1
 40
1
 40
1
 10
1519.578400
 20
454.178726
 30
0.0
 10
1518.534960
 20
372.323046
 30
0.0
 10
1485.485600
 20
298.198726
 30
0.0
 10
1432.378400
 20
243.703686
 30
0.0
  0
LWPOLYLINE
  5
253
100
AcDbEntity
  8
Layer_1
 62
7
100
AcDbPolyline
 90
4
 70
0
 10
1519.578400
 20
462.178726
 30
0.0
 10
1557.828480
 20
462.178726
 30
0.0
 10
1557.828480
 20
454.178726
 30
0.0
 10
1519.578400
 20
454.178726
 30
0.0
  0
SPLINE
  5
254
100
AcDbEntity
  8
Layer_1
 62
7
100
AcDbSpline
 70
8
 71
3
 72
8
 73
4
 74
0
 40
0
 40
0
 40
0
 40
0
 40
1
 40
1
 40
1
 40
1
 10
1426.728480
 20
238.053686
 30
0.0
 10
1372.233440
 20
184.946582
 30
0.0
 10
1298.109120
 20
151.897142
 30
0.0
 10
1216.253520
 20
150.853702
 30
0.0
  0
LWPOLYLINE
  5
255
100
AcDbEntity
  8
Layer_1
 62
7
100
AcDbPolyline
 90
4
 70
0
 10
1432.378400
 20
243.703686
 30
0.0
 10
1459.428480
 20
216.653686
 30
0.0
 10
1453.778400
 20
211.003686
 30
0.0
 10
1426.728480
 20
238.053686
 30
0.0
  0
SPLINE
  5
256
100
AcDbEntity
  8
Layer_1
 62
7
100
AcDbSpline
 70
8
 71
3
 72
8
 73
4
 74
0
 40
0
 40
0
 40
0
 40
0
 40
1
 40
1
 40
1
 40
1
 10
1208.253520
 20
150.853702
 30
0.0
 10
1126.397920
 20
151.897142
 30
0.0
 10
1052.273520
 20
184.946582
 30
0.0
 10
997.778560
 20
238.053686
 30
0.0
  0
LWPOLYLINE
  5
257
100
AcDbEntity
  8
Layer_1
 62
7
100
AcDbPolyline
 90
4
 70
0
 10
1216.253520
 20
150.853702
 30
0.0
 10
1216.253520
 20
112.603702
 30
0.0
 10
1208.253520
 20
112.603702
 30
0.0
 10
1208.253520
 20
150.853702
 30
0.0
  0
SPLINE
  5
258
100
AcDbEntity
  8
Layer_1
 62
7
100
AcDbSpline
 70
8
 71
3
 72
8
 73
4
 74
0
 40
0
 40
0
 40
0
 40
0
 40
1
 40
1
 40
1
 40
1
 10
992.128560
 20
243.703686
 30
0.0
 10
939.021360
 20
298.198726
 30
0.0
 10
905.971920
 20
372.323046
 30
0.0
 10
904.928560
 20
454.178726
 30
0.0
  0
LWPOLYLINE
  5
259
100
AcDbEntity
  8
Layer_1
 62
7
100
AcDbPolyline
 90
4
 70
0
 10
997.778560
 20
238.053686
 30
0.0
 10
970.728560
 20
211.003686
 30
0.0
 10
965.078560
 20
216.653686
 30
0.0
 10
992.128560
 20
243.703686
 30
0.0
  0
SPLINE
  5
25a
100
AcDbEntity
  8
Layer_1
 62
7
100
AcDbSpline
 70
8
 71
3
 72
8
 73
4
 74
0
 40
0
 40
0
 40
0
 40
0
 40
1
 40
1
 40
1
 40
1
 10
904.928560
 20
462.178726
 30
0.0
 10
905.971920
 20
544.034334
 30
0.0
 10
939.021360
 20
618.158742
 30
0.0
 10
992.128560
 20
672.653702
 30
0.0
  0
LWPOLYLINE
  5
25b
100
AcDbEntity
  8
Layer_1
 62
7
100
AcDbPolyline
 90
4
 70
0
 10
904.928560
 20
454.178726
 30
0.0
 10
866.678560
 20
454.178726
 30
0.0
 10
866.678560
 20
462.178726
 30
0.0
 10
904.928560
 20
462.178726
 30
0.0
  0
SPLINE
  5
25c
100
AcDbEntity
  8
Layer_1
 62
7
100
AcDbSpline
 70
8
 71
3
 72
8
 73
4
 74
0
 40
0
 40
0
 40
0
 40
0
 40
1
 40
1
 40
1
 40
1
 10
997.778560
 20
678.303702
 30
0.0
 10
1052.273520
 20
731.410902
 30
0.0
 10
1126.397920
 20
764.460333
 30
0.0
 10
1208.253520
 20
765.503725
 30
0.0
  0
LWPOLYLINE
  5
25d
100
AcDbEntity
  8
Layer_1
 62
7
100
AcDbPolyline
 90
4
 70
0
 10
992.128560
 20
672.653702
 30
0.0
 10
965.078560
 20
699.703694
 30
0.0
 10
970.728560
 20
705.353694
 30
0.0
 10
997.778560
 20
678.303702
 30
0.0
  0
SPLINE
  5
25e
100
AcDbEntity
  8
Layer_1
 62
7
100
AcDbSpline
 70
8
 71
3
 72
8
 73
4
 74
0
 40
0
 40
0
 40
0
 40
0
 40
1
 40
1
 40
1
 40
1
 10
1482.778400
 20
690.278734
 30
0.0
 10
1531.831600
 20
634.275462
 30
0.0
 10
1563.676320
 20
562.874974
 30
0.0
 10
1570.203440
 20
484.128726
 30
0.0
  0
SPLINE
  5
25f
100
AcDbEntity
  8
Layer_1
 62
7
100
AcDbSpline
 70
8
 71
3
 72
8
 73
4
 74
0
 40
0
 40
0
 40
0
 40
0
 40
1
 40
1
 40
1
 40
1
 10
1570.203440
 20
484.128726
 30
0.0
 10
1566.426616
 20
486.258324
 30
0.0
 10
1562.164329
 20
487.377716
 30
0.0
 10
1557.828480
 20
487.378726
 30
0.0
  0
LWPOLYLINE
  5
260
100
AcDbEntity
  8
Layer_1
 62
7
100
AcDbPolyline
 90
3
 70
0
 10
1208.253520
 20
765.503725
 30
0.0
 10
1208.253520
 20
803.753725
 30
0.0
 10
1208.253520
 20
803.753725
 30
0.0
  0
SPLINE
  5
261
100
AcDbEntity
  8
Layer_1
 62
7
100
AcDbSpline
 70
8
 71
3
 72
8
 73
4
 74
0
 40
0
 40
0
 40
0
 40
0
 40
1
 40
1
 40
1
 40
1
 10
1543.453440
 20
487.378726
 30
0.0
 10
1537.357040
 20
557.187534
 30
0.0
 10
1509.651440
 20
620.932422
 30
0.0
 10
1467.078400
 20
671.703702
 30
0.0
  0
SPLINE
  5
262
100
AcDbEntity
  8
Layer_1
 62
7
100
AcDbSpline
 70
8
 71
3
 72
8
 73
4
 74
0
 40
0
 40
0
 40
0
 40
0
 40
1
 40
1
 40
1
 40
1
 10
1467.078400
 20
671.703702
 30
0.0
 10
1467.078400
 20
671.703702
 30
0.0
 10
1477.253440
 20
681.878742
 30
0.0
 10
1477.253440
 20
681.878742
 30
0.0
  0
SPLINE
  5
263
100
AcDbEntity
  8
Layer_1
 62
7
100
AcDbSpline
 70
8
 71
3
 72
8
 73
4
 74
0
 40
0
 40
0
 40
0
 40
0
 40
1
 40
1
 40
1
 40
1
 10
1477.253440
 20
681.878742
 30
0.0
 10
1479.640473
 20
684.279328
 30
0.0
 10
1481.519496
 20
687.136141
 30
0.0
 10
1482.778400
 20
690.278734
 30
0.0
  0
LWPOLYLINE
  5
264
100
AcDbEntity
  8
Layer_1
 62
7
100
AcDbPolyline
 90
2
 70
0
 10
1557.828480
 20
487.378726
 30
0.0
 10
1543.453440
 20
487.378726
 30
0.0
  0
SPLINE
  5
265
100
AcDbEntity
  8
Layer_1
 62
7
100
AcDbSpline
 70
8
 71
3
 72
8
 73
4
 74
0
 40
0
 40
0
 40
0
 40
0
 40
1
 40
1
 40
1
 40
1
 10
942.153520
 20
689.278742
 30
0.0
 10
943.396522
 20
686.526491
 30
0.0
 10
945.123972
 20
684.019995
 30
0.0
 10
947.253520
 20
681.878742
 30
0.0
  0
LWPOLYLINE
  5
266
100
AcDbEntity
  8
Layer_1
 62
7
100
AcDbPolyline
 90
2
 70
0
 10
1482.778400
 20
690.278734
 30
0.0
 10
1482.778400
 20
690.278734
 30
0.0
  0
SPLINE
  5
267
100
AcDbEntity
  8
Layer_1
 62
7
100
AcDbSpline
 70
8
 71
3
 72
8
 73
4
 74
0
 40
0
 40
0
 40
0
 40
0
 40
1
 40
1
 40
1
 40
1
 10
957.428560
 20
671.703702
 30
0.0
 10
914.855680
 20
620.932422
 30
0.0
 10
887.149840
 20
557.187534
 30
0.0
 10
881.053440
 20
487.378726
 30
0.0
  0
SPLINE
  5
268
100
AcDbEntity
  8
Layer_1
 62
7
100
AcDbSpline
 70
8
 71
3
 72
8
 73
4
 74
0
 40
0
 40
0
 40
0
 40
0
 40
1
 40
1
 40
1
 40
1
 10
881.053440
 20
487.378726
 30
0.0
 10
881.053440
 20
487.378726
 30
0.0
 10
866.678560
 20
487.378726
 30
0.0
 10
866.678560
 20
487.378726
 30
0.0
  0
SPLINE
  5
269
100
AcDbEntity
  8
Layer_1
 62
7
100
AcDbSpline
 70
8
 71
3
 72
8
 73
4
 74
0
 40
0
 40
0
 40
0
 40
0
 40
1
 40
1
 40
1
 40
1
 10
866.678560
 20
487.378726
 30
0.0
 10
862.868176
 20
487.379255
 30
0.0
 10
859.107254
 20
486.515938
 30
0.0
 10
855.678560
 20
484.853686
 30
0.0
  0
SPLINE
  5
26a
100
AcDbEntity
  8
Layer_1
 62
7
100
AcDbSpline
 70
8
 71
3
 72
8
 73
4
 74
0
 40
0
 40
0
 40
0
 40
0
 40
1
 40
1
 40
1
 40
1
 10
855.678560
 20
484.853686
 30
0.0
 10
862.299200
 20
562.844334
 30
0.0
 10
893.753040
 20
633.599062
 30
0.0
 10
942.153520
 20
689.278742
 30
0.0
  0
LWPOLYLINE
  5
26b
100
AcDbEntity
  8
Layer_1
 62
7
100
AcDbPolyline
 90
2
 70
0
 10
947.253520
 20
681.878742
 30
0.0
 10
957.428560
 20
671.703702
 30
0.0
  0
SPLINE
  5
26c
100
AcDbEntity
  8
Layer_1
 62
7
100
AcDbSpline
 70
8
 71
3
 72
8
 73
4
 74
0
 40
0
 40
0
 40
0
 40
0
 40
1
 40
1
 40
1
 40
1
 10
1570.853440
 20
432.628726
 30
0.0
 10
1566.089840
 20
351.313766
 30
0.0
 10
1534.349280
 20
277.397526
 30
0.0
 10
1484.428480
 20
219.603686
 30
0.0
  0
SPLINE
  5
26d
100
AcDbEntity
  8
Layer_1
 62
7
100
AcDbSpline
 70
8
 71
3
 72
8
 73
4
 74
0
 40
0
 40
0
 40
0
 40
0
 40
1
 40
1
 40
1
 40
1
 10
1484.428480
 20
219.603686
 30
0.0
 10
1483.775021
 20
225.227063
 30
0.0
 10
1481.247628
 20
230.466765
 30
0.0
 10
1477.253440
 20
234.478726
 30
0.0
  0
LWPOLYLINE
  5
26e
100
AcDbEntity
  8
Layer_1
 62
7
100
AcDbPolyline
 90
2
 70
0
 10
942.153520
 20
689.278742
 30
0.0
 10
942.153520
 20
689.278742
 30
0.0
  0
SPLINE
  5
26f
100
AcDbEntity
  8
Layer_1
 62
7
100
AcDbSpline
 70
8
 71
3
 72
8
 73
4
 74
0
 40
0
 40
0
 40
0
 40
0
 40
1
 40
1
 40
1
 40
1
 10
1467.078400
 20
244.653686
 30
0.0
 10
1509.651440
 20
295.425046
 30
0.0
 10
1537.357040
 20
359.169846
 30
0.0
 10
1543.453440
 20
428.978726
 30
0.0
  0
SPLINE
  5
270
100
AcDbEntity
  8
Layer_1
 62
7
100
AcDbSpline
 70
8
 71
3
 72
8
 73
4
 74
0
 40
0
 40
0
 40
0
 40
0
 40
1
 40
1
 40
1
 40
1
 10
1543.453440
 20
428.978726
 30
0.0
 10
1543.453440
 20
428.978726
 30
0.0
 10
1557.828480
 20
428.978726
 30
0.0
 10
1557.828480
 20
428.978726
 30
0.0
  0
SPLINE
  5
271
100
AcDbEntity
  8
Layer_1
 62
7
100
AcDbSpline
 70
8
 71
3
 72
8
 73
4
 74
0
 40
0
 40
0
 40
0
 40
0
 40
1
 40
1
 40
1
 40
1
 10
1557.828480
 20
428.978726
 30
0.0
 10
1562.421588
 20
428.986008
 30
0.0
 10
1566.925411
 20
430.248120
 30
0.0
 10
1570.853440
 20
432.628726
 30
0.0
  0
LWPOLYLINE
  5
272
100
AcDbEntity
  8
Layer_1
 62
7
100
AcDbPolyline
 90
2
 70
0
 10
1477.253440
 20
234.478726
 30
0.0
 10
1467.078400
 20
244.653686
 30
0.0
  0
SPLINE
  5
273
100
AcDbEntity
  8
Layer_1
 62
7
100
AcDbSpline
 70
8
 71
3
 72
8
 73
4
 74
0
 40
0
 40
0
 40
0
 40
0
 40
1
 40
1
 40
1
 40
1
 10
855.028560
 20
431.853686
 30
0.0
 10
858.623858
 20
429.971566
 30
0.0
 10
862.620420
 20
428.985304
 30
0.0
 10
866.678560
 20
428.978726
 30
0.0
  0
LWPOLYLINE
  5
274
100
AcDbEntity
  8
Layer_1
 62
7
100
AcDbPolyline
 90
2
 70
0
 10
1570.853440
 20
432.628726
 30
0.0
 10
1570.853440
 20
432.628726
 30
0.0
  0
SPLINE
  5
275
100
AcDbEntity
  8
Layer_1
 62
7
100
AcDbSpline
 70
8
 71
3
 72
8
 73
4
 74
0
 40
0
 40
0
 40
0
 40
0
 40
1
 40
1
 40
1
 40
1
 10
881.053440
 20
428.978726
 30
0.0
 10
887.149840
 20
359.169846
 30
0.0
 10
914.855680
 20
295.425046
 30
0.0
 10
957.428560
 20
244.653686
 30
0.0
  0
LWPOLYLINE
  5
276
100
AcDbEntity
  8
Layer_1
 62
7
100
AcDbPolyline
 90
2
 70
0
 10
866.678560
 20
428.978726
 30
0.0
 10
881.053440
 20
428.978726
 30
0.0
  0
SPLINE
  5
277
100
AcDbEntity
  8
Layer_1
 62
7
100
AcDbSpline
 70
8
 71
3
 72
8
 73
4
 74
0
 40
0
 40
0
 40
0
 40
0
 40
1
 40
1
 40
1
 40
1
 10
947.253520
 20
234.478726
 30
0.0
 10
943.577013
 20
230.793223
 30
0.0
 10
941.131726
 20
226.059846
 30
0.0
 10
940.253520
 20
220.928726
 30
0.0
  0
SPLINE
  5
278
100
AcDbEntity
  8
Layer_1
 62
7
100
AcDbSpline
 70
8
 71
3
 72
8
 73
4
 74
0
 40
0
 40
0
 40
0
 40
0
 40
1
 40
1
 40
1
 40
1
 10
940.253520
 20
220.928726
 30
0.0
 10
891.152720
 20
278.340566
 30
0.0
 10
859.909840
 20
351.464326
 30
0.0
 10
855.028560
 20
431.853686
 30
0.0
  0
LWPOLYLINE
  5
279
100
AcDbEntity
  8
Layer_1
 62
7
100
AcDbPolyline
 90
2
 70
0
 10
957.428560
 20
244.653686
 30
0.0
 10
947.253520
 20
234.478726
 30
0.0
  0
SPLINE
  5
27a
100
AcDbEntity
  8
Layer_1
 62
7
100
AcDbSpline
 70
8
 71
3
 72
8
 73
4
 74
0
 40
0
 40
0
 40
0
 40
0
 40
1
 40
1
 40
1
 40
1
 10
998.728560
 20
203.353702
 30
0.0
 10
1049.499840
 20
160.780822
 30
0.0
 10
1113.244720
 20
133.075142
 30
0.0
 10
1183.053520
 20
126.978742
 30
0.0
  0
SPLINE
  5
27b
100
AcDbEntity
  8
Layer_1
 62
7
100
AcDbSpline
 70
8
 71
3
 72
8
 73
4
 74
0
 40
0
 40
0
 40
0
 40
0
 40
1
 40
1
 40
1
 40
1
 10
1183.053520
 20
126.978742
 30
0.0
 10
1183.053520
 20
126.978742
 30
0.0
 10
1183.053520
 20
112.603702
 30
0.0
 10
1183.053520
 20
112.603702
 30
0.0
  0
SPLINE
  5
27c
100
AcDbEntity
  8
Layer_1
 62
7
100
AcDbSpline
 70
8
 71
3
 72
8
 73
4
 74
0
 40
0
 40
0
 40
0
 40
0
 40
1
 40
1
 40
1
 40
1
 10
1183.053520
 20
112.603702
 30
0.0
 10
1183.061392
 20
106.607592
 30
0.0
 10
1185.206432
 20
100.810655
 30
0.0
 10
1189.103520
 20
96.253670
 30
0.0
  0
SPLINE
  5
27d
100
AcDbEntity
  8
Layer_1
 62
7
100
AcDbSpline
 70
8
 71
3
 72
8
 73
4
 74
0
 40
0
 40
0
 40
0
 40
0
 40
1
 40
1
 40
1
 40
1
 10
1189.103520
 20
96.253670
 30
0.0
 10
1106.794640
 20
101.628550
 30
0.0
 10
1032.166720
 20
134.605302
 30
0.0
 10
974.353520
 20
186.103702
 30
0.0
  0
SPLINE
  5
27e
100
AcDbEntity
  8
Layer_1
 62
7
100
AcDbSpline
 70
8
 71
3
 72
8
 73
4
 74
0
 40
0
 40
0
 40
0
 40
0
 40
1
 40
1
 40
1
 40
1
 10
974.353520
 20
186.103702
 30
0.0
 10
979.724970
 20
186.872227
 30
0.0
 10
984.705050
 20
189.353513
 30
0.0
 10
988.553520
 20
193.178742
 30
0.0
  0
LWPOLYLINE
  5
27f
100
AcDbEntity
  8
Layer_1
 62
7
100
AcDbPolyline
 90
2
 70
0
 10
855.028560
 20
431.853686
 30
0.0
 10
855.028560
 20
431.853686
 30
0.0
  0
LWPOLYLINE
  5
280
100
AcDbEntity
  8
Layer_1
 62
7
100
AcDbPolyline
 90
3
 70
0
 10
988.553520
 20
193.178742
 30
0.0
 10
998.728560
 20
203.353702
 30
0.0
 10
998.728560
 20
203.353702
 30
0.0
  0
SPLINE
  5
281
100
AcDbEntity
  8
Layer_1
 62
7
100
AcDbSpline
 70
8
 71
3
 72
8
 73
4
 74
0
 40
0
 40
0
 40
0
 40
0
 40
1
 40
1
 40
1
 40
1
 10
1435.953440
 20
193.178742
 30
0.0
 10
1440.071503
 20
189.065215
 30
0.0
 10
1445.486242
 20
186.503587
 30
0.0
 10
1451.278400
 20
185.928742
 30
0.0
  0
SPLINE
  5
282
100
AcDbEntity
  8
Layer_1
 62
7
100
AcDbSpline
 70
8
 71
3
 72
8
 73
4
 74
0
 40
0
 40
0
 40
0
 40
0
 40
1
 40
1
 40
1
 40
1
 10
1451.278400
 20
185.928742
 30
0.0
 10
1393.163040
 20
134.236982
 30
0.0
 10
1318.095520
 20
101.242630
 30
0.0
 10
1235.328560
 20
96.153670
 30
0.0
  0
SPLINE
  5
283
100
AcDbEntity
  8
Layer_1
 62
7
100
AcDbSpline
 70
8
 71
3
 72
8
 73
4
 74
0
 40
0
 40
0
 40
0
 40
0
 40
1
 40
1
 40
1
 40
1
 10
1235.328560
 20
96.153670
 30
0.0
 10
1239.275120
 20
100.726103
 30
0.0
 10
1241.448649
 20
106.563632
 30
0.0
 10
1241.453520
 20
112.603702
 30
0.0
  0
LWPOLYLINE
  5
284
100
AcDbEntity
  8
Layer_1
 62
7
100
AcDbPolyline
 90
2
 70
0
 10
1425.778400
 20
203.353702
 30
0.0
 10
1435.953440
 20
193.178742
 30
0.0
  0
SPLINE
  5
285
100
AcDbEntity
  8
Layer_1
 62
7
100
AcDbSpline
 70
8
 71
3
 72
8
 73
4
 74
0
 40
0
 40
0
 40
0
 40
0
 40
1
 40
1
 40
1
 40
1
 10
1241.453520
 20
126.978742
 30
0.0
 10
1311.262400
 20
133.075142
 30
0.0
 10
1375.007200
 20
160.780822
 30
0.0
 10
1425.778400
 20
203.353702
 30
0.0
  0
LWPOLYLINE
  5
286
100
AcDbEntity
  8
Layer_1
 62
7
100
AcDbPolyline
 90
2
 70
0
 10
1241.453520
 20
112.603702
 30
0.0
 10
1241.453520
 20
126.978742
 30
0.0
  0
SPLINE
  5
287
100
AcDbEntity
  8
Layer_1
 62
7
100
AcDbSpline
 70
8
 71
3
 72
8
 73
4
 74
0
 40
0
 40
0
 40
0
 40
0
 40
1
 40
1
 40
1
 40
1
 10
1691.091049
 20
316.427760
 30
0.0
 10
1703.947591
 20
308.429008
 30
0.0
 10
1720.165342
 20
309.204086
 30
0.0
 10
1731.734856
 20
317.934312
 30
0.0
  0
SPLINE
  5
288
100
AcDbEntity
  8
Layer_1
 62
7
100
AcDbSpline
 70
8
 71
3
 72
8
 73
4
 74
0
 40
0
 40
0
 40
0
 40
0
 40
1
 40
1
 40
1
 40
1
 10
1731.734856
 20
317.934312
 30
0.0
 10
1732.002836
 20
318.318889
 30
0.0
 10
1732.261449
 20
318.707112
 30
0.0
 10
1732.527913
 20
319.092354
 30
0.0
  0
LWPOLYLINE
  5
289
100
AcDbEntity
  8
Layer_1
 62
7
100
AcDbPolyline
 90
2
 70
0
 10
1425.778400
 20
203.353702
 30
0.0
 10
1425.778400
 20
203.353702
 30
0.0
  0
SPLINE
  5
28a
100
AcDbEntity
  8
Layer_1
 62
7
100
AcDbSpline
 70
8
 71
3
 72
8
 73
4
 74
0
 40
0
 40
0
 40
0
 40
0
 40
1
 40
1
 40
1
 40
1
 10
1737.278238
 20
326.110859
 30
0.0
 10
1757.556065
 20
356.705214
 30
0.0
 10
1773.232666
 20
389.201023
 30
0.0
 10
1784.398596
 20
422.727300
 30
0.0
  0
LWPOLYLINE
  5
28b
100
AcDbEntity
  8
Layer_1
 62
7
100
AcDbPolyline
 90
4
 70
0
 10
1732.527913
 20
319.092354
 30
0.0
 10
1704.369696
 20
341.482364
 30
0.0
 10
1709.628787
 20
348.096323
 30
0.0
 10
1737.278238
 20
326.110859
 30
0.0
  0
SPLINE
  5
28c
100
AcDbEntity
  8
Layer_1
 62
7
100
AcDbSpline
 70
8
 71
3
 72
8
 73
4
 74
0
 40
0
 40
0
 40
0
 40
0
 40
1
 40
1
 40
1
 40
1
 10
1787.157032
 20
431.297716
 30
0.0
 10
1799.213234
 20
470.357275
 30
0.0
 10
1805.227564
 20
510.692142
 30
0.0
 10
1805.355992
 20
550.911010
 30
0.0
  0
LWPOLYLINE
  5
28d
100
AcDbEntity
  8
Layer_1
 62
7
100
AcDbPolyline
 90
4
 70
0
 10
1784.398596
 20
422.727300
 30
0.0
 10
1752.326793
 20
448.229198
 30
0.0
 10
1757.570325
 20
454.823590
 30
0.0
 10
1787.157032
 20
431.297716
 30
0.0
  0
SPLINE
  5
28e
100
AcDbEntity
  8
Layer_1
 62
7
100
AcDbSpline
 70
8
 71
3
 72
8
 73
4
 74
0
 40
0
 40
0
 40
0
 40
0
 40
1
 40
1
 40
1
 40
1
 10
1805.237849
 20
561.768739
 30
0.0
 10
1803.776228
 20
624.891773
 30
0.0
 10
1787.841834
 20
687.437396
 30
0.0
 10
1758.017019
 20
744.036614
 30
0.0
  0
LWPOLYLINE
  5
28f
100
AcDbEntity
  8
Layer_1
 62
7
100
AcDbPolyline
 90
4
 70
0
 10
1805.355992
 20
550.911010
 30
0.0
 10
1764.106800
 20
583.710311
 30
0.0
 10
1769.350332
 20
590.304703
 30
0.0
 10
1805.237849
 20
561.768739
 30
0.0
  0
SPLINE
  5
290
100
AcDbEntity
  8
Layer_1
 62
7
100
AcDbSpline
 70
8
 71
3
 72
8
 73
4
 74
0
 40
0
 40
0
 40
0
 40
0
 40
1
 40
1
 40
1
 40
1
 10
1690.749353
 20
697.680008
 30
0.0
 10
1746.961907
 20
594.310562
 30
0.0
 10
1746.617925
 20
468.997764
 30
0.0
 10
1678.680959
 20
365.773509
 30
0.0
  0
LWPOLYLINE
  5
291
100
AcDbEntity
  8
Layer_1
 62
7
100
AcDbPolyline
 90
24
 70
0
 10
1758.017019
 20
744.036614
 30
0.0
 10
1694.401716
 20
794.620331
 30
0.0
 10
1688.426891
 20
787.106246
 30
0.0
 10
1688.446303
 20
787.090811
 30
0.0
 10
1687.870603
 20
786.366798
 30
0.0
 10
1634.097937
 20
829.124140
 30
0.0
 10
1634.066818
 20
829.085005
 30
0.0
 10
1633.929812
 20
829.193946
 30
0.0
 10
1633.649742
 20
828.841723
 30
0.0
 10
1627.254812
 20
820.799304
 30
0.0
 10
1626.530830
 20
821.374979
 30
0.0
 10
1609.306529
 20
799.713283
 30
0.0
 10
1609.119816
 20
799.478467
 30
0.0
 10
1602.320340
 20
790.927283
 30
0.0
 10
1603.024786
 20
790.367143
 30
0.0
 10
1592.615520
 20
777.276199
 30
0.0
 10
1614.159777
 20
760.145280
 30
0.0
 10
1624.569043
 20
773.236224
 30
0.0
 10
1658.460694
 20
746.287273
 30
0.0
 10
1648.144785
 20
733.313737
 30
0.0
 10
1669.689043
 20
716.182818
 30
0.0
 10
1675.057050
 20
722.933753
 30
0.0
 10
1696.973129
 20
705.507179
 30
0.0
 10
1690.749353
 20
697.680008
 30
0.0
  0
SPLINE
  5
292
100
AcDbEntity
  8
Layer_1
 62
7
100
AcDbSpline
 70
8
 71
3
 72
8
 73
4
 74
0
 40
0
 40
0
 40
0
 40
0
 40
1
 40
1
 40
1
 40
1
 10
1678.945469
 20
366.106164
 30
0.0
 10
1670.164259
 20
352.166196
 30
0.0
 10
1672.424464
 20
333.723215
 30
0.0
 10
1684.339894
 20
321.795942
 30
0.0
  0
LWPOLYLINE
  5
293
100
AcDbEntity
  8
Layer_1
 62
7
100
AcDbPolyline
 90
2
 70
0
 10
1678.680959
 20
365.773509
 30
0.0
 10
1678.945469
 20
366.106164
 30
0.0
  0
SPLINE
  5
294
100
AcDbEntity
  8
Layer_1
 62
7
100
AcDbSpline
 70
8
 71
3
 72
8
 73
4
 74
0
 40
0
 40
0
 40
0
 40
0
 40
1
 40
1
 40
1
 40
1
 10
1707.330238
 20
370.110107
 30
0.0
 10
1719.218071
 20
390.553404
 30
0.0
 10
1728.754674
 20
411.730873
 30
0.0
 10
1735.984293
 20
433.340303
 30
0.0
  0
SPLINE
  5
295
100
AcDbEntity
  8
Layer_1
 62
7
100
AcDbSpline
 70
8
 71
3
 72
8
 73
4
 74
0
 40
0
 40
0
 40
0
 40
0
 40
1
 40
1
 40
1
 40
1
 10
1735.984293
 20
433.340303
 30
0.0
 10
1736.775578
 20
432.463387
 30
0.0
 10
1737.635791
 20
431.651219
 30
0.0
 10
1738.556688
 20
430.911582
 30
0.0
  0
LWPOLYLINE
  5
296
100
AcDbEntity
  8
Layer_1
 62
7
100
AcDbPolyline
 90
3
 70
0
 10
1684.339894
 20
321.795942
 30
0.0
 10
1691.090861
 20
316.427910
 30
0.0
 10
1691.091049
 20
316.427760
 30
0.0
  0
SPLINE
  5
297
100
AcDbEntity
  8
Layer_1
 62
7
100
AcDbSpline
 70
8
 71
3
 72
8
 73
4
 74
0
 40
0
 40
0
 40
0
 40
0
 40
1
 40
1
 40
1
 40
1
 10
1758.222425
 20
415.274369
 30
0.0
 10
1750.946172
 20
396.024115
 30
0.0
 10
1742.079912
 20
377.167374
 30
0.0
 10
1731.558686
 20
358.925678
 30
0.0
  0
SPLINE
  5
298
100
AcDbEntity
  8
Layer_1
 62
7
100
AcDbSpline
 70
8
 71
3
 72
8
 73
4
 74
0
 40
0
 40
0
 40
0
 40
0
 40
1
 40
1
 40
1
 40
1
 10
1731.558686
 20
358.925678
 30
0.0
 10
1731.558686
 20
358.925678
 30
0.0
 10
1723.398892
 20
365.413940
 30
0.0
 10
1723.398892
 20
365.413940
 30
0.0
  0
SPLINE
  5
299
100
AcDbEntity
  8
Layer_1
 62
7
100
AcDbSpline
 70
8
 71
3
 72
8
 73
4
 74
0
 40
0
 40
0
 40
0
 40
0
 40
1
 40
1
 40
1
 40
1
 10
1723.398892
 20
365.413940
 30
0.0
 10
1718.864096
 20
369.022739
 30
0.0
 10
1713.094722
 20
370.708876
 30
0.0
 10
1707.330238
 20
370.110107
 30
0.0
  0
LWPOLYLINE
  5
29a
100
AcDbEntity
  8
Layer_1
 62
7
100
AcDbPolyline
 90
2
 70
0
 10
1738.556688
 20
430.911582
 30
0.0
 10
1758.222425
 20
415.274369
 30
0.0
  0
SPLINE
  5
29b
100
AcDbEntity
  8
Layer_1
 62
7
100
AcDbSpline
 70
8
 71
3
 72
8
 73
4
 74
0
 40
0
 40
0
 40
0
 40
0
 40
1
 40
1
 40
1
 40
1
 10
1746.908665
 20
474.192757
 30
0.0
 10
1752.891773
 20
504.184904
 30
0.0
 10
1754.502264
 20
534.628927
 30
0.0
 10
1752.332561
 20
564.805682
 30
0.0
  0
LWPOLYLINE
  5
29c
100
AcDbEntity
  8
Layer_1
 62
7
100
AcDbPolyline
 90
2
 70
0
 10
1707.330238
 20
370.110107
 30
0.0
 10
1707.330238
 20
370.110107
 30
0.0
  0
SPLINE
  5
29d
100
AcDbEntity
  8
Layer_1
 62
7
100
AcDbSpline
 70
8
 71
3
 72
8
 73
4
 74
0
 40
0
 40
0
 40
0
 40
0
 40
1
 40
1
 40
1
 40
1
 10
1782.995536
 20
540.424013
 30
0.0
 10
1782.278623
 20
516.755650
 30
0.0
 10
1779.401526
 20
493.093820
 30
0.0
 10
1774.334291
 20
469.760637
 30
0.0
  0
SPLINE
  5
29e
100
AcDbEntity
  8
Layer_1
 62
7
100
AcDbSpline
 70
8
 71
3
 72
8
 73
4
 74
0
 40
0
 40
0
 40
0
 40
0
 40
1
 40
1
 40
1
 40
1
 10
1774.334291
 20
469.760637
 30
0.0
 10
1774.334291
 20
469.760637
 30
0.0
 10
1771.340430
 20
472.141206
 30
0.0
 10
1771.340430
 20
472.141206
 30
0.0
  0
SPLINE
  5
29f
100
AcDbEntity
  8
Layer_1
 62
7
100
AcDbSpline
 70
8
 71
3
 72
8
 73
4
 74
0
 40
0
 40
0
 40
0
 40
0
 40
1
 40
1
 40
1
 40
1
 10
1771.340430
 20
472.141206
 30
0.0
 10
1764.353785
 20
477.685335
 30
0.0
 10
1754.722041
 20
478.494119
 30
0.0
 10
1746.908665
 20
474.192757
 30
0.0
  0
LWPOLYLINE
  5
2a0
100
AcDbEntity
  8
Layer_1
 62
7
100
AcDbPolyline
 90
2
 70
0
 10
1752.332561
 20
564.805682
 30
0.0
 10
1782.995536
 20
540.424013
 30
0.0
  0
SPLINE
  5
2a1
100
AcDbEntity
  8
Layer_1
 62
7
100
AcDbSpline
 70
8
 71
3
 72
8
 73
4
 74
0
 40
0
 40
0
 40
0
 40
0
 40
1
 40
1
 40
1
 40
1
 10
1748.282859
 20
599.358962
 30
0.0
 10
1742.549900
 20
632.272218
 30
0.0
 10
1731.876085
 20
664.426945
 30
0.0
 10
1716.858272
 20
694.965608
 30
0.0
  0
SPLINE
  5
2a2
100
AcDbEntity
  8
Layer_1
 62
7
100
AcDbSpline
 70
8
 71
3
 72
8
 73
4
 74
0
 40
0
 40
0
 40
0
 40
0
 40
1
 40
1
 40
1
 40
1
 10
1716.858272
 20
694.965608
 30
0.0
 10
1716.858272
 20
694.965608
 30
0.0
 10
1719.238866
 20
697.959501
 30
0.0
 10
1719.238866
 20
697.959501
 30
0.0
  0
SPLINE
  5
2a3
100
AcDbEntity
  8
Layer_1
 62
7
100
AcDbSpline
 70
8
 71
3
 72
8
 73
4
 74
0
 40
0
 40
0
 40
0
 40
0
 40
1
 40
1
 40
1
 40
1
 10
1719.238866
 20
697.959501
 30
0.0
 10
1726.839335
 20
707.525075
 30
0.0
 10
1725.251457
 20
721.439936
 30
0.0
 10
1715.691324
 20
729.047247
 30
0.0
  0
SPLINE
  5
2a4
100
AcDbEntity
  8
Layer_1
 62
7
100
AcDbSpline
 70
8
 71
3
 72
8
 73
4
 74
0
 40
0
 40
0
 40
0
 40
0
 40
1
 40
1
 40
1
 40
1
 10
1715.691324
 20
729.047247
 30
0.0
 10
1715.691324
 20
729.047247
 30
0.0
 10
1693.775244
 20
746.473821
 30
0.0
 10
1693.775244
 20
746.473821
 30
0.0
  0
SPLINE
  5
2a5
100
AcDbEntity
  8
Layer_1
 62
7
100
AcDbSpline
 70
8
 71
3
 72
8
 73
4
 74
0
 40
0
 40
0
 40
0
 40
0
 40
1
 40
1
 40
1
 40
1
 10
1693.775244
 20
746.473821
 30
0.0
 10
1689.854818
 20
749.585353
 30
0.0
 10
1684.995507
 20
751.276211
 30
0.0
 10
1679.990375
 20
751.270438
 30
0.0
  0
SPLINE
  5
2a6
100
AcDbEntity
  8
Layer_1
 62
7
100
AcDbSpline
 70
8
 71
3
 72
8
 73
4
 74
0
 40
0
 40
0
 40
0
 40
0
 40
1
 40
1
 40
1
 40
1
 10
1679.990375
 20
751.270438
 30
0.0
 10
1679.573591
 20
753.073811
 30
0.0
 10
1678.932239
 20
754.817782
 30
0.0
 10
1678.081341
 20
756.461508
 30
0.0
  0
SPLINE
  5
2a7
100
AcDbEntity
  8
Layer_1
 62
7
100
AcDbSpline
 70
8
 71
3
 72
8
 73
4
 74
0
 40
0
 40
0
 40
0
 40
0
 40
1
 40
1
 40
1
 40
1
 10
1678.081341
 20
756.461508
 30
0.0
 10
1685.469699
 20
755.319961
 30
0.0
 10
1692.935022
 20
757.985386
 30
0.0
 10
1697.929660
 20
763.548169
 30
0.0
  0
LWPOLYLINE
  5
2a8
100
AcDbEntity
  8
Layer_1
 62
7
100
AcDbPolyline
 90
2
 70
0
 10
1746.908665
 20
474.192757
 30
0.0
 10
1746.908665
 20
474.192757
 30
0.0
  0
SPLINE
  5
2a9
100
AcDbEntity
  8
Layer_1
 62
7
100
AcDbSpline
 70
8
 71
3
 72
8
 73
4
 74
0
 40
0
 40
0
 40
0
 40
0
 40
1
 40
1
 40
1
 40
1
 10
1740.372527
 20
729.799718
 30
0.0
 10
1759.696298
 20
692.095416
 30
0.0
 10
1772.573600
 20
651.684331
 30
0.0
 10
1778.794226
 20
610.295746
 30
0.0
  0
SPLINE
  5
2aa
100
AcDbEntity
  8
Layer_1
 62
7
100
AcDbSpline
 70
8
 71
3
 72
8
 73
4
 74
0
 40
0
 40
0
 40
0
 40
0
 40
1
 40
1
 40
1
 40
1
 10
1778.794226
 20
610.295746
 30
0.0
 10
1769.510573
 20
614.680068
 30
0.0
 10
1758.430626
 20
612.104455
 30
0.0
 10
1752.032684
 20
604.074832
 30
0.0
  0
LWPOLYLINE
  5
2ab
100
AcDbEntity
  8
Layer_1
 62
7
100
AcDbPolyline
 90
2
 70
0
 10
1697.929660
 20
763.548169
 30
0.0
 10
1740.372527
 20
729.799718
 30
0.0
  0
SPLINE
  5
2ac
100
AcDbEntity
  8
Layer_1
 62
7
100
AcDbSpline
 70
8
 71
3
 72
8
 73
4
 74
0
 40
0
 40
0
 40
0
 40
0
 40
1
 40
1
 40
1
 40
1
 10
1706.969004
 20
519.503433
 30
0.0
 10
1694.559630
 20
528.179734
 30
0.0
 10
1678.323642
 20
528.274969
 30
0.0
 10
1666.302895
 20
520.177418
 30
0.0
  0
SPLINE
  5
2ad
100
AcDbEntity
  8
Layer_1
 62
7
100
AcDbSpline
 70
8
 71
3
 72
8
 73
4
 74
0
 40
0
 40
0
 40
0
 40
0
 40
1
 40
1
 40
1
 40
1
 10
1666.302895
 20
520.177418
 30
0.0
 10
1666.014715
 20
519.807785
 30
0.0
 10
1665.735629
 20
519.433939
 30
0.0
 10
1665.448912
 20
519.063545
 30
0.0
  0
LWPOLYLINE
  5
2ae
100
AcDbEntity
  8
Layer_1
 62
7
100
AcDbPolyline
 90
3
 70
0
 10
1752.032684
 20
604.074832
 30
0.0
 10
1748.282859
 20
599.358962
 30
0.0
 10
1748.282859
 20
599.358962
 30
0.0
  0
SPLINE
  5
2af
100
AcDbEntity
  8
Layer_1
 62
7
100
AcDbSpline
 70
8
 71
3
 72
8
 73
4
 74
0
 40
0
 40
0
 40
0
 40
0
 40
1
 40
1
 40
1
 40
1
 10
1660.329251
 20
512.309725
 30
0.0
 10
1638.440832
 20
482.846145
 30
0.0
 10
1621.045142
 20
451.237268
 30
0.0
 10
1608.098374
 20
418.357608
 30
0.0
  0
LWPOLYLINE
  5
2b0
100
AcDbEntity
  8
Layer_1
 62
7
100
AcDbPolyline
 90
4
 70
0
 10
1665.448912
 20
519.063545
 30
0.0
 10
1692.366644
 20
495.196551
 30
0.0
 10
1686.760631
 20
488.873963
 30
0.0
 10
1660.329251
 20
512.309725
 30
0.0
  0
SPLINE
  5
2b1
100
AcDbEntity
  8
Layer_1
 62
7
100
AcDbSpline
 70
8
 71
3
 72
8
 73
4
 74
0
 40
0
 40
0
 40
0
 40
0
 40
1
 40
1
 40
1
 40
1
 10
1604.884590
 20
409.947381
 30
0.0
 10
1590.752242
 20
371.590077
 30
0.0
 10
1582.584810
 20
331.635568
 30
0.0
 10
1580.301004
 20
291.481395
 30
0.0
  0
LWPOLYLINE
  5
2b2
100
AcDbEntity
  8
Layer_1
 62
7
100
AcDbPolyline
 90
4
 70
0
 10
1608.098374
 20
418.357608
 30
0.0
 10
1638.757283
 20
391.173446
 30
0.0
 10
1633.167882
 20
384.869594
 30
0.0
 10
1604.884590
 20
409.947381
 30
0.0
  0
SPLINE
  5
2b3
100
AcDbEntity
  8
Layer_1
 62
7
100
AcDbSpline
 70
8
 71
3
 72
8
 73
4
 74
0
 40
0
 40
0
 40
0
 40
0
 40
1
 40
1
 40
1
 40
1
 10
1579.837022
 20
280.632911
 30
0.0
 10
1577.913433
 20
217.522296
 30
0.0
 10
1590.472736
 20
154.212550
 30
0.0
 10
1617.221198
 20
96.096194
 30
0.0
  0
LWPOLYLINE
  5
2b4
100
AcDbEntity
  8
Layer_1
 62
7
100
AcDbPolyline
 90
4
 70
0
 10
1580.301004
 20
291.481395
 30
0.0
 10
1619.733002
 20
256.518449
 30
0.0
 10
1614.143548
 20
250.214537
 30
0.0
 10
1579.837022
 20
280.632911
 30
0.0
  0
SPLINE
  5
2b5
100
AcDbEntity
  8
Layer_1
 62
7
100
AcDbSpline
 70
8
 71
3
 72
8
 73
4
 74
0
 40
0
 40
0
 40
0
 40
0
 40
1
 40
1
 40
1
 40
1
 10
1686.876439
 20
138.780602
 30
0.0
 10
1636.284857
 20
245.014239
 30
0.0
 10
1643.344597
 20
370.128490
 30
0.0
 10
1716.716315
 20
469.563239
 30
0.0
  0
LWPOLYLINE
  5
2b6
100
AcDbEntity
  8
Layer_1
 62
7
100
AcDbPolyline
 90
24
 70
0
 10
1617.221198
 20
96.096194
 30
0.0
 10
1678.033987
 20
42.175662
 30
0.0
 10
1684.402949
 20
49.358720
 30
0.0
 10
1684.384392
 20
49.375173
 30
0.0
 10
1684.998042
 20
50.067261
 30
0.0
 10
1736.401803
 20
4.489379
 30
0.0
 10
1736.434709
 20
4.526491
 30
0.0
 10
1736.565680
 20
4.410364
 30
0.0
 10
1736.864225
 20
4.747070
 30
0.0
 10
1743.681031
 20
12.435217
 30
0.0
 10
1744.373119
 20
11.821568
 30
0.0
 10
1762.733615
 20
32.528948
 30
0.0
 10
1762.932645
 20
32.753418
 30
0.0
 10
1770.180682
 20
40.927918
 30
0.0
 10
1769.507271
 20
41.525008
 30
0.0
 10
1780.603169
 20
54.039213
 30
0.0
 10
1760.008024
 20
72.300194
 30
0.0
 10
1748.912126
 20
59.785989
 30
0.0
 10
1716.513540
 20
88.512660
 30
0.0
 10
1727.509924
 20
100.914629
 30
0.0
 10
1706.914778
 20
119.175610
 30
0.0
 10
1701.192691
 20
112.722111
 30
0.0
 10
1680.242104
 20
131.298250
 30
0.0
 10
1686.876439
 20
138.780602
 30
0.0
  0
SPLINE
  5
2b7
100
AcDbEntity
  8
Layer_1
 62
7
100
AcDbSpline
 70
8
 71
3
 72
8
 73
4
 74
0
 40
0
 40
0
 40
0
 40
0
 40
1
 40
1
 40
1
 40
1
 10
1716.434329
 20
469.245209
 30
0.0
 10
1725.950017
 20
482.694474
 30
0.0
 10
1724.681544
 20
501.232102
 30
0.0
 10
1713.422477
 20
513.780833
 30
0.0
  0
LWPOLYLINE
  5
2b8
100
AcDbEntity
  8
Layer_1
 62
7
100
AcDbPolyline
 90
2
 70
0
 10
1716.716315
 20
469.563239
 30
0.0
 10
1716.434329
 20
469.245209
 30
0.0
  0
SPLINE
  5
2b9
100
AcDbEntity
  8
Layer_1
 62
7
100
AcDbSpline
 70
8
 71
3
 72
8
 73
4
 74
0
 40
0
 40
0
 40
0
 40
0
 40
1
 40
1
 40
1
 40
1
 10
1687.876028
 20
466.768627
 30
0.0
 10
1674.909631
 20
446.991882
 30
0.0
 10
1664.251693
 20
426.355956
 30
0.0
 10
1655.874305
 20
405.165081
 30
0.0
  0
SPLINE
  5
2ba
100
AcDbEntity
  8
Layer_1
 62
7
100
AcDbSpline
 70
8
 71
3
 72
8
 73
4
 74
0
 40
0
 40
0
 40
0
 40
0
 40
1
 40
1
 40
1
 40
1
 10
1655.874305
 20
405.165081
 30
0.0
 10
1655.131155
 20
406.083146
 30
0.0
 10
1654.315708
 20
406.940250
 30
0.0
 10
1653.435776
 20
407.728181
 30
0.0
  0
LWPOLYLINE
  5
2bb
100
AcDbEntity
  8
Layer_1
 62
7
100
AcDbPolyline
 90
3
 70
0
 10
1713.422477
 20
513.780833
 30
0.0
 10
1706.968918
 20
519.502974
 30
0.0
 10
1706.969004
 20
519.503433
 30
0.0
  0
SPLINE
  5
2bc
100
AcDbEntity
  8
Layer_1
 62
7
100
AcDbSpline
 70
8
 71
3
 72
8
 73
4
 74
0
 40
0
 40
0
 40
0
 40
0
 40
1
 40
1
 40
1
 40
1
 10
1634.636395
 20
424.396921
 30
0.0
 10
1642.933924
 20
443.229530
 30
0.0
 10
1652.798048
 20
461.583931
 30
0.0
 10
1664.281869
 20
479.235556
 30
0.0
  0
LWPOLYLINE
  5
2bd
100
AcDbEntity
  8
Layer_1
 62
7
100
AcDbPolyline
 90
2
 70
0
 10
1653.435776
 20
407.728181
 30
0.0
 10
1634.636395
 20
424.396921
 30
0.0
  0
SPLINE
  5
2be
100
AcDbEntity
  8
Layer_1
 62
7
100
AcDbSpline
 70
8
 71
3
 72
8
 73
4
 74
0
 40
0
 40
0
 40
0
 40
0
 40
1
 40
1
 40
1
 40
1
 10
1672.082191
 20
472.319288
 30
0.0
 10
1676.417041
 20
468.472625
 30
0.0
 10
1682.087742
 20
466.479687
 30
0.0
 10
1687.876028
 20
466.768627
 30
0.0
  0
LWPOLYLINE
  5
2bf
100
AcDbEntity
  8
Layer_1
 62
7
100
AcDbPolyline
 90
2
 70
0
 10
1664.281869
 20
479.235556
 30
0.0
 10
1672.082191
 20
472.319288
 30
0.0
  0
SPLINE
  5
2c0
100
AcDbEntity
  8
Layer_1
 62
7
100
AcDbSpline
 70
8
 71
3
 72
8
 73
4
 74
0
 40
0
 40
0
 40
0
 40
0
 40
1
 40
1
 40
1
 40
1
 10
1642.776084
 20
364.956815
 30
0.0
 10
1635.194119
 20
335.328446
 30
0.0
 10
1631.954289
 20
305.014519
 30
0.0
 10
1632.503501
 20
274.764826
 30
0.0
  0
LWPOLYLINE
  5
2c1
100
AcDbEntity
  8
Layer_1
 62
7
100
AcDbPolyline
 90
2
 70
0
 10
1687.876028
 20
466.768627
 30
0.0
 10
1687.876028
 20
466.768627
 30
0.0
  0
SPLINE
  5
2c2
100
AcDbEntity
  8
Layer_1
 62
7
100
AcDbSpline
 70
8
 71
3
 72
8
 73
4
 74
0
 40
0
 40
0
 40
0
 40
0
 40
1
 40
1
 40
1
 40
1
 10
1603.191356
 20
300.754861
 30
0.0
 10
1605.175776
 20
324.350794
 30
0.0
 10
1609.316889
 20
347.824384
 30
0.0
 10
1615.627419
 20
370.852466
 30
0.0
  0
SPLINE
  5
2c3
100
AcDbEntity
  8
Layer_1
 62
7
100
AcDbSpline
 70
8
 71
3
 72
8
 73
4
 74
0
 40
0
 40
0
 40
0
 40
0
 40
1
 40
1
 40
1
 40
1
 10
1615.627419
 20
370.852466
 30
0.0
 10
1615.627419
 20
370.852466
 30
0.0
 10
1618.489389
 20
368.314860
 30
0.0
 10
1618.489389
 20
368.314860
 30
0.0
  0
SPLINE
  5
2c4
100
AcDbEntity
  8
Layer_1
 62
7
100
AcDbSpline
 70
8
 71
3
 72
8
 73
4
 74
0
 40
0
 40
0
 40
0
 40
0
 40
1
 40
1
 40
1
 40
1
 10
1618.489389
 20
368.314860
 30
0.0
 10
1625.168849
 20
362.404244
 30
0.0
 10
1634.743402
 20
361.080401
 30
0.0
 10
1642.776084
 20
364.956815
 30
0.0
  0
LWPOLYLINE
  5
2c5
100
AcDbEntity
  8
Layer_1
 62
7
100
AcDbPolyline
 90
2
 70
0
 10
1632.503501
 20
274.764826
 30
0.0
 10
1603.191356
 20
300.754861
 30
0.0
  0
SPLINE
  5
2c6
100
AcDbEntity
  8
Layer_1
 62
7
100
AcDbSpline
 70
8
 71
3
 72
8
 73
4
 74
0
 40
0
 40
0
 40
0
 40
0
 40
1
 40
1
 40
1
 40
1
 10
1634.695496
 20
240.044192
 30
0.0
 10
1638.656163
 20
206.870936
 30
0.0
 10
1647.591295
 20
174.190376
 30
0.0
 10
1660.950766
 20
142.890701
 30
0.0
  0
SPLINE
  5
2c7
100
AcDbEntity
  8
Layer_1
 62
7
100
AcDbSpline
 70
8
 71
3
 72
8
 73
4
 74
0
 40
0
 40
0
 40
0
 40
0
 40
1
 40
1
 40
1
 40
1
 10
1660.950766
 20
142.890701
 30
0.0
 10
1660.950766
 20
142.890701
 30
0.0
 10
1658.413159
 20
140.028731
 30
0.0
 10
1658.413159
 20
140.028731
 30
0.0
  0
SPLINE
  5
2c8
100
AcDbEntity
  8
Layer_1
 62
7
100
AcDbSpline
 70
8
 71
3
 72
8
 73
4
 74
0
 40
0
 40
0
 40
0
 40
0
 40
1
 40
1
 40
1
 40
1
 10
1658.413159
 20
140.028731
 30
0.0
 10
1650.310912
 20
130.884262
 30
0.0
 10
1651.150718
 20
116.904275
 30
0.0
 10
1660.289401
 20
108.795503
 30
0.0
  0
SPLINE
  5
2c9
100
AcDbEntity
  8
Layer_1
 62
7
100
AcDbSpline
 70
8
 71
3
 72
8
 73
4
 74
0
 40
0
 40
0
 40
0
 40
0
 40
1
 40
1
 40
1
 40
1
 10
1660.289401
 20
108.795503
 30
0.0
 10
1660.289401
 20
108.795503
 30
0.0
 10
1681.239987
 20
90.219365
 30
0.0
 10
1681.239987
 20
90.219365
 30
0.0
  0
SPLINE
  5
2ca
100
AcDbEntity
  8
Layer_1
 62
7
100
AcDbSpline
 70
8
 71
3
 72
8
 73
4
 74
0
 40
0
 40
0
 40
0
 40
0
 40
1
 40
1
 40
1
 40
1
 10
1681.239987
 20
90.219365
 30
0.0
 10
1684.988025
 20
86.902192
 30
0.0
 10
1689.749739
 20
84.953335
 30
0.0
 10
1694.747991
 20
84.690860
 30
0.0
  0
SPLINE
  5
2cb
100
AcDbEntity
  8
Layer_1
 62
7
100
AcDbSpline
 70
8
 71
3
 72
8
 73
4
 74
0
 40
0
 40
0
 40
0
 40
0
 40
1
 40
1
 40
1
 40
1
 10
1694.747991
 20
84.690860
 30
0.0
 10
1695.067513
 20
82.867732
 30
0.0
 10
1695.614463
 20
81.091883
 30
0.0
 10
1696.376035
 20
79.404904
 30
0.0
  0
SPLINE
  5
2cc
100
AcDbEntity
  8
Layer_1
 62
7
100
AcDbSpline
 70
8
 71
3
 72
8
 73
4
 74
0
 40
0
 40
0
 40
0
 40
0
 40
1
 40
1
 40
1
 40
1
 10
1696.376035
 20
79.404904
 30
0.0
 10
1689.059478
 20
80.940796
 30
0.0
 10
1681.462030
 20
78.679313
 30
0.0
 10
1676.176428
 20
73.392217
 30
0.0
  0
LWPOLYLINE
  5
2cd
100
AcDbEntity
  8
Layer_1
 62
7
100
AcDbPolyline
 90
2
 70
0
 10
1642.776084
 20
364.956815
 30
0.0
 10
1642.776084
 20
364.956815
 30
0.0
  0
SPLINE
  5
2ce
100
AcDbEntity
  8
Layer_1
 62
7
100
AcDbSpline
 70
8
 71
3
 72
8
 73
4
 74
0
 40
0
 40
0
 40
0
 40
0
 40
1
 40
1
 40
1
 40
1
 10
1635.603342
 20
109.366926
 30
0.0
 10
1618.328141
 20
148.052710
 30
0.0
 10
1607.635227
 20
189.095896
 30
0.0
 10
1603.641816
 20
230.758412
 30
0.0
  0
SPLINE
  5
2cf
100
AcDbEntity
  8
Layer_1
 62
7
100
AcDbSpline
 70
8
 71
3
 72
8
 73
4
 74
0
 40
0
 40
0
 40
0
 40
0
 40
1
 40
1
 40
1
 40
1
 10
1603.641816
 20
230.758412
 30
0.0
 10
1612.677130
 20
225.882831
 30
0.0
 10
1623.879178
 20
227.860890
 30
0.0
 10
1630.698282
 20
235.536045
 30
0.0
  0
LWPOLYLINE
  5
2d0
100
AcDbEntity
  8
Layer_1
 62
7
100
AcDbPolyline
 90
2
 70
0
 10
1676.176428
 20
73.392217
 30
0.0
 10
1635.603342
 20
109.366926
 30
0.0
  0
SPLINE
  5
2d1
100
AcDbEntity
  8
Layer_1
 62
7
100
AcDbSpline
 70
8
 71
3
 72
8
 73
4
 74
0
 40
0
 40
0
 40
0
 40
0
 40
1
 40
1
 40
1
 40
1
 10
1881.678647
 20
328.767320
 30
0.0
 10
1895.170183
 20
321.893518
 30
0.0
 10
1911.262850
 20
324.048111
 30
0.0
 10
1922.046130
 20
333.732705
 30
0.0
  0
SPLINE
  5
2d2
100
AcDbEntity
  8
Layer_1
 62
7
100
AcDbSpline
 70
8
 71
3
 72
8
 73
4
 74
0
 40
0
 40
0
 40
0
 40
0
 40
1
 40
1
 40
1
 40
1
 10
1922.046130
 20
333.732705
 30
0.0
 10
1922.280355
 20
334.138724
 30
0.0
 10
1922.504937
 20
334.547578
 30
0.0
 10
1922.737594
 20
334.954129
 30
0.0
  0
LWPOLYLINE
  5
2d3
100
AcDbEntity
  8
Layer_1
 62
7
100
AcDbPolyline
 90
3
 70
0
 10
1630.698282
 20
235.536045
 30
0.0
 10
1634.695496
 20
240.044192
 30
0.0
 10
1634.695496
 20
240.044192
 30
0.0
  0
SPLINE
  5
2d4
100
AcDbEntity
  8
Layer_1
 62
7
100
AcDbSpline
 70
8
 71
3
 72
8
 73
4
 74
0
 40
0
 40
0
 40
0
 40
0
 40
1
 40
1
 40
1
 40
1
 10
1926.872402
 20
342.351991
 30
0.0
 10
1944.468693
 20
374.563409
 30
0.0
 10
1957.318431
 20
408.277169
 30
0.0
 10
1965.586079
 20
442.633176
 30
0.0
  0
LWPOLYLINE
  5
2d5
100
AcDbEntity
  8
Layer_1
 62
7
100
AcDbPolyline
 90
4
 70
0
 10
1922.737594
 20
334.954129
 30
0.0
 10
1892.773416
 20
354.862563
 30
0.0
 10
1897.449620
 20
361.900717
 30
0.0
 10
1926.872402
 20
342.351991
 30
0.0
  0
SPLINE
  5
2d6
100
AcDbEntity
  8
Layer_1
 62
7
100
AcDbSpline
 70
8
 71
3
 72
8
 73
4
 74
0
 40
0
 40
0
 40
0
 40
0
 40
1
 40
1
 40
1
 40
1
 10
1967.603969
 20
451.407521
 30
0.0
 10
1976.287014
 20
491.352556
 30
0.0
 10
1978.841474
 20
532.053274
 30
0.0
 10
1975.541339
 20
572.136723
 30
0.0
  0
LWPOLYLINE
  5
2d7
100
AcDbEntity
  8
Layer_1
 62
7
100
AcDbPolyline
 90
4
 70
0
 10
1965.586079
 20
442.633176
 30
0.0
 10
1931.457313
 20
465.308595
 30
0.0
 10
1936.119682
 20
472.325926
 30
0.0
 10
1967.603969
 20
451.407521
 30
0.0
  0
SPLINE
  5
2d8
100
AcDbEntity
  8
Layer_1
 62
7
100
AcDbSpline
 70
8
 71
3
 72
8
 73
4
 74
0
 40
0
 40
0
 40
0
 40
0
 40
1
 40
1
 40
1
 40
1
 10
1974.498157
 20
582.944868
 30
0.0
 10
1967.661499
 20
645.713601
 30
0.0
 10
1946.453954
 20
706.673424
 30
0.0
 10
1911.913387
 20
760.524517
 30
0.0
  0
LWPOLYLINE
  5
2d9
100
AcDbEntity
  8
Layer_1
 62
7
100
AcDbPolyline
 90
4
 70
0
 10
1975.541339
 20
572.136723
 30
0.0
 10
1931.646580
 20
601.300744
 30
0.0
 10
1936.308950
 20
608.318075
 30
0.0
 10
1974.498157
 20
582.944868
 30
0.0
  0
SPLINE
  5
2da
100
AcDbEntity
  8
Layer_1
 62
7
100
AcDbSpline
 70
8
 71
3
 72
8
 73
4
 74
0
 40
0
 40
0
 40
0
 40
0
 40
1
 40
1
 40
1
 40
1
 10
1848.841774
 20
708.602985
 30
0.0
 10
1913.660558
 20
610.401055
 30
0.0
 10
1923.998990
 20
485.514978
 30
0.0
 10
1865.107685
 20
376.875702
 30
0.0
  0
LWPOLYLINE
  5
2db
100
AcDbEntity
  8
Layer_1
 62
7
100
AcDbPolyline
 90
24
 70
0
 10
1911.913387
 20
760.524517
 30
0.0
 10
1844.218040
 20
805.501833
 30
0.0
 10
1838.905429
 20
797.505824
 30
0.0
 10
1838.926085
 20
797.492100
 30
0.0
 10
1838.414193
 20
796.721651
 30
0.0
 10
1781.192752
 20
834.740023
 30
0.0
 10
1781.165082
 20
834.698377
 30
0.0
 10
1781.019288
 20
834.795244
 30
0.0
 10
1780.770259
 20
834.420431
 30
0.0
 10
1775.084106
 20
825.862202
 30
0.0
 10
1774.313690
 20
826.374072
 30
0.0
 10
1758.998429
 20
803.323077
 30
0.0
 10
1758.832410
 20
803.073201
 30
0.0
 10
1752.786548
 20
793.973576
 30
0.0
 10
1753.536174
 20
793.475519
 30
0.0
 10
1744.280609
 20
779.544972
 30
0.0
 10
1767.206634
 20
764.312742
 30
0.0
 10
1776.462198
 20
778.243290
 30
0.0
 10
1812.527532
 20
754.281201
 30
0.0
 10
1803.354977
 20
740.475591
 30
0.0
 10
1826.281001
 20
725.243362
 30
0.0
 10
1831.054050
 20
732.427276
 30
0.0
 10
1854.375744
 20
716.932161
 30
0.0
 10
1848.841774
 20
708.602985
 30
0.0
  0
SPLINE
  5
2dc
100
AcDbEntity
  8
Layer_1
 62
7
100
AcDbSpline
 70
8
 71
3
 72
8
 73
4
 74
0
 40
0
 40
0
 40
0
 40
0
 40
1
 40
1
 40
1
 40
1
 10
1865.342879
 20
377.229692
 30
0.0
 10
1857.781812
 20
362.591980
 30
0.0
 10
1861.605798
 20
344.408768
 30
0.0
 10
1874.494499
 20
333.540524
 30
0.0
  0
LWPOLYLINE
  5
2dd
100
AcDbEntity
  8
Layer_1
 62
7
100
AcDbPolyline
 90
2
 70
0
 10
1865.107685
 20
376.875702
 30
0.0
 10
1865.342879
 20
377.229692
 30
0.0
  0
SPLINE
  5
2de
100
AcDbEntity
  8
Layer_1
 62
7
100
AcDbSpline
 70
8
 71
3
 72
8
 73
4
 74
0
 40
0
 40
0
 40
0
 40
0
 40
1
 40
1
 40
1
 40
1
 10
1893.283069
 20
383.638469
 30
0.0
 10
1903.385135
 20
405.020640
 30
0.0
 10
1911.081950
 20
426.933901
 30
0.0
 10
1916.443356
 20
449.080914
 30
0.0
  0
SPLINE
  5
2df
100
AcDbEntity
  8
Layer_1
 62
7
100
AcDbSpline
 70
8
 71
3
 72
8
 73
4
 74
0
 40
0
 40
0
 40
0
 40
0
 40
1
 40
1
 40
1
 40
1
 10
1916.443356
 20
449.080914
 30
0.0
 10
1917.306507
 20
448.274635
 30
0.0
 10
1918.232815
 20
447.538744
 30
0.0
 10
1919.213405
 20
446.880292
 30
0.0
  0
LWPOLYLINE
  5
2e0
100
AcDbEntity
  8
Layer_1
 62
7
100
AcDbPolyline
 90
3
 70
0
 10
1874.494499
 20
333.540524
 30
0.0
 10
1881.678447
 20
328.767453
 30
0.0
 10
1881.678647
 20
328.767320
 30
0.0
  0
SPLINE
  5
2e1
100
AcDbEntity
  8
Layer_1
 62
7
100
AcDbSpline
 70
8
 71
3
 72
8
 73
4
 74
0
 40
0
 40
0
 40
0
 40
0
 40
1
 40
1
 40
1
 40
1
 10
1940.140427
 20
432.976216
 30
0.0
 10
1934.531469
 20
413.175819
 30
0.0
 10
1927.304749
 20
393.631977
 30
0.0
 10
1918.376661
 20
374.559879
 30
0.0
  0
SPLINE
  5
2e2
100
AcDbEntity
  8
Layer_1
 62
7
100
AcDbSpline
 70
8
 71
3
 72
8
 73
4
 74
0
 40
0
 40
0
 40
0
 40
0
 40
1
 40
1
 40
1
 40
1
 10
1918.376661
 20
374.559879
 30
0.0
 10
1918.376661
 20
374.559879
 30
0.0
 10
1909.693528
 20
380.329020
 30
0.0
 10
1909.693528
 20
380.329020
 30
0.0
  0
SPLINE
  5
2e3
100
AcDbEntity
  8
Layer_1
 62
7
100
AcDbSpline
 70
8
 71
3
 72
8
 73
4
 74
0
 40
0
 40
0
 40
0
 40
0
 40
1
 40
1
 40
1
 40
1
 10
1909.693528
 20
380.329020
 30
0.0
 10
1904.867636
 20
383.538158
 30
0.0
 10
1898.975539
 20
384.726400
 30
0.0
 10
1893.283069
 20
383.638469
 30
0.0
  0
LWPOLYLINE
  5
2e4
100
AcDbEntity
  8
Layer_1
 62
7
100
AcDbPolyline
 90
2
 70
0
 10
1919.213405
 20
446.880292
 30
0.0
 10
1940.140427
 20
432.976216
 30
0.0
  0
SPLINE
  5
2e5
100
AcDbEntity
  8
Layer_1
 62
7
100
AcDbSpline
 70
8
 71
3
 72
8
 73
4
 74
0
 40
0
 40
0
 40
0
 40
0
 40
1
 40
1
 40
1
 40
1
 10
1923.845872
 20
490.715847
 30
0.0
 10
1927.250795
 20
521.108823
 30
0.0
 10
1926.260498
 20
551.579325
 30
0.0
 10
1921.526546
 20
581.461323
 30
0.0
  0
LWPOLYLINE
  5
2e6
100
AcDbEntity
  8
Layer_1
 62
7
100
AcDbPolyline
 90
2
 70
0
 10
1893.283069
 20
383.638469
 30
0.0
 10
1893.283069
 20
383.638469
 30
0.0
  0
SPLINE
  5
2e7
100
AcDbEntity
  8
Layer_1
 62
7
100
AcDbSpline
 70
8
 71
3
 72
8
 73
4
 74
0
 40
0
 40
0
 40
0
 40
0
 40
1
 40
1
 40
1
 40
1
 10
1954.156127
 20
559.781975
 30
0.0
 10
1955.459220
 20
536.138639
 30
0.0
 10
1954.609434
 20
512.317687
 30
0.0
 10
1951.549467
 20
488.637507
 30
0.0
  0
SPLINE
  5
2e8
100
AcDbEntity
  8
Layer_1
 62
7
100
AcDbSpline
 70
8
 71
3
 72
8
 73
4
 74
0
 40
0
 40
0
 40
0
 40
0
 40
1
 40
1
 40
1
 40
1
 10
1951.549467
 20
488.637507
 30
0.0
 10
1951.549467
 20
488.637507
 30
0.0
 10
1948.363590
 20
490.754229
 30
0.0
 10
1948.363590
 20
490.754229
 30
0.0
  0
SPLINE
  5
2e9
100
AcDbEntity
  8
Layer_1
 62
7
100
AcDbSpline
 70
8
 71
3
 72
8
 73
4
 74
0
 40
0
 40
0
 40
0
 40
0
 40
1
 40
1
 40
1
 40
1
 10
1948.363590
 20
490.754229
 30
0.0
 10
1940.929813
 20
495.682667
 30
0.0
 10
1931.264183
 20
495.667536
 30
0.0
 10
1923.845872
 20
490.715847
 30
0.0
  0
LWPOLYLINE
  5
2ea
100
AcDbEntity
  8
Layer_1
 62
7
100
AcDbPolyline
 90
2
 70
0
 10
1921.526546
 20
581.461323
 30
0.0
 10
1954.156127
 20
559.781975
 30
0.0
  0
SPLINE
  5
2eb
100
AcDbEntity
  8
Layer_1
 62
7
100
AcDbSpline
 70
8
 71
3
 72
8
 73
4
 74
0
 40
0
 40
0
 40
0
 40
0
 40
1
 40
1
 40
1
 40
1
 10
1914.546397
 20
615.543676
 30
0.0
 10
1906.028907
 20
647.848500
 30
0.0
 10
1892.653196
 20
678.976415
 30
0.0
 10
1875.087042
 20
708.123883
 30
0.0
  0
SPLINE
  5
2ec
100
AcDbEntity
  8
Layer_1
 62
7
100
AcDbSpline
 70
8
 71
3
 72
8
 73
4
 74
0
 40
0
 40
0
 40
0
 40
0
 40
1
 40
1
 40
1
 40
1
 10
1875.087042
 20
708.123883
 30
0.0
 10
1875.087042
 20
708.123883
 30
0.0
 10
1877.203785
 20
711.309793
 30
0.0
 10
1877.203785
 20
711.309793
 30
0.0
  0
SPLINE
  5
2ed
100
AcDbEntity
  8
Layer_1
 62
7
100
AcDbSpline
 70
8
 71
3
 72
8
 73
4
 74
0
 40
0
 40
0
 40
0
 40
0
 40
1
 40
1
 40
1
 40
1
 10
1877.203785
 20
711.309793
 30
0.0
 10
1883.961263
 20
721.488390
 30
0.0
 10
1881.193116
 20
735.217267
 30
0.0
 10
1871.019358
 20
741.982026
 30
0.0
  0
SPLINE
  5
2ee
100
AcDbEntity
  8
Layer_1
 62
7
100
AcDbSpline
 70
8
 71
3
 72
8
 73
4
 74
0
 40
0
 40
0
 40
0
 40
0
 40
1
 40
1
 40
1
 40
1
 10
1871.019358
 20
741.982026
 30
0.0
 10
1871.019358
 20
741.982026
 30
0.0
 10
1847.697664
 20
757.477141
 30
0.0
 10
1847.697664
 20
757.477141
 30
0.0
  0
SPLINE
  5
2ef
100
AcDbEntity
  8
Layer_1
 62
7
100
AcDbSpline
 70
8
 71
3
 72
8
 73
4
 74
0
 40
0
 40
0
 40
0
 40
0
 40
1
 40
1
 40
1
 40
1
 10
1847.697664
 20
757.477141
 30
0.0
 10
1843.526290
 20
760.243188
 30
0.0
 10
1838.540541
 20
761.513704
 30
0.0
 10
1833.554117
 20
761.081335
 30
0.0
  0
SPLINE
  5
2f0
100
AcDbEntity
  8
Layer_1
 62
7
100
AcDbSpline
 70
8
 71
3
 72
8
 73
4
 74
0
 40
0
 40
0
 40
0
 40
0
 40
1
 40
1
 40
1
 40
1
 10
1833.554117
 20
761.081335
 30
0.0
 10
1832.985136
 20
762.842620
 30
0.0
 10
1832.197470
 20
764.525578
 30
0.0
 10
1831.209564
 20
766.090796
 30
0.0
  0
SPLINE
  5
2f1
100
AcDbEntity
  8
Layer_1
 62
7
100
AcDbSpline
 70
8
 71
3
 72
8
 73
4
 74
0
 40
0
 40
0
 40
0
 40
0
 40
1
 40
1
 40
1
 40
1
 10
1831.209564
 20
766.090796
 30
0.0
 10
1838.668335
 20
765.583157
 30
0.0
 10
1845.879299
 20
768.875196
 30
0.0
 10
1850.381611
 20
774.843458
 30
0.0
  0
LWPOLYLINE
  5
2f2
100
AcDbEntity
  8
Layer_1
 62
7
100
AcDbPolyline
 90
2
 70
0
 10
1923.845872
 20
490.715847
 30
0.0
 10
1923.845872
 20
490.715847
 30
0.0
  0
SPLINE
  5
2f3
100
AcDbEntity
  8
Layer_1
 62
7
100
AcDbSpline
 70
8
 71
3
 72
8
 73
4
 74
0
 40
0
 40
0
 40
0
 40
0
 40
1
 40
1
 40
1
 40
1
 10
1895.546603
 20
744.835485
 30
0.0
 10
1918.013815
 20
708.915479
 30
0.0
 10
1934.288733
 20
669.749068
 30
0.0
 10
1944.014519
 20
629.041326
 30
0.0
  0
SPLINE
  5
2f4
100
AcDbEntity
  8
Layer_1
 62
7
100
AcDbSpline
 70
8
 71
3
 72
8
 73
4
 74
0
 40
0
 40
0
 40
0
 40
0
 40
1
 40
1
 40
1
 40
1
 10
1944.014519
 20
629.041326
 30
0.0
 10
1934.390949
 20
632.618392
 30
0.0
 10
1923.570859
 20
629.107741
 30
0.0
 10
1917.880614
 20
620.562005
 30
0.0
  0
LWPOLYLINE
  5
2f5
100
AcDbEntity
  8
Layer_1
 62
7
100
AcDbPolyline
 90
2
 70
0
 10
1850.381611
 20
774.843458
 30
0.0
 10
1895.546603
 20
744.835485
 30
0.0
  0
SPLINE
  5
2f6
100
AcDbEntity
  8
Layer_1
 62
7
100
AcDbSpline
 70
8
 71
3
 72
8
 73
4
 74
0
 40
0
 40
0
 40
0
 40
0
 40
1
 40
1
 40
1
 40
1
 10
1880.951992
 20
520.743582
 30
0.0
 10
1868.096785
 20
528.744482
 30
0.0
 10
1851.878906
 20
527.972108
 30
0.0
 10
1840.307931
 20
519.243811
 30
0.0
  0
SPLINE
  5
2f7
100
AcDbEntity
  8
Layer_1
 62
7
100
AcDbSpline
 70
8
 71
3
 72
8
 73
4
 74
0
 40
0
 40
0
 40
0
 40
0
 40
1
 40
1
 40
1
 40
1
 10
1840.307931
 20
519.243811
 30
0.0
 10
1840.039884
 20
518.859281
 30
0.0
 10
1839.781208
 20
518.471095
 30
0.0
 10
1839.514678
 20
518.085900
 30
0.0
  0
LWPOLYLINE
  5
2f8
100
AcDbEntity
  8
Layer_1
 62
7
100
AcDbPolyline
 90
3
 70
0
 10
1917.880614
 20
620.562005
 30
0.0
 10
1914.546397
 20
615.543676
 30
0.0
 10
1914.546397
 20
615.543676
 30
0.0
  0
SPLINE
  5
2f9
100
AcDbEntity
  8
Layer_1
 62
7
100
AcDbSpline
 70
8
 71
3
 72
8
 73
4
 74
0
 40
0
 40
0
 40
0
 40
0
 40
1
 40
1
 40
1
 40
1
 10
1834.763183
 20
511.068183
 30
0.0
 10
1814.480247
 20
480.477198
 30
0.0
 10
1798.798237
 20
447.984040
 30
0.0
 10
1787.626699
 20
414.459591
 30
0.0
  0
LWPOLYLINE
  5
2fa
100
AcDbEntity
  8
Layer_1
 62
7
100
AcDbPolyline
 90
4
 70
0
 10
1839.514678
 20
518.085900
 30
0.0
 10
1867.669161
 20
495.691179
 30
0.0
 10
1862.408969
 20
489.078109
 30
0.0
 10
1834.763183
 20
511.068183
 30
0.0
  0
SPLINE
  5
2fb
100
AcDbEntity
  8
Layer_1
 62
7
100
AcDbSpline
 70
8
 71
3
 72
8
 73
4
 74
0
 40
0
 40
0
 40
0
 40
0
 40
1
 40
1
 40
1
 40
1
 10
1784.866868
 20
405.889714
 30
0.0
 10
1772.804102
 20
366.832104
 30
0.0
 10
1766.783061
 20
326.498184
 30
0.0
 10
1766.647918
 20
286.279372
 30
0.0
  0
LWPOLYLINE
  5
2fc
100
AcDbEntity
  8
Layer_1
 62
7
100
AcDbPolyline
 90
4
 70
0
 10
1787.626699
 20
414.459591
 30
0.0
 10
1819.694246
 20
388.952347
 30
0.0
 10
1814.449647
 20
382.358883
 30
0.0
 10
1784.866868
 20
405.889714
 30
0.0
  0
SPLINE
  5
2fd
100
AcDbEntity
  8
Layer_1
 62
7
100
AcDbSpline
 70
8
 71
3
 72
8
 73
4
 74
0
 40
0
 40
0
 40
0
 40
0
 40
1
 40
1
 40
1
 40
1
 10
1766.764238
 20
275.421623
 30
0.0
 10
1768.215348
 20
212.298378
 30
0.0
 10
1784.139303
 20
149.750104
 30
0.0
 10
1813.954686
 20
93.145949
 30
0.0
  0
LWPOLYLINE
  5
2fe
100
AcDbEntity
  8
Layer_1
 62
7
100
AcDbPolyline
 90
4
 70
0
 10
1766.647918
 20
286.279372
 30
0.0
 10
1807.891646
 20
253.473204
 30
0.0
 10
1802.646994
 20
246.879702
 30
0.0
 10
1766.764238
 20
275.421623
 30
0.0
  0
SPLINE
  5
2ff
100
AcDbEntity
  8
Layer_1
 62
7
100
AcDbSpline
 70
8
 71
3
 72
8
 73
4
 74
0
 40
0
 40
0
 40
0
 40
0
 40
1
 40
1
 40
1
 40
1
 10
1881.229894
 20
139.491021
 30
0.0
 10
1825.034766
 20
242.870076
 30
0.0
 10
1825.399673
 20
368.182856
 30
0.0
 10
1893.353849
 20
471.395763
 30
0.0
  0
LWPOLYLINE
  5
300
100
AcDbEntity
  8
Layer_1
 62
7
100
AcDbPolyline
 90
24
 70
0
 10
1813.954686
 20
93.145949
 30
0.0
 10
1877.561545
 20
42.551595
 30
0.0
 10
1883.537603
 20
50.064593
 30
0.0
 10
1883.518142
 20
50.079830
 30
0.0
 10
1884.093925
 20
50.803652
 30
0.0
 10
1937.859436
 20
8.037211
 30
0.0
 10
1937.890495
 20
8.076733
 30
0.0
 10
1938.027438
 20
7.967485
 30
0.0
 10
1938.307590
 20
8.319714
 30
0.0
 10
1944.703876
 20
16.361098
 30
0.0
 10
1945.427771
 20
15.785335
 30
0.0
 10
1962.655651
 20
37.444114
 30
0.0
 10
1962.842418
 20
37.678907
 30
0.0
 10
1969.643343
 20
46.228996
 30
0.0
 10
1968.939003
 20
46.789278
 30
0.0
 10
1979.350403
 20
59.878368
 30
0.0
 10
1957.809003
 20
77.012826
 30
0.0
 10
1947.397579
 20
63.923737
 30
0.0
 10
1913.510421
 20
90.878340
 30
0.0
 10
1923.828475
 20
103.850072
 30
0.0
 10
1902.287092
 20
120.984609
 30
0.0
 10
1896.917971
 20
114.234630
 30
0.0
 10
1875.004807
 20
131.664831
 30
0.0
 10
1881.229894
 20
139.491021
 30
0.0
  0
SPLINE
  5
301
100
AcDbEntity
  8
Layer_1
 62
7
100
AcDbSpline
 70
8
 71
3
 72
8
 73
4
 74
0
 40
0
 40
0
 40
0
 40
0
 40
1
 40
1
 40
1
 40
1
 10
1893.089281
 20
471.063148
 30
0.0
 10
1901.872818
 20
485.001643
 30
0.0
 10
1899.615690
 20
503.445013
 30
0.0
 10
1887.702250
 20
515.374270
 30
0.0
  0
LWPOLYLINE
  5
302
100
AcDbEntity
  8
Layer_1
 62
7
100
AcDbPolyline
 90
2
 70
0
 10
1893.353849
 20
471.395763
 30
0.0
 10
1893.089281
 20
471.063148
 30
0.0
  0
SPLINE
  5
303
100
AcDbEntity
  8
Layer_1
 62
7
100
AcDbSpline
 70
8
 71
3
 72
8
 73
4
 74
0
 40
0
 40
0
 40
0
 40
0
 40
1
 40
1
 40
1
 40
1
 10
1864.703844
 20
467.063934
 30
0.0
 10
1852.812619
 20
446.622647
 30
0.0
 10
1843.272469
 20
425.446759
 30
0.0
 10
1836.039266
 20
403.838574
 30
0.0
  0
SPLINE
  5
304
100
AcDbEntity
  8
Layer_1
 62
7
100
AcDbSpline
 70
8
 71
3
 72
8
 73
4
 74
0
 40
0
 40
0
 40
0
 40
0
 40
1
 40
1
 40
1
 40
1
 10
1836.039266
 20
403.838574
 30
0.0
 10
1835.248121
 20
404.715610
 30
0.0
 10
1834.388039
 20
405.527909
 30
0.0
 10
1833.467262
 20
406.267688
 30
0.0
  0
LWPOLYLINE
  5
305
100
AcDbEntity
  8
Layer_1
 62
7
100
AcDbPolyline
 90
3
 70
0
 10
1887.702250
 20
515.374270
 30
0.0
 10
1880.952181
 20
520.743438
 30
0.0
 10
1880.951992
 20
520.743582
 30
0.0
  0
SPLINE
  5
306
100
AcDbEntity
  8
Layer_1
 62
7
100
AcDbSpline
 70
8
 71
3
 72
8
 73
4
 74
0
 40
0
 40
0
 40
0
 40
0
 40
1
 40
1
 40
1
 40
1
 10
1813.804138
 20
421.908184
 30
0.0
 10
1821.083602
 20
441.157248
 30
0.0
 10
1829.952972
 20
460.012462
 30
0.0
 10
1840.477261
 20
478.252417
 30
0.0
  0
LWPOLYLINE
  5
307
100
AcDbEntity
  8
Layer_1
 62
7
100
AcDbPolyline
 90
2
 70
0
 10
1833.467262
 20
406.267688
 30
0.0
 10
1813.804138
 20
421.908184
 30
0.0
  0
SPLINE
  5
308
100
AcDbEntity
  8
Layer_1
 62
7
100
AcDbSpline
 70
8
 71
3
 72
8
 73
4
 74
0
 40
0
 40
0
 40
0
 40
0
 40
1
 40
1
 40
1
 40
1
 10
1848.635975
 20
471.762791
 30
0.0
 10
1853.170167
 20
468.153232
 30
0.0
 10
1858.939259
 20
466.466130
 30
0.0
 10
1864.703844
 20
467.063934
 30
0.0
  0
LWPOLYLINE
  5
309
100
AcDbEntity
  8
Layer_1
 62
7
100
AcDbPolyline
 90
2
 70
0
 10
1840.477261
 20
478.252417
 30
0.0
 10
1848.635975
 20
471.762791
 30
0.0
  0
SPLINE
  5
30a
100
AcDbEntity
  8
Layer_1
 62
7
100
AcDbSpline
 70
8
 71
3
 72
8
 73
4
 74
0
 40
0
 40
0
 40
0
 40
0
 40
1
 40
1
 40
1
 40
1
 10
1825.108038
 20
362.987869
 30
0.0
 10
1819.119935
 20
332.996758
 30
0.0
 10
1817.504374
 20
302.552970
 30
0.0
 10
1819.669026
 20
272.375817
 30
0.0
  0
LWPOLYLINE
  5
30b
100
AcDbEntity
  8
Layer_1
 62
7
100
AcDbPolyline
 90
2
 70
0
 10
1864.703844
 20
467.063934
 30
0.0
 10
1864.703844
 20
467.063934
 30
0.0
  0
SPLINE
  5
30c
100
AcDbEntity
  8
Layer_1
 62
7
100
AcDbSpline
 70
8
 71
3
 72
8
 73
4
 74
0
 40
0
 40
0
 40
0
 40
0
 40
1
 40
1
 40
1
 40
1
 10
1789.010114
 20
296.762587
 30
0.0
 10
1789.730976
 20
320.430874
 30
0.0
 10
1792.612017
 20
344.092273
 30
0.0
 10
1797.683136
 20
367.424521
 30
0.0
  0
SPLINE
  5
30d
100
AcDbEntity
  8
Layer_1
 62
7
100
AcDbSpline
 70
8
 71
3
 72
8
 73
4
 74
0
 40
0
 40
0
 40
0
 40
0
 40
1
 40
1
 40
1
 40
1
 10
1797.683136
 20
367.424521
 30
0.0
 10
1797.683136
 20
367.424521
 30
0.0
 10
1800.676617
 20
365.043502
 30
0.0
 10
1800.676617
 20
365.043502
 30
0.0
  0
SPLINE
  5
30e
100
AcDbEntity
  8
Layer_1
 62
7
100
AcDbSpline
 70
8
 71
3
 72
8
 73
4
 74
0
 40
0
 40
0
 40
0
 40
0
 40
1
 40
1
 40
1
 40
1
 10
1800.676617
 20
365.043502
 30
0.0
 10
1807.662335
 20
359.498206
 30
0.0
 10
1817.293943
 20
358.687813
 30
0.0
 10
1825.108038
 20
362.987869
 30
0.0
  0
LWPOLYLINE
  5
30f
100
AcDbEntity
  8
Layer_1
 62
7
100
AcDbPolyline
 90
2
 70
0
 10
1819.669026
 20
272.375817
 30
0.0
 10
1789.010114
 20
296.762587
 30
0.0
  0
SPLINE
  5
310
100
AcDbEntity
  8
Layer_1
 62
7
100
AcDbSpline
 70
8
 71
3
 72
8
 73
4
 74
0
 40
0
 40
0
 40
0
 40
0
 40
1
 40
1
 40
1
 40
1
 10
1823.712969
 20
237.821850
 30
0.0
 10
1829.440406
 20
204.907607
 30
0.0
 10
1840.108885
 20
172.751205
 30
0.0
 10
1855.121594
 20
142.210085
 30
0.0
  0
SPLINE
  5
311
100
AcDbEntity
  8
Layer_1
 62
7
100
AcDbSpline
 70
8
 71
3
 72
8
 73
4
 74
0
 40
0
 40
0
 40
0
 40
0
 40
1
 40
1
 40
1
 40
1
 10
1855.121594
 20
142.210085
 30
0.0
 10
1855.121594
 20
142.210085
 30
0.0
 10
1852.740525
 20
139.216564
 30
0.0
 10
1852.740525
 20
139.216564
 30
0.0
  0
SPLINE
  5
312
100
AcDbEntity
  8
Layer_1
 62
7
100
AcDbSpline
 70
8
 71
3
 72
8
 73
4
 74
0
 40
0
 40
0
 40
0
 40
0
 40
1
 40
1
 40
1
 40
1
 10
1852.740525
 20
139.216564
 30
0.0
 10
1845.138368
 20
129.652251
 30
0.0
 10
1846.723909
 20
115.737035
 30
0.0
 10
1856.282835
 20
108.128106
 30
0.0
  0
SPLINE
  5
313
100
AcDbEntity
  8
Layer_1
 62
7
100
AcDbSpline
 70
8
 71
3
 72
8
 73
4
 74
0
 40
0
 40
0
 40
0
 40
0
 40
1
 40
1
 40
1
 40
1
 10
1856.282835
 20
108.128106
 30
0.0
 10
1856.282835
 20
108.128106
 30
0.0
 10
1878.196002
 20
90.697825
 30
0.0
 10
1878.196002
 20
90.697825
 30
0.0
  0
SPLINE
  5
314
100
AcDbEntity
  8
Layer_1
 62
7
100
AcDbSpline
 70
8
 71
3
 72
8
 73
4
 74
0
 40
0
 40
0
 40
0
 40
0
 40
1
 40
1
 40
1
 40
1
 10
1878.196002
 20
90.697825
 30
0.0
 10
1882.115953
 20
87.585698
 30
0.0
 10
1886.975006
 20
85.894101
 30
0.0
 10
1891.980136
 20
85.899112
 30
0.0
  0
SPLINE
  5
315
100
AcDbEntity
  8
Layer_1
 62
7
100
AcDbSpline
 70
8
 71
3
 72
8
 73
4
 74
0
 40
0
 40
0
 40
0
 40
0
 40
1
 40
1
 40
1
 40
1
 10
1891.980136
 20
85.899112
 30
0.0
 10
1892.396602
 20
84.095639
 30
0.0
 10
1893.037651
 20
82.351529
 30
0.0
 10
1893.888270
 20
80.707630
 30
0.0
  0
SPLINE
  5
316
100
AcDbEntity
  8
Layer_1
 62
7
100
AcDbSpline
 70
8
 71
3
 72
8
 73
4
 74
0
 40
0
 40
0
 40
0
 40
0
 40
1
 40
1
 40
1
 40
1
 10
1893.888270
 20
80.707630
 30
0.0
 10
1886.500116
 20
81.850417
 30
0.0
 10
1879.034358
 20
79.186258
 30
0.0
 10
1874.038784
 20
73.624332
 30
0.0
  0
LWPOLYLINE
  5
317
100
AcDbEntity
  8
Layer_1
 62
7
100
AcDbPolyline
 90
2
 70
0
 10
1825.108038
 20
362.987869
 30
0.0
 10
1825.108038
 20
362.987869
 30
0.0
  0
SPLINE
  5
318
100
AcDbEntity
  8
Layer_1
 62
7
100
AcDbSpline
 70
8
 71
3
 72
8
 73
4
 74
0
 40
0
 40
0
 40
0
 40
0
 40
1
 40
1
 40
1
 40
1
 10
1831.601538
 20
107.379813
 30
0.0
 10
1812.284061
 20
145.087437
 30
0.0
 10
1799.413523
 20
185.500650
 30
0.0
 10
1793.199824
 20
226.890392
 30
0.0
  0
SPLINE
  5
319
100
AcDbEntity
  8
Layer_1
 62
7
100
AcDbSpline
 70
8
 71
3
 72
8
 73
4
 74
0
 40
0
 40
0
 40
0
 40
0
 40
1
 40
1
 40
1
 40
1
 10
1793.199824
 20
226.890392
 30
0.0
 10
1802.482704
 20
222.504507
 30
0.0
 10
1813.563053
 20
225.078209
 30
0.0
 10
1819.962369
 20
233.106696
 30
0.0
  0
LWPOLYLINE
  5
31a
100
AcDbEntity
  8
Layer_1
 62
7
100
AcDbPolyline
 90
2
 70
0
 10
1874.038784
 20
73.624332
 30
0.0
 10
1831.601538
 20
107.379813
 30
0.0
  0
SPLINE
  5
31b
100
AcDbEntity
  8
Layer_1
 62
7
100
AcDbSpline
 70
8
 71
3
 72
8
 73
4
 74
0
 40
0
 40
0
 40
0
 40
0
 40
1
 40
1
 40
1
 40
1
 10
1475.014736
 20
378.301574
 30
0.0
 10
1490.056016
 20
380.042438
 30
0.0
 10
1502.267536
 20
390.742670
 30
0.0
 10
1505.889696
 20
404.776574
 30
0.0
  0
SPLINE
  5
31c
100
AcDbEntity
  8
Layer_1
 62
7
100
AcDbSpline
 70
8
 71
3
 72
8
 73
4
 74
0
 40
0
 40
0
 40
0
 40
0
 40
1
 40
1
 40
1
 40
1
 10
1505.889696
 20
404.776574
 30
0.0
 10
1505.860096
 20
405.244374
 30
0.0
 10
1505.820896
 20
405.709198
 30
0.0
 10
1505.789696
 20
406.176574
 30
0.0
  0
LWPOLYLINE
  5
31d
100
AcDbEntity
  8
Layer_1
 62
7
100
AcDbPolyline
 90
3
 70
0
 10
1819.962369
 20
233.106696
 30
0.0
 10
1823.712994
 20
237.821929
 30
0.0
 10
1823.712969
 20
237.821850
 30
0.0
  0
SPLINE
  5
31e
100
AcDbEntity
  8
Layer_1
 62
7
100
AcDbSpline
 70
8
 71
3
 72
8
 73
4
 74
0
 40
0
 40
0
 40
0
 40
0
 40
1
 40
1
 40
1
 40
1
 10
1505.139696
 20
414.626574
 30
0.0
 10
1501.970256
 20
451.193766
 30
0.0
 10
1494.015936
 20
486.385558
 30
0.0
 10
1481.889696
 20
519.576574
 30
0.0
  0
LWPOLYLINE
  5
31f
100
AcDbEntity
  8
Layer_1
 62
7
100
AcDbPolyline
 90
4
 70
0
 10
1505.789696
 20
406.176574
 30
0.0
 10
1469.814736
 20
406.176574
 30
0.0
 10
1469.814736
 20
414.626574
 30
0.0
 10
1505.139696
 20
414.626574
 30
0.0
  0
SPLINE
  5
320
100
AcDbEntity
  8
Layer_1
 62
7
100
AcDbSpline
 70
8
 71
3
 72
8
 73
4
 74
0
 40
0
 40
0
 40
0
 40
0
 40
1
 40
1
 40
1
 40
1
 10
1478.714736
 20
528.001574
 30
0.0
 10
1463.841536
 20
566.077670
 30
0.0
 10
1443.445536
 20
601.391646
 30
0.0
 10
1418.514736
 20
632.951574
 30
0.0
  0
LWPOLYLINE
  5
321
100
AcDbEntity
  8
Layer_1
 62
7
100
AcDbPolyline
 90
4
 70
0
 10
1481.889696
 20
519.576574
 30
0.0
 10
1440.914736
 20
519.576574
 30
0.0
 10
1440.914736
 20
528.001574
 30
0.0
 10
1478.714736
 20
528.001574
 30
0.0
  0
SPLINE
  5
322
100
AcDbEntity
  8
Layer_1
 62
7
100
AcDbSpline
 70
8
 71
3
 72
8
 73
4
 74
0
 40
0
 40
0
 40
0
 40
0
 40
1
 40
1
 40
1
 40
1
 10
1411.664656
 20
641.376574
 30
0.0
 10
1371.234256
 20
689.874374
 30
0.0
 10
1319.835136
 20
728.912694
 30
0.0
 10
1261.264656
 20
754.651574
 30
0.0
  0
LWPOLYLINE
  5
323
100
AcDbEntity
  8
Layer_1
 62
7
100
AcDbPolyline
 90
4
 70
0
 10
1418.514736
 20
632.951574
 30
0.0
 10
1365.814736
 20
632.951574
 30
0.0
 10
1365.814736
 20
641.376574
 30
0.0
 10
1411.664656
 20
641.376574
 30
0.0
  0
SPLINE
  5
324
100
AcDbEntity
  8
Layer_1
 62
7
100
AcDbSpline
 70
8
 71
3
 72
8
 73
4
 74
0
 40
0
 40
0
 40
0
 40
0
 40
1
 40
1
 40
1
 40
1
 10
1237.464416
 20
676.501574
 30
0.0
 10
1345.797776
 20
630.577974
 30
0.0
 10
1423.520416
 20
532.279414
 30
0.0
 10
1434.589456
 20
409.201574
 30
0.0
  0
LWPOLYLINE
  5
325
100
AcDbEntity
  8
Layer_1
 62
7
100
AcDbPolyline
 90
24
 70
0
 10
1261.264656
 20
754.651574
 30
0.0
 10
1179.989696
 20
754.651574
 30
0.0
 10
1179.989696
 20
745.051574
 30
0.0
 10
1180.014496
 20
745.051574
 30
0.0
 10
1180.014496
 20
744.126574
 30
0.0
 10
1111.314496
 20
744.126574
 30
0.0
 10
1111.314496
 20
744.076574
 30
0.0
 10
1111.139456
 20
744.076574
 30
0.0
 10
1111.139456
 20
743.626574
 30
0.0
 10
1111.139456
 20
733.351574
 30
0.0
 10
1110.214496
 20
733.351574
 30
0.0
 10
1110.214496
 20
705.676574
 30
0.0
 10
1110.214496
 20
705.376574
 30
0.0
 10
1110.214496
 20
694.451574
 30
0.0
 10
1111.114496
 20
694.451574
 30
0.0
 10
1111.114496
 20
677.726574
 30
0.0
 10
1138.639456
 20
677.726574
 30
0.0
 10
1138.639456
 20
694.451574
 30
0.0
 10
1181.939456
 20
694.451574
 30
0.0
 10
1181.939456
 20
677.876574
 30
0.0
 10
1209.464416
 20
677.876574
 30
0.0
 10
1209.464416
 20
686.501574
 30
0.0
 10
1237.464416
 20
686.501574
 30
0.0
 10
1237.464416
 20
676.501574
 30
0.0
  0
SPLINE
  5
326
100
AcDbEntity
  8
Layer_1
 62
7
100
AcDbSpline
 70
8
 71
3
 72
8
 73
4
 74
0
 40
0
 40
0
 40
0
 40
0
 40
1
 40
1
 40
1
 40
1
 10
1434.589456
 20
409.626574
 30
0.0
 10
1436.392176
 20
393.250294
 30
0.0
 10
1449.639776
 20
380.221358
 30
0.0
 10
1466.389456
 20
378.301574
 30
0.0
  0
LWPOLYLINE
  5
327
100
AcDbEntity
  8
Layer_1
 62
7
100
AcDbPolyline
 90
2
 70
0
 10
1434.589456
 20
409.201574
 30
0.0
 10
1434.589456
 20
409.626574
 30
0.0
  0
SPLINE
  5
328
100
AcDbEntity
  8
Layer_1
 62
7
100
AcDbSpline
 70
8
 71
3
 72
8
 73
4
 74
0
 40
0
 40
0
 40
0
 40
0
 40
1
 40
1
 40
1
 40
1
 10
1454.314736
 20
430.426574
 30
0.0
 10
1450.896096
 20
453.826614
 30
0.0
 10
1445.180176
 20
476.337950
 30
0.0
 10
1437.389696
 20
497.751574
 30
0.0
  0
SPLINE
  5
329
100
AcDbEntity
  8
Layer_1
 62
7
100
AcDbSpline
 70
8
 71
3
 72
8
 73
4
 74
0
 40
0
 40
0
 40
0
 40
0
 40
1
 40
1
 40
1
 40
1
 10
1437.389696
 20
497.751574
 30
0.0
 10
1438.554822
 20
497.557676
 30
0.0
 10
1439.733600
 20
497.457355
 30
0.0
 10
1440.914736
 20
497.451574
 30
0.0
  0
LWPOLYLINE
  5
32a
100
AcDbEntity
  8
Layer_1
 62
7
100
AcDbPolyline
 90
3
 70
0
 10
1466.389456
 20
378.301574
 30
0.0
 10
1475.014496
 20
378.301574
 30
0.0
 10
1475.014736
 20
378.301574
 30
0.0
  0
SPLINE
  5
32b
100
AcDbEntity
  8
Layer_1
 62
7
100
AcDbSpline
 70
8
 71
3
 72
8
 73
4
 74
0
 40
0
 40
0
 40
0
 40
0
 40
1
 40
1
 40
1
 40
1
 10
1466.039696
 20
497.451574
 30
0.0
 10
1472.325376
 20
477.855494
 30
0.0
 10
1477.121616
 20
457.577838
 30
0.0
 10
1480.239696
 20
436.751574
 30
0.0
  0
SPLINE
  5
32c
100
AcDbEntity
  8
Layer_1
 62
7
100
AcDbSpline
 70
8
 71
3
 72
8
 73
4
 74
0
 40
0
 40
0
 40
0
 40
0
 40
1
 40
1
 40
1
 40
1
 10
1480.239696
 20
436.751574
 30
0.0
 10
1480.239696
 20
436.751574
 30
0.0
 10
1469.814736
 20
436.751574
 30
0.0
 10
1469.814736
 20
436.751574
 30
0.0
  0
SPLINE
  5
32d
100
AcDbEntity
  8
Layer_1
 62
7
100
AcDbSpline
 70
8
 71
3
 72
8
 73
4
 74
0
 40
0
 40
0
 40
0
 40
0
 40
1
 40
1
 40
1
 40
1
 10
1469.814736
 20
436.751574
 30
0.0
 10
1464.019238
 20
436.753888
 30
0.0
 10
1458.454036
 20
434.482927
 30
0.0
 10
1454.314736
 20
430.426574
 30
0.0
  0
LWPOLYLINE
  5
32e
100
AcDbEntity
  8
Layer_1
 62
7
100
AcDbPolyline
 90
2
 70
0
 10
1440.914736
 20
497.451574
 30
0.0
 10
1466.039696
 20
497.451574
 30
0.0
  0
SPLINE
  5
32f
100
AcDbEntity
  8
Layer_1
 62
7
100
AcDbSpline
 70
8
 71
3
 72
8
 73
4
 74
0
 40
0
 40
0
 40
0
 40
0
 40
1
 40
1
 40
1
 40
1
 10
1420.514736
 20
536.526574
 30
0.0
 10
1406.531376
 20
563.725694
 30
0.0
 10
1388.844256
 20
588.557086
 30
0.0
 10
1368.364656
 20
610.826574
 30
0.0
  0
LWPOLYLINE
  5
330
100
AcDbEntity
  8
Layer_1
 62
7
100
AcDbPolyline
 90
2
 70
0
 10
1454.314736
 20
430.426574
 30
0.0
 10
1454.314736
 20
430.426574
 30
0.0
  0
SPLINE
  5
331
100
AcDbEntity
  8
Layer_1
 62
7
100
AcDbSpline
 70
8
 71
3
 72
8
 73
4
 74
0
 40
0
 40
0
 40
0
 40
0
 40
1
 40
1
 40
1
 40
1
 10
1407.539696
 20
610.826574
 30
0.0
 10
1421.709216
 20
591.854750
 30
0.0
 10
1434.183856
 20
571.543590
 30
0.0
 10
1444.739696
 20
550.126574
 30
0.0
  0
LWPOLYLINE
  5
332
100
AcDbEntity
  8
Layer_1
 62
7
100
AcDbPolyline
 90
2
 70
0
 10
1368.364656
 20
610.826574
 30
0.0
 10
1407.539696
 20
610.826574
 30
0.0
  0
SPLINE
  5
333
100
AcDbEntity
  8
Layer_1
 62
7
100
AcDbSpline
 70
8
 71
3
 72
8
 73
4
 74
0
 40
0
 40
0
 40
0
 40
0
 40
1
 40
1
 40
1
 40
1
 10
1440.914736
 20
550.126574
 30
0.0
 10
1431.995628
 20
550.117728
 30
0.0
 10
1423.953328
 20
544.756194
 30
0.0
 10
1420.514736
 20
536.526574
 30
0.0
  0
LWPOLYLINE
  5
334
100
AcDbEntity
  8
Layer_1
 62
7
100
AcDbPolyline
 90
2
 70
0
 10
1444.739696
 20
550.126574
 30
0.0
 10
1440.914736
 20
550.126574
 30
0.0
  0
SPLINE
  5
335
100
AcDbEntity
  8
Layer_1
 62
7
100
AcDbSpline
 70
8
 71
3
 72
8
 73
4
 74
0
 40
0
 40
0
 40
0
 40
0
 40
1
 40
1
 40
1
 40
1
 10
1343.689696
 20
635.351574
 30
0.0
 10
1318.717936
 20
657.545278
 30
0.0
 10
1290.350976
 20
676.070190
 30
0.0
 10
1259.589696
 20
690.626574
 30
0.0
  0
SPLINE
  5
336
100
AcDbEntity
  8
Layer_1
 62
7
100
AcDbSpline
 70
8
 71
3
 72
8
 73
4
 74
0
 40
0
 40
0
 40
0
 40
0
 40
1
 40
1
 40
1
 40
1
 10
1259.589696
 20
690.626574
 30
0.0
 10
1259.589696
 20
690.626574
 30
0.0
 10
1259.589696
 20
694.451574
 30
0.0
 10
1259.589696
 20
694.451574
 30
0.0
  0
SPLINE
  5
337
100
AcDbEntity
  8
Layer_1
 62
7
100
AcDbSpline
 70
8
 71
3
 72
8
 73
4
 74
0
 40
0
 40
0
 40
0
 40
0
 40
1
 40
1
 40
1
 40
1
 10
1259.589696
 20
694.451574
 30
0.0
 10
1259.585314
 20
706.669074
 30
0.0
 10
1249.682156
 20
716.572214
 30
0.0
 10
1237.464656
 20
716.576574
 30
0.0
  0
LWPOLYLINE
  5
338
100
AcDbEntity
  8
Layer_1
 62
7
100
AcDbPolyline
 90
2
 70
0
 10
1420.514736
 20
536.526574
 30
0.0
 10
1420.514736
 20
536.526574
 30
0.0
  0
SPLINE
  5
339
100
AcDbEntity
  8
Layer_1
 62
7
100
AcDbSpline
 70
8
 71
3
 72
8
 73
4
 74
0
 40
0
 40
0
 40
0
 40
0
 40
1
 40
1
 40
1
 40
1
 10
1209.464656
 20
716.576574
 30
0.0
 10
1204.459523
 20
716.572038
 30
0.0
 10
1199.603705
 20
714.871175
 30
0.0
 10
1195.689696
 20
711.751574
 30
0.0
  0
SPLINE
  5
33a
100
AcDbEntity
  8
Layer_1
 62
7
100
AcDbSpline
 70
8
 71
3
 72
8
 73
4
 74
0
 40
0
 40
0
 40
0
 40
0
 40
1
 40
1
 40
1
 40
1
 10
1195.689696
 20
711.751574
 30
0.0
 10
1194.241092
 20
712.903708
 30
0.0
 10
1192.653687
 20
713.869581
 30
0.0
 10
1190.964656
 20
714.626574
 30
0.0
  0
SPLINE
  5
33b
100
AcDbEntity
  8
Layer_1
 62
7
100
AcDbSpline
 70
8
 71
3
 72
8
 73
4
 74
0
 40
0
 40
0
 40
0
 40
0
 40
1
 40
1
 40
1
 40
1
 10
1190.964656
 20
714.626574
 30
0.0
 10
1197.458124
 20
718.331414
 30
0.0
 10
1201.642459
 20
725.063938
 30
0.0
 10
1202.089696
 20
732.526574
 30
0.0
  0
LWPOLYLINE
  5
33c
100
AcDbEntity
  8
Layer_1
 62
7
100
AcDbPolyline
 90
2
 70
0
 10
1237.464656
 20
716.576574
 30
0.0
 10
1209.464656
 20
716.576574
 30
0.0
  0
SPLINE
  5
33d
100
AcDbEntity
  8
Layer_1
 62
7
100
AcDbSpline
 70
8
 71
3
 72
8
 73
4
 74
0
 40
0
 40
0
 40
0
 40
0
 40
1
 40
1
 40
1
 40
1
 10
1256.314736
 20
732.526574
 30
0.0
 10
1294.906096
 20
715.041454
 30
0.0
 10
1330.136336
 20
691.425550
 30
0.0
 10
1360.764656
 20
662.901574
 30
0.0
  0
SPLINE
  5
33e
100
AcDbEntity
  8
Layer_1
 62
7
100
AcDbSpline
 70
8
 71
3
 72
8
 73
4
 74
0
 40
0
 40
0
 40
0
 40
0
 40
1
 40
1
 40
1
 40
1
 10
1360.764656
 20
662.901574
 30
0.0
 10
1350.769477
 20
660.555321
 30
0.0
 10
1343.700017
 20
651.643433
 30
0.0
 10
1343.689696
 20
641.376574
 30
0.0
  0
LWPOLYLINE
  5
33f
100
AcDbEntity
  8
Layer_1
 62
7
100
AcDbPolyline
 90
2
 70
0
 10
1202.089696
 20
732.526574
 30
0.0
 10
1256.314736
 20
732.526574
 30
0.0
  0
LWPOLYLINE
  5
340
100
AcDbEntity
  8
Layer_1
 62
7
100
AcDbPolyline
 90
3
 70
0
 10
1343.689696
 20
641.376574
 30
0.0
 10
1343.689696
 20
635.351574
 30
0.0
 10
1343.689696
 20
635.351574
 30
0.0
  0
ENDSEC
  0
SECTION
  2
OBJECTS
  0
DICTIONARY
  5
C
330
0
100
AcDbDictionary
  3
ACAD_GROUP
350
D
  3
ACAD_MLINESTYLE
350
17
  0
DICTIONARY
  5
D
330
C
100
AcDbDictionary
  0
DICTIONARY
  5
1A
330
C
100
AcDbDictionary
  0
DICTIONARY
  5
17
330
C
100
AcDbDictionary
  3
STANDARD
350
18
  0
DICTIONARY
  5
19
330
C
100
AcDbDictionary
  0
ENDSEC
  0
EOF
