0
SECTION
2
HEADER
9
$INSUNITS
70
4
9
$ACADVER
1
AC1014
9
$HANDSEED
5
FFFF
0
ENDSEC
0
SECTION
2
TABLES
0
TABLE
2
VPORT
5
8
100
AcDbSymbolTable
0
ENDTAB
0
TABLE
2
LTYPE
5
5
100
AcDbSymbolTable
0
LTYPE
5
14
100
AcDbSymbolTableRecord
100
AcDbLinetypeTableRecord
2
BYBLOCK
70
0
0
LTYPE
5
15
100
AcDbSymbolTableRecord
100
AcDbLinetypeTableRecord
2
BYLAYER
70
0
0
ENDTAB
0
TABLE
2
LAYER
5
2
100
AcDbSymbolTable
70
2
0
LAYER
5
50
100
AcDbSymbolTableRecord
100
AcDbLayerTableRecord
2
0
70
0
6
CONTINUOUS
0
ENDTAB
0
TABLE
2
STYLE
5
3
100
AcDbSymbolTable
70
1
0
STYLE
5
11
100
AcDbSymbolTableRecord
100
AcDbTextStyleTableRecord
2
STANDARD
70
0
0
ENDTAB
0
TABLE
2
VIEW
5
6
100
AcDbSymbolTable
70
0
0
ENDTAB
0
TABLE
2
UCS
5
7
100
AcDbSymbolTable
70
0
0
ENDTAB
0
TABLE
2
APPID
5
9
100
AcDbSymbolTable
70
2
0
APPID
5
12
100
AcDbSymbolTableRecord
100
AcDbRegAppTableRecord
2
ACAD
70
0
0
ENDTAB
0
TABLE
2
DIMSTYLE
5
A
100
AcDbSymbolTable
70
1
0
ENDTAB
0
TABLE
2
BLOCK_RECORD
5
1
100
AcDbSymbolTable
70
1
0
BLOCK_RECORD
5
1F
100
AcDbSymbolTableRecord
100
AcDbBlockTableRecord
2
*MODEL_SPACE
0
BLOCK_RECORD
5
1B
100
AcDbSymbolTableRecord
100
AcDbBlockTableRecord
2
*PAPER_SPACE
0
ENDTAB
0
ENDSEC
0
SECTION
2
BLOCKS
0
BLOCK
5
20
100
AcDbEntity
100
AcDbBlockBegin
2
*MODEL_SPACE
0
ENDBLK
5
21
100
AcDbEntity
100
AcDbBlockEnd
0
BLOCK
5
1C
100
AcDbEntity
100
AcDbBlockBegin
2
*PAPER_SPACE
0
ENDBLK
5
1D
100
AcDbEntity
100
AcDbBlockEnd
0
ENDSEC
0
SECTION
2
ENTITIES
0
LWPOLYLINE
5
100
100
AcDbEntity
8
0
100
AcDbPolyline
90
4
70
1
43
0.0
10
257.40211357061241
20
0
10
-442.59788642938759
20
0
10
-442.59788642938759
20
12.000000000000002
10
257.40211357061247
20
12.000000000000002
0
LINE
5
101
100
AcDbEntity
8
0
100
AcDbLine
10
216.00999999999999
20
12.000000000000002
30
0
11
216.00999999999999
21
0
31
0
0
LINE
5
102
100
AcDbEntity
8
0
100
AcDbLine
10
216.00999999999999
20
0
30
0
11
216.00999999999999
21
-246.82500000000002
31
0
0
LINE
5
103
100
AcDbEntity
8
0
100
AcDbLine
10
203.99000000000001
20
0
30
0
11
203.99000000000001
21
-246.82500000000002
31
0
0
LINE
5
104
100
AcDbEntity
8
0
100
AcDbLine
10
203.99000000000001
20
12.000000000000002
30
0
11
203.99000000000001
21
0
31
0
0
LINE
5
105
100
AcDbEntity
8
0
100
AcDbLine
10
216.00999999999999
20
12.000000000000002
30
0
11
226.00999999999999
21
12.000000000000002
31
0
0
LINE
5
106
100
AcDbEntity
8
0
100
AcDbLine
10
226.00999999999999
20
12.000000000000002
30
0
11
226.00999999999999
21
0
31
0
0
LINE
5
107
100
AcDbEntity
8
0
100
AcDbLine
10
226.00999999999999
20
0
30
0
11
246.00999999999999
21
0
31
0
0
LINE
5
108
100
AcDbEntity
8
0
100
AcDbLine
10
246.00999999999999
20
0
30
0
11
226.00999999999999
21
0
31
0
0
LINE
5
109
100
AcDbEntity
8
0
100
AcDbLine
10
210.00000000000003
20
-500
30
0
11
260.00000000000006
21
-500
31
0
0
LINE
5
110
100
AcDbEntity
8
0
100
AcDbLine
10
246.00999999999999
20
0
30
0
11
226.00999999999999
21
0
31
0
0
LINE
5
111
100
AcDbEntity
8
0
100
AcDbLine
10
246.00999999999999
20
0
30
0
11
226.00999999999999
21
0
31
0
0
LINE
5
112
100
AcDbEntity
8
0
100
AcDbLine
10
260.00000000000006
20
-500
30
0
11
246.00999999999999
21
0
31
0
0
LINE
5
113
100
AcDbEntity
8
0
100
AcDbLine
10
210.00000000000003
20
-500
30
0
11
160.00000000000003
21
-500
31
0
0
LINE
5
114
100
AcDbEntity
8
0
100
AcDbLine
10
203.99000000000001
20
12.000000000000002
30
0
11
193.99000000000001
21
12
31
0
0
LINE
5
115
100
AcDbEntity
8
0
100
AcDbLine
10
193.99000000000001
20
12
30
0
11
193.99000000000001
21
-2.2751578399038395e-15
31
0
0
LINE
5
116
100
AcDbEntity
8
0
100
AcDbLine
10
212.83500000000001
20
-250
30
0
11
207.16499999999999
21
-250
31
0
0
LINE
5
117
100
AcDbEntity
8
0
100
AcDbLine
10
173.99000000000001
20
-5.1173287829442404e-15
30
0
11
123.99000000000001
21
-5.1173287829442404e-15
31
0
0
LINE
5
118
100
AcDbEntity
8
0
100
AcDbLine
10
160.00000000000003
20
-500
30
0
11
110.00000000000003
21
-500
31
0
0
LINE
5
119
100
AcDbEntity
8
0
100
AcDbLine
10
123.99000000000001
20
-5.1173287829442404e-15
30
0
11
110.00000000000003
21
-500
31
0
0
LINE
5
120
100
AcDbEntity
8
0
100
AcDbLine
10
123.99000000000001
20
-5.1173287829442404e-15
30
0
11
193.99000000000001
21
-2.2751578399038395e-15
31
0
0
LINE
5
121
100
AcDbEntity
8
0
100
AcDbLine
10
193.99000000000001
20
12
30
0
11
193.99000000000001
21
-2.2751578399038395e-15
31
0
0
LINE
5
122
100
AcDbEntity
8
0
100
AcDbLine
10
123.99000000000001
20
-5.1173287829442404e-15
30
0
11
193.99000000000001
21
-2.2751578399038395e-15
31
0
0
LINE
5
123
100
AcDbEntity
8
0
100
AcDbLine
10
193.99000000000001
20
12
30
0
11
203.99000000000001
21
12.000000000000002
31
0
0
LINE
5
124
100
AcDbEntity
8
0
100
AcDbLine
10
203.99000000000001
20
12.000000000000002
30
0
11
203.99000000000001
21
-246.82500000000002
31
0
0
LINE
5
125
100
AcDbEntity
8
0
100
AcDbLine
10
203.99000000000001
20
-250
30
0
11
212.83500000000001
21
-250
31
0
0
LINE
5
126
100
AcDbEntity
8
0
100
AcDbLine
10
216.00999999999999
20
-246.82500000000002
30
0
11
216.00999999999999
21
12.000000000000002
31
0
0
ARC
5
127
100
AcDbEntity
8
0
100
AcDbCircle
10
203.99000000000001
20
-250
30
0
40
3.1749999999999901
100
AcDbArc
50
-270
51
0
0
ARC
5
128
100
AcDbEntity
8
0
100
AcDbCircle
10
216.00999999999999
20
-250
30
0
40
3.1749999999999901
100
AcDbArc
50
-180
51
90
0
ENDSEC
0
SECTION
2
OBJECTS
0
DICTIONARY
5
C
100
AcDbDictionary
3
ACAD_GROUP
350
D
3
ACAD_MLINESTYLE
350
17
0
DICTIONARY
5
D
100
AcDbDictionary
0
DICTIONARY
5
1A
330
C
100
AcDbDictionary
0
DICTIONARY
5
17
100
AcDbDictionary
0
ENDSEC
0
EOF
