0
SECTION
2
HEADER
9
$INSUNITS
70
4
9
$ACADVER
1
AC1014
9
$HANDSEED
5
FFFF
0
ENDSEC
0
SECTION
2
TABLES
0
TABLE
2
VPORT
5
8
100
AcDbSymbolTable
0
ENDTAB
0
TABLE
2
LTYPE
5
5
100
AcDbSymbolTable
0
LTYPE
5
14
100
AcDbSymbolTableRecord
100
AcDbLinetypeTableRecord
2
BYBLOCK
70
0
0
LTYPE
5
15
100
AcDbSymbolTableRecord
100
AcDbLinetypeTableRecord
2
BYLAYER
70
0
0
ENDTAB
0
TABLE
2
LAYER
5
2
100
AcDbSymbolTable
70
2
0
LAYER
5
50
100
AcDbSymbolTableRecord
100
AcDbLayerTableRecord
2
0
70
0
6
CONTINUOUS
0
ENDTAB
0
TABLE
2
STYLE
5
3
100
AcDbSymbolTable
70
1
0
STYLE
5
11
100
AcDbSymbolTableRecord
100
AcDbTextStyleTableRecord
2
STANDARD
70
0
0
ENDTAB
0
TABLE
2
VIEW
5
6
100
AcDbSymbolTable
70
0
0
ENDTAB
0
TABLE
2
UCS
5
7
100
AcDbSymbolTable
70
0
0
ENDTAB
0
TABLE
2
APPID
5
9
100
AcDbSymbolTable
70
2
0
APPID
5
12
100
AcDbSymbolTableRecord
100
AcDbRegAppTableRecord
2
ACAD
70
0
0
ENDTAB
0
TABLE
2
DIMSTYLE
5
A
100
AcDbSymbolTable
70
1
0
ENDTAB
0
TABLE
2
BLOCK_RECORD
5
1
100
AcDbSymbolTable
70
1
0
BLOCK_RECORD
5
1F
100
AcDbSymbolTableRecord
100
AcDbBlockTableRecord
2
*MODEL_SPACE
0
BLOCK_RECORD
5
1B
100
AcDbSymbolTableRecord
100
AcDbBlockTableRecord
2
*PAPER_SPACE
0
ENDTAB
0
ENDSEC
0
SECTION
2
BLOCKS
0
BLOCK
5
20
100
AcDbEntity
100
AcDbBlockBegin
2
*MODEL_SPACE
0
ENDBLK
5
21
100
AcDbEntity
100
AcDbBlockEnd
0
BLOCK
5
1C
100
AcDbEntity
100
AcDbBlockBegin
2
*PAPER_SPACE
0
ENDBLK
5
1D
100
AcDbEntity
100
AcDbBlockEnd
0
ENDSEC
0
SECTION
2
ENTITIES
0
LWPOLYLINE
5
100
100
AcDbEntity
8
0
100
AcDbPolyline
90
8
70
1
43
0.0
10
-150.00000000000003
20
249.99999999999997
10
149.99999999999997
20
249.99999999999997
42
-0.41421356237309548
10
250
20
150.00000000000006
10
249.99999999999994
20
-150.00000000000006
42
-0.4142135623730957
10
150.00000000000003
20
-249.99999999999997
10
-149.99999999999997
20
-249.99999999999997
42
-0.41421356237309598
10
-249.99999999999997
20
-149.99999999999991
10
-249.99999999999994
20
149.99999999999997
42
-0.41421356237309548
0
LINE
5
101
100
AcDbEntity
8
0
100
AcDbLine
10
-1.4102609688820126e-14
20
50
30
0
11
4.4999999999999885
21
50
31
0
0
LINE
5
102
100
AcDbEntity
8
0
100
AcDbLine
10
-1.4102609688820126e-14
20
50
30
0
11
-4.5000000000000178
21
50
31
0
0
LINE
5
103
100
AcDbEntity
8
0
100
AcDbLine
10
8.9999999999999858
20
45.500000000000007
30
0
11
8.9999999999999858
21
8.9999999999999858
31
0
0
LINE
5
104
100
AcDbEntity
8
0
100
AcDbLine
10
-9.0000000000000107
20
45.500000000000007
30
0
11
-8.9999999999999876
21
8.999999999999984
31
0
0
LINE
5
105
100
AcDbEntity
8
0
100
AcDbLine
10
-1.4102609688820126e-14
20
-50
30
0
11
4.4999999999999849
21
-50
31
0
0
LINE
5
106
100
AcDbEntity
8
0
100
AcDbLine
10
-1.4102609688820126e-14
20
-50
30
0
11
-4.5000000000000142
21
-50
31
0
0
LINE
5
107
100
AcDbEntity
8
0
100
AcDbLine
10
-9.000000000000016
20
-45.5
30
0
11
-9.0000000000000266
21
-9.0000000000000018
31
0
0
LINE
5
108
100
AcDbEntity
8
0
100
AcDbLine
10
8.9999999999999893
20
-45.5
30
0
11
9.0000000000000284
21
-9
31
0
0
LINE
5
109
100
AcDbEntity
8
0
100
AcDbLine
10
50
20
0
30
0
11
50
21
-4.4999999999999956
31
0
0
LINE
5
110
100
AcDbEntity
8
0
100
AcDbLine
10
50
20
0
30
0
11
50
21
4.4999999999999982
31
0
0
LINE
5
111
100
AcDbEntity
8
0
100
AcDbLine
10
45.5
20
9
30
0
11
8.9999999999999858
21
8.9999999999999858
31
0
0
LINE
5
112
100
AcDbEntity
8
0
100
AcDbLine
10
45.5
20
-9
30
0
11
9.0000000000000284
21
-9
31
0
0
LINE
5
113
100
AcDbEntity
8
0
100
AcDbLine
10
-45.5
20
8.9999999999999858
30
0
11
-8.9999999999999876
21
8.999999999999984
31
0
0
LINE
5
114
100
AcDbEntity
8
0
100
AcDbLine
10
-50
20
-1.3994364662438251e-14
30
0
11
-50
21
4.4999999999999858
31
0
0
LINE
5
115
100
AcDbEntity
8
0
100
AcDbLine
10
-50
20
-1.3994364662438251e-14
30
0
11
-50
21
-4.5000000000000151
31
0
0
LINE
5
116
100
AcDbEntity
8
0
100
AcDbLine
10
-45.5
20
-9.0000000000000142
30
0
11
-9.0000000000000266
21
-9.0000000000000018
31
0
0
ARC
5
117
100
AcDbEntity
8
0
100
AcDbCircle
10
-9.0000000000000142
20
50
30
0
40
4.4999999999999973
100
AcDbArc
50
0
51
270.00000000000006
0
ARC
5
118
100
AcDbEntity
8
0
100
AcDbCircle
10
8.9999999999999858
20
50
30
0
40
4.4999999999999929
100
AcDbArc
50
-90
51
180
0
ARC
5
119
100
AcDbEntity
8
0
100
AcDbCircle
10
-50
20
8.9999999999999858
30
0
40
4.5000000000000018
100
AcDbArc
50
0
51
270
0
ARC
5
120
100
AcDbEntity
8
0
100
AcDbCircle
10
-50
20
-9.0000000000000142
30
0
40
4.5
100
AcDbArc
50
-270
51
0
0
ARC
5
121
100
AcDbEntity
8
0
100
AcDbCircle
10
-9.0000000000000142
20
-50
30
0
40
4.5000000000000018
100
AcDbArc
50
-270
51
0
0
ARC
5
122
100
AcDbEntity
8
0
100
AcDbCircle
10
8.9999999999999858
20
-50
30
0
40
4.5000000000000009
100
AcDbArc
50
-180
51
89.999999999999972
0
ARC
5
123
100
AcDbEntity
8
0
100
AcDbCircle
10
50
20
-9
30
0
40
4.5000000000000018
100
AcDbArc
50
-180
51
90
0
ARC
5
124
100
AcDbEntity
8
0
100
AcDbCircle
10
50
20
9
30
0
40
4.5000000000000018
100
AcDbArc
50
-90
51
180
0
ENDSEC
0
SECTION
2
OBJECTS
0
DICTIONARY
5
C
100
AcDbDictionary
3
ACAD_GROUP
350
D
3
ACAD_MLINESTYLE
350
17
0
DICTIONARY
5
D
100
AcDbDictionary
0
DICTIONARY
5
1A
330
C
100
AcDbDictionary
0
DICTIONARY
5
17
100
AcDbDictionary
0
ENDSEC
0
EOF
