0
SECTION
2
HEADER
9
$INSUNITS
70
4
9
$ACADVER
1
AC1014
9
$HANDSEED
5
FFFF
0
ENDSEC
0
SECTION
2
TABLES
0
TABLE
2
VPORT
5
8
100
AcDbSymbolTable
0
ENDTAB
0
TABLE
2
LTYPE
5
5
100
AcDbSymbolTable
0
LTYPE
5
14
100
AcDbSymbolTableRecord
100
AcDbLinetypeTableRecord
2
BYBLOCK
70
0
0
LTYPE
5
15
100
AcDbSymbolTableRecord
100
AcDbLinetypeTableRecord
2
BYLAYER
70
0
0
ENDTAB
0
TABLE
2
LAYER
5
2
100
AcDbSymbolTable
70
2
0
LAYER
5
50
100
AcDbSymbolTableRecord
100
AcDbLayerTableRecord
2
0
70
0
6
CONTINUOUS
0
ENDTAB
0
TABLE
2
STYLE
5
3
100
AcDbSymbolTable
70
1
0
STYLE
5
11
100
AcDbSymbolTableRecord
100
AcDbTextStyleTableRecord
2
STANDARD
70
0
0
ENDTAB
0
TABLE
2
VIEW
5
6
100
AcDbSymbolTable
70
0
0
ENDTAB
0
TABLE
2
UCS
5
7
100
AcDbSymbolTable
70
0
0
ENDTAB
0
TABLE
2
APPID
5
9
100
AcDbSymbolTable
70
2
0
APPID
5
12
100
AcDbSymbolTableRecord
100
AcDbRegAppTableRecord
2
ACAD
70
0
0
ENDTAB
0
TABLE
2
DIMSTYLE
5
A
100
AcDbSymbolTable
70
1
0
ENDTAB
0
TABLE
2
BLOCK_RECORD
5
1
100
AcDbSymbolTable
70
1
0
BLOCK_RECORD
5
1F
100
AcDbSymbolTableRecord
100
AcDbBlockTableRecord
2
*MODEL_SPACE
0
BLOCK_RECORD
5
1B
100
AcDbSymbolTableRecord
100
AcDbBlockTableRecord
2
*PAPER_SPACE
0
ENDTAB
0
ENDSEC
0
SECTION
2
BLOCKS
0
BLOCK
5
20
100
AcDbEntity
100
AcDbBlockBegin
2
*MODEL_SPACE
0
ENDBLK
5
21
100
AcDbEntity
100
AcDbBlockEnd
0
BLOCK
5
1C
100
AcDbEntity
100
AcDbBlockBegin
2
*PAPER_SPACE
0
ENDBLK
5
1D
100
AcDbEntity
100
AcDbBlockEnd
0
ENDSEC
0
SECTION
2
ENTITIES
0
LINE
5
100
100
AcDbEntity
8
0
100
AcDbLine
10
-19.999999999999993
20
27.527638409423474
30
0
11
-32.360679774997891
21
-10.514622242382664
31
0
0
LINE
5
101
100
AcDbEntity
8
0
100
AcDbLine
10
-32.360679774997891
20
-10.514622242382664
30
0
11
-1.1805151416855425e-14
21
-34.026032334081592
31
0
0
LINE
5
102
100
AcDbEntity
8
0
100
AcDbLine
10
-1.1805151416855425e-14
20
-34.026032334081592
30
0
11
32.360679774997891
21
-10.51462224238268
31
0
0
LINE
5
103
100
AcDbEntity
8
0
100
AcDbLine
10
32.360679774997891
20
-10.51462224238268
30
0
11
20.000000000000007
21
27.52763840942346
31
0
0
LINE
5
104
100
AcDbEntity
8
0
100
AcDbLine
10
20.000000000000007
20
27.52763840942346
30
0
11
-19.999999999999993
21
27.527638409423474
31
0
0
LINE
5
105
100
AcDbEntity
8
0
100
AcDbLine
10
-19.999999999999993
20
27.527638409423474
30
0
11
-13.20833333333333
21
27.527638409423474
31
0
0
LINE
5
106
100
AcDbEntity
8
0
100
AcDbLine
10
-13.20833333333333
20
27.527638409423474
30
0
11
-13.20833333333333
21
24.027638409423474
31
0
0
LINE
5
107
100
AcDbEntity
8
0
100
AcDbLine
10
-13.20833333333333
20
24.027638409423474
30
0
11
-6.6666666666666643
21
24.027638409423474
31
0
0
LINE
5
108
100
AcDbEntity
8
0
100
AcDbLine
10
-6.6666666666666643
20
24.027638409423474
30
0
11
-6.6666666666666528
21
27.527638409423474
31
0
0
LINE
5
109
100
AcDbEntity
8
0
100
AcDbLine
10
-6.666666666666659
20
27.527638409423474
30
0
11
0.125000000000004
21
27.527638409423474
31
0
0
LINE
5
110
100
AcDbEntity
8
0
100
AcDbLine
10
0.125000000000004
20
27.527638409423474
30
0
11
0.125000000000004
21
24.027638409423474
31
0
0
LINE
5
111
100
AcDbEntity
8
0
100
AcDbLine
10
0.125000000000004
20
24.027638409423474
30
0
11
6.6666666666666705
21
24.027638409423474
31
0
0
LINE
5
112
100
AcDbEntity
8
0
100
AcDbLine
10
6.6666666666666705
20
24.027638409423474
30
0
11
6.6666666666666821
21
27.527638409423474
31
0
0
LINE
5
113
100
AcDbEntity
8
0
100
AcDbLine
10
-32.360679774997891
20
-10.514622242382664
30
0
11
-30.261939354868048
21
-4.0553634025447503
31
0
0
LINE
5
114
100
AcDbEntity
8
0
100
AcDbLine
10
-30.261939354868048
20
-4.0553634025447503
30
0
11
-26.933241547835003
21
-5.1369228828570668
31
0
0
LINE
5
115
100
AcDbEntity
8
0
100
AcDbLine
10
-26.933241547835003
20
-5.1369228828570668
30
0
11
-24.911755376298892
21
1.0845718279070622
31
0
0
LINE
5
116
100
AcDbEntity
8
0
100
AcDbLine
10
-24.911755376298892
20
1.0845718279070622
30
0
11
-28.240453183331937
21
2.1661313082193927
31
0
0
LINE
5
117
100
AcDbEntity
8
0
100
AcDbLine
10
-1.2237542119019557e-14
20
-34.026032334081599
30
0
11
-5.4945737534631949
21
-30.033990828928548
31
0
0
LINE
5
118
100
AcDbEntity
8
0
100
AcDbLine
10
-5.4945737534631949
20
-30.033990828928548
30
0
11
-3.4373253704395323
21
-27.20243134861623
31
0
0
LINE
5
119
100
AcDbEntity
8
0
100
AcDbLine
10
-3.4373253704395323
20
-27.20243134861623
30
0
11
-8.7296448753089848
21
-23.357336156536306
31
0
0
LINE
5
120
100
AcDbEntity
8
0
100
AcDbLine
10
-8.7296448753089848
20
-23.357336156536306
30
0
11
-10.78689325833265
21
-26.188895636848617
31
0
0
LINE
5
121
100
AcDbEntity
8
0
100
AcDbLine
10
32.360679774997891
20
-10.514622242382679
30
0
11
26.866106021534705
21
-14.506663747535724
31
0
0
LINE
5
122
100
AcDbEntity
8
0
100
AcDbLine
10
26.866106021534705
20
-14.506663747535724
30
0
11
24.808857638511057
21
-11.675104267223404
31
0
0
LINE
5
123
100
AcDbEntity
8
0
100
AcDbLine
10
24.808857638511057
20
-11.675104267223404
30
0
11
19.51653813364161
21
-15.520199459303335
31
0
0
LINE
5
124
100
AcDbEntity
8
0
100
AcDbLine
10
19.51653813364161
20
-15.520199459303335
30
0
11
21.573786516665251
21
-18.351758939615664
31
0
0
LINE
5
125
100
AcDbEntity
8
0
100
AcDbLine
10
20.000000000000014
20
27.52763840942346
30
0
11
22.098740420129857
21
21.068379569585545
31
0
0
LINE
5
126
100
AcDbEntity
8
0
100
AcDbLine
10
22.098740420129857
20
21.068379569585545
30
0
11
18.77004261309682
21
19.986820089273227
31
0
0
LINE
5
127
100
AcDbEntity
8
0
100
AcDbLine
10
18.77004261309682
20
19.986820089273227
30
0
11
20.791528784632934
21
13.765325378509107
31
0
0
LINE
5
128
100
AcDbEntity
8
0
100
AcDbLine
10
20.791528784632934
20
13.765325378509107
30
0
11
24.120226591665983
21
14.846884858821404
31
0
0
LINE
5
129
100
AcDbEntity
8
0
100
AcDbLine
10
24.120226591665975
20
14.846884858821408
30
0
11
26.218967011795819
21
8.3876260189834984
31
0
0
LINE
5
130
100
AcDbEntity
8
0
100
AcDbLine
10
26.218967011795819
20
8.3876260189834984
30
0
11
22.890269204762781
21
7.3060665386711765
31
0
0
LINE
5
131
100
AcDbEntity
8
0
100
AcDbLine
10
22.890269204762781
20
7.3060665386711765
30
0
11
24.911755376298895
21
1.0845718279070551
31
0
0
LINE
5
132
100
AcDbEntity
8
0
100
AcDbLine
10
24.911755376298895
20
1.0845718279070551
30
0
11
28.240453183331944
21
2.1661313082193545
31
0
0
LINE
5
133
100
AcDbEntity
8
0
100
AcDbLine
10
21.573786516665258
20
-18.351758939615653
30
0
11
16.079212763202072
21
-22.343800444768696
31
0
0
LINE
5
134
100
AcDbEntity
8
0
100
AcDbLine
10
16.079212763202072
20
-22.343800444768696
30
0
11
14.021964380178423
21
-19.512240964456375
31
0
0
LINE
5
135
100
AcDbEntity
8
0
100
AcDbLine
10
14.021964380178423
20
-19.512240964456375
30
0
11
8.7296448753089742
21
-23.357336156536306
31
0
0
LINE
5
136
100
AcDbEntity
8
0
100
AcDbLine
10
8.7296448753089742
20
-23.357336156536306
30
0
11
10.786893258332618
21
-26.188895636848638
31
0
0
LINE
5
137
100
AcDbEntity
8
0
100
AcDbLine
10
-10.786893258332643
20
-26.188895636848621
30
0
11
-16.281467011795829
21
-22.19685413169557
31
0
0
LINE
5
138
100
AcDbEntity
8
0
100
AcDbLine
10
-16.281467011795829
20
-22.19685413169557
30
0
11
-14.224218628772167
21
-19.365294651383252
31
0
0
LINE
5
139
100
AcDbEntity
8
0
100
AcDbLine
10
-14.224218628772167
20
-19.365294651383252
30
0
11
-19.516538133641621
21
-15.520199459303329
31
0
0
LINE
5
140
100
AcDbEntity
8
0
100
AcDbLine
10
-19.516538133641621
20
-15.520199459303329
30
0
11
-21.573786516665287
21
-18.351758939615639
31
0
0
LINE
5
141
100
AcDbEntity
8
0
100
AcDbLine
10
-28.240453183331923
20
2.1661313082193812
30
0
11
-26.141712763202072
21
8.625390148057301
31
0
0
LINE
5
142
100
AcDbEntity
8
0
100
AcDbLine
10
-26.141712763202072
20
8.625390148057301
30
0
11
-22.813014956169035
21
7.5438306677449853
31
0
0
LINE
5
143
100
AcDbEntity
8
0
100
AcDbLine
10
-22.813014956169035
20
7.5438306677449853
30
0
11
-20.791528784632924
21
13.765325378509113
31
0
0
LINE
5
144
100
AcDbEntity
8
0
100
AcDbLine
10
-20.791528784632924
20
13.765325378509113
30
0
11
-24.120226591665968
21
14.846884858821443
31
0
0
LINE
5
145
100
AcDbEntity
8
0
100
AcDbLine
10
6.6666666666666767
20
27.527638409423474
30
0
11
13.458333333333339
21
27.527638409423474
31
0
0
LINE
5
146
100
AcDbEntity
8
0
100
AcDbLine
10
13.458333333333339
20
27.527638409423474
30
0
11
13.458333333333339
21
24.027638409423474
31
0
0
LINE
5
147
100
AcDbEntity
8
0
100
AcDbLine
10
13.458333333333339
20
24.027638409423474
30
0
11
20.000000000000007
21
24.027638409423474
31
0
0
LINE
5
148
100
AcDbEntity
8
0
100
AcDbLine
10
20.000000000000007
20
24.027638409423474
30
0
11
20.000000000000018
21
27.527638409423474
31
0
0
LINE
5
149
100
AcDbEntity
8
0
100
AcDbLine
10
28.24045318333194
20
2.1661313082193567
30
0
11
30.339193603461784
21
-4.2931275316185529
31
0
0
LINE
5
150
100
AcDbEntity
8
0
100
AcDbLine
10
30.339193603461784
20
-4.2931275316185529
30
0
11
27.010495796428742
21
-5.3746870119308738
31
0
0
LINE
5
151
100
AcDbEntity
8
0
100
AcDbLine
10
27.010495796428742
20
-5.3746870119308738
30
0
11
29.03198196796486
21
-11.596181722694993
31
0
0
LINE
5
152
100
AcDbEntity
8
0
100
AcDbLine
10
29.03198196796486
20
-11.596181722694993
30
0
11
32.360679774997905
21
-10.514622242382696
31
0
0
LINE
5
153
100
AcDbEntity
8
0
100
AcDbLine
10
10.786893258332624
20
-26.188895636848628
30
0
11
5.292319504869436
21
-30.180937142001667
31
0
0
LINE
5
154
100
AcDbEntity
8
0
100
AcDbLine
10
5.292319504869436
20
-30.180937142001667
30
0
11
3.2350711218457864
21
-27.349377661689349
31
0
0
LINE
5
155
100
AcDbEntity
8
0
100
AcDbLine
10
3.2350711218457864
20
-27.349377661689349
30
0
11
-2.0572483830236599
21
-31.19447285376928
31
0
0
LINE
5
156
100
AcDbEntity
8
0
100
AcDbLine
10
-2.0572483830236599
20
-31.19447285376928
30
0
11
-1.609823385706477e-14
21
-34.026032334081606
31
0
0
LINE
5
157
100
AcDbEntity
8
0
100
AcDbLine
10
-21.573786516665272
20
-18.351758939615646
30
0
11
-27.068360270128462
21
-14.359717434462592
31
0
0
LINE
5
158
100
AcDbEntity
8
0
100
AcDbLine
10
-27.068360270128462
20
-14.359717434462592
30
0
11
-25.0111118871048
21
-11.52815795415027
31
0
0
LINE
5
159
100
AcDbEntity
8
0
100
AcDbLine
10
-25.0111118871048
20
-11.52815795415027
30
0
11
-30.303431391974254
21
-7.6830627620703487
31
0
0
LINE
5
160
100
AcDbEntity
8
0
100
AcDbLine
10
-30.303431391974254
20
-7.6830627620703487
30
0
11
-32.360679774997919
21
-10.514622242382659
31
0
0
LINE
5
161
100
AcDbEntity
8
0
100
AcDbLine
10
-24.120226591665954
20
14.846884858821427
30
0
11
-22.021486171536104
21
21.306143698659351
31
0
0
LINE
5
162
100
AcDbEntity
8
0
100
AcDbLine
10
-22.021486171536104
20
21.306143698659351
30
0
11
-18.692788364503066
21
20.224584218347033
31
0
0
LINE
5
163
100
AcDbEntity
8
0
100
AcDbLine
10
-18.692788364503066
20
20.224584218347033
30
0
11
-16.671302192966955
21
26.446078929111167
31
0
0
LINE
5
164
100
AcDbEntity
8
0
100
AcDbLine
10
-16.671302192966955
20
26.446078929111167
30
0
11
-19.999999999999996
21
27.527638409423496
31
0
0
ENDSEC
0
SECTION
2
OBJECTS
0
DICTIONARY
5
C
100
AcDbDictionary
3
ACAD_GROUP
350
D
3
ACAD_MLINESTYLE
350
17
0
DICTIONARY
5
D
100
AcDbDictionary
0
DICTIONARY
5
1A
330
C
100
AcDbDictionary
0
DICTIONARY
5
17
100
AcDbDictionary
0
ENDSEC
0
EOF
