  0
SECTION
  2
HEADER
  9
$ACADVER
  1
AC1024
  9
$ACADMAINTVER
 70
     6
  9
$DWGCODEPAGE
  3
ANSI_1252
  9
$INSBASE
 10
0.0
 20
0.0
 30
0.0
  9
$EXTMIN
 10
1.000000000000000E+20
 20
1.000000000000000E+20
 30
1.000000000000000E+20
  9
$EXTMAX
 10
-1.000000000000000E+20
 20
-1.000000000000000E+20
 30
-1.000000000000000E+20
  9
$LIMMIN
 10
0.0
 20
0.0
  9
$LIMMAX
 10
12.0
 20
9.0
  9
$ORTHOMODE
 70
     0
  9
$REGENMODE
 70
     1
  9
$FILLMODE
 70
     1
  9
$QTEXTMODE
 70
     0
  9
$MIRRTEXT
 70
     1
  9
$LTSCALE
 40
1.0
  9
$ATTMODE
 70
     1
  9
$TEXTSIZE
 40
0.2
  9
$TRACEWID
 40
0.05
  9
$TEXTSTYLE
  7
Standard
  9
$CLAYER
  8
0
  9
$CELTYPE
  6
ByLayer
  9
$CECOLOR
 62
   256
  9
$CELTSCALE
 40
1.0
  9
$DISPSILH
 70
     0
  9
$DIMSCALE
 40
1.0
  9
$DIMASZ
 40
0.18
  9
$DIMEXO
 40
0.0625
  9
$DIMDLI
 40
0.38
  9
$DIMRND
 40
0.0
  9
$DIMDLE
 40
0.0
  9
$DIMEXE
 40
0.18
  9
$DIMTP
 40
0.0
  9
$DIMTM
 40
0.0
  9
$DIMTXT
 40
0.18
  9
$DIMCEN
 40
0.09
  9
$DIMTSZ
 40
0.0
  9
$DIMTOL
 70
     0
  9
$DIMLIM
 70
     0
  9
$DIMTIH
 70
     1
  9
$DIMTOH
 70
     1
  9
$DIMSE1
 70
     0
  9
$DIMSE2
 70
     0
  9
$DIMTAD
 70
     0
  9
$DIMZIN
 70
     0
  9
$DIMBLK
  1

  9
$DIMASO
 70
     1
  9
$DIMSHO
 70
     1
  9
$DIMPOST
  1

  9
$DIMAPOST
  1

  9
$DIMALT
 70
     0
  9
$DIMALTD
 70
     2
  9
$DIMALTF
 40
25.4
  9
$DIMLFAC
 40
1.0
  9
$DIMTOFL
 70
     0
  9
$DIMTVP
 40
0.0
  9
$DIMTIX
 70
     0
  9
$DIMSOXD
 70
     0
  9
$DIMSAH
 70
     0
  9
$DIMBLK1
  1

  9
$DIMBLK2
  1

  9
$DIMSTYLE
  2
Standard
  9
$DIMCLRD
 70
     0
  9
$DIMCLRE
 70
     0
  9
$DIMCLRT
 70
     0
  9
$DIMTFAC
 40
1.0
  9
$DIMGAP
 40
0.09
  9
$DIMJUST
 70
     0
  9
$DIMSD1
 70
     0
  9
$DIMSD2
 70
     0
  9
$DIMTOLJ
 70
     1
  9
$DIMTZIN
 70
     0
  9
$DIMALTZ
 70
     0
  9
$DIMALTTZ
 70
     0
  9
$DIMUPT
 70
     0
  9
$DIMDEC
 70
     4
  9
$DIMTDEC
 70
     4
  9
$DIMALTU
 70
     2
  9
$DIMALTTD
 70
     2
  9
$DIMTXSTY
  7
Standard
  9
$DIMAUNIT
 70
     0
  9
$DIMADEC
 70
     0
  9
$DIMALTRND
 40
0.0
  9
$DIMAZIN
 70
     0
  9
$DIMDSEP
 70
    46
  9
$DIMATFIT
 70
     3
  9
$DIMFRAC
 70
     0
  9
$DIMLDRBLK
  1

  9
$DIMLUNIT
 70
     2
  9
$DIMLWD
 70
    -2
  9
$DIMLWE
 70
    -2
  9
$DIMTMOVE
 70
     0
  9
$DIMFXL
 40
1.0
  9
$DIMFXLON
 70
     0
  9
$DIMJOGANG
 40
0.7853981633974483
  9
$DIMTFILL
 70
     0
  9
$DIMTFILLCLR
 70
     0
  9
$DIMARCSYM
 70
     0
  9
$DIMLTYPE
  6

  9
$DIMLTEX1
  6

  9
$DIMLTEX2
  6

  9
$DIMTXTDIRECTION
 70
     0
  9
$LUNITS
 70
     2
  9
$LUPREC
 70
     4
  9
$SKETCHINC
 40
0.1
  9
$FILLETRAD
 40
0.5
  9
$AUNITS
 70
     0
  9
$AUPREC
 70
     0
  9
$MENU
  1
.
  9
$ELEVATION
 40
0.0
  9
$PELEVATION
 40
0.0
  9
$THICKNESS
 40
0.0
  9
$LIMCHECK
 70
     0
  9
$CHAMFERA
 40
0.5
  9
$CHAMFERB
 40
0.5
  9
$CHAMFERC
 40
1.0
  9
$CHAMFERD
 40
0.0
  9
$SKPOLY
 70
     0
  9
$TDCREATE
 40
2458169.558812049
  9
$TDUCREATE
 40
2458169.517145382
  9
$TDUPDATE
 40
2458169.558812049
  9
$TDUUPDATE
 40
2458169.517145382
  9
$TDINDWG
 40
0.0000000116
  9
$TDUSRTIMER
 40
0.0000000116
  9
$USRTIMER
 70
     1
  9
$ANGBASE
 50
0.0
  9
$ANGDIR
 70
     0
  9
$PDMODE
 70
     0
  9
$PDSIZE
 40
0.0
  9
$PLINEWID
 40
0.0
  9
$SPLFRAME
 70
     0
  9
$SPLINETYPE
 70
     6
  9
$SPLINESEGS
 70
     8
  9
$HANDSEED
  5
81
  9
$SURFTAB1
 70
     6
  9
$SURFTAB2
 70
     6
  9
$SURFTYPE
 70
     6
  9
$SURFU
 70
     6
  9
$SURFV
 70
     6
  9
$UCSBASE
  2

  9
$UCSNAME
  2

  9
$UCSORG
 10
0.0
 20
0.0
 30
0.0
  9
$UCSXDIR
 10
1.0
 20
0.0
 30
0.0
  9
$UCSYDIR
 10
0.0
 20
1.0
 30
0.0
  9
$UCSORTHOREF
  2

  9
$UCSORTHOVIEW
 70
     0
  9
$UCSORGTOP
 10
0.0
 20
0.0
 30
0.0
  9
$UCSORGBOTTOM
 10
0.0
 20
0.0
 30
0.0
  9
$UCSORGLEFT
 10
0.0
 20
0.0
 30
0.0
  9
$UCSORGRIGHT
 10
0.0
 20
0.0
 30
0.0
  9
$UCSORGFRONT
 10
0.0
 20
0.0
 30
0.0
  9
$UCSORGBACK
 10
0.0
 20
0.0
 30
0.0
  9
$PUCSBASE
  2

  9
$PUCSNAME
  2

  9
$PUCSORG
 10
0.0
 20
0.0
 30
0.0
  9
$PUCSXDIR
 10
1.0
 20
0.0
 30
0.0
  9
$PUCSYDIR
 10
0.0
 20
1.0
 30
0.0
  9
$PUCSORTHOREF
  2

  9
$PUCSORTHOVIEW
 70
     0
  9
$PUCSORGTOP
 10
0.0
 20
0.0
 30
0.0
  9
$PUCSORGBOTTOM
 10
0.0
 20
0.0
 30
0.0
  9
$PUCSORGLEFT
 10
0.0
 20
0.0
 30
0.0
  9
$PUCSORGRIGHT
 10
0.0
 20
0.0
 30
0.0
  9
$PUCSORGFRONT
 10
0.0
 20
0.0
 30
0.0
  9
$PUCSORGBACK
 10
0.0
 20
0.0
 30
0.0
  9
$USERI1
 70
     0
  9
$USERI2
 70
     0
  9
$USERI3
 70
     0
  9
$USERI4
 70
     0
  9
$USERI5
 70
     0
  9
$USERR1
 40
0.0
  9
$USERR2
 40
0.0
  9
$USERR3
 40
0.0
  9
$USERR4
 40
0.0
  9
$USERR5
 40
0.0
  9
$WORLDVIEW
 70
     1
  9
$SHADEDGE
 70
     3
  9
$SHADEDIF
 70
    70
  9
$TILEMODE
 70
     1
  9
$MAXACTVP
 70
    64
  9
$PINSBASE
 10
0.0
 20
0.0
 30
0.0
  9
$PLIMCHECK
 70
     0
  9
$PEXTMIN
 10
1.000000000000000E+20
 20
1.000000000000000E+20
 30
1.000000000000000E+20
  9
$PEXTMAX
 10
-1.000000000000000E+20
 20
-1.000000000000000E+20
 30
-1.000000000000000E+20
  9
$PLIMMIN
 10
0.0
 20
0.0
  9
$PLIMMAX
 10
12.0
 20
9.0
  9
$UNITMODE
 70
     0
  9
$VISRETAIN
 70
     1
  9
$PLINEGEN
 70
     0
  9
$PSLTSCALE
 70
     1
  9
$TREEDEPTH
 70
  3020
  9
$CMLSTYLE
  2
Standard
  9
$CMLJUST
 70
     0
  9
$CMLSCALE
 40
1.0
  9
$PROXYGRAPHICS
 70
     1
  9
$MEASUREMENT
 70
     0
  9
$CELWEIGHT
370
    -1
  9
$ENDCAPS
280
     0
  9
$JOINSTYLE
280
     0
  9
$LWDISPLAY
290
     1
  9
$INSUNITS
 70
     1
  9
$HYPERLINKBASE
  1

  9
$STYLESHEET
  1

  9
$XEDIT
290
     1
  9
$CEPSNTYPE
380
     0
  9
$PSTYLEMODE
290
     1
  9
$FINGERPRINTGUID
  2
{0777021A-38D3-42D5-9F7F-8B44F583EE93}
  9
$VERSIONGUID
  2
{FAEB1C32-E019-11D5-929B-00C0DF256EC4}
  9
$EXTNAMES
290
     1
  9
$PSVPSCALE
 40
0.0
  9
$OLESTARTUP
290
     0
  9
$SORTENTS
280
   127
  9
$INDEXCTL
280
     0
  9
$HIDETEXT
280
     1
  9
$XCLIPFRAME
280
     2
  9
$HALOGAP
280
     0
  9
$OBSCOLOR
 70
   257
  9
$OBSLTYPE
280
     0
  9
$INTERSECTIONDISPLAY
280
     0
  9
$INTERSECTIONCOLOR
 70
   257
  9
$DIMASSOC
280
     2
  9
$PROJECTNAME
  1

  9
$CAMERADISPLAY
290
     0
  9
$LENSLENGTH
 40
50.0
  9
$CAMERAHEIGHT
 40
0.0
  9
$STEPSPERSEC
 40
2.0
  9
$STEPSIZE
 40
6.0
  9
$3DDWFPREC
 40
2.0
  9
$PSOLWIDTH
 40
0.25
  9
$PSOLHEIGHT
 40
4.0
  9
$LOFTANG1
 40
1.570796326794897
  9
$LOFTANG2
 40
1.570796326794897
  9
$LOFTMAG1
 40
0.0
  9
$LOFTMAG2
 40
0.0
  9
$LOFTPARAM
 70
     7
  9
$LOFTNORMALS
280
     1
  9
$LATITUDE
 40
37.795
  9
$LONGITUDE
 40
-122.394
  9
$NORTHDIRECTION
 40
0.0
  9
$TIMEZONE
 70
 -8000
  9
$LIGHTGLYPHDISPLAY
280
     1
  9
$TILEMODELIGHTSYNCH
280
     1
  9
$CMATERIAL
347
3C
  9
$SOLIDHIST
280
     1
  9
$SHOWHIST
280
     1
  9
$DWFFRAME
280
     2
  9
$DGNFRAME
280
     2
  9
$REALWORLDSCALE
290
     1
  9
$INTERFERECOLOR
 62
   256
  9
$CSHADOW
280
     0
  9
$SHADOWPLANELOCATION
 40
0.0
  0
ENDSEC
  0
SECTION
  2
CLASSES
  0
CLASS
  1
ACDBDICTIONARYWDFLT
  2
AcDbDictionaryWithDefault
  3
ObjectDBX Classes
 90
        0
 91
        4
280
     0
281
     0
  0
CLASS
  1
VISUALSTYLE
  2
AcDbVisualStyle
  3
ObjectDBX Classes
 90
     4095
 91
        4
280
     0
281
     0
  0
CLASS
  1
MATERIAL
  2
AcDbMaterial
  3
ObjectDBX Classes
 90
     1153
 91
        4
280
     0
281
     0
  0
CLASS
  1
SUN
  2
AcDbSun
  3
SCENEOE
 90
     1024
 91
        4
280
     0
281
     0
  0
ENDSEC
  0
SECTION
  2
TABLES
  0
TABLE
  2
VPORT
  5
8
330
0
100
AcDbSymbolTable
 70
     1
  0
VPORT
  5
29
330
8
100
AcDbSymbolTableRecord
100
AcDbViewportTableRecord
  2
*Active
 70
     0
 10
0.0
 20
0.0
 11
1.0
 21
1.0
 12
0.0
 22
0.0
 13
0.0
 23
0.0
 14
0.5
 24
0.5
 15
0.5
 25
0.5
 16
0.0
 26
0.0
 36
1.0
 17
100.0001527527778
 27
-100.0001527527778
 37
0.0
 40
200.0003055055556
 41
1.0
 42
50.0
 43
0.0
 44
0.0
 50
0.0
 51
0.0
 71
     0
 72
   100
 73
     1
 74
     3
 75
     0
 76
     0
 77
     0
 78
     0
281
     0
 65
     1
110
0.0
120
0.0
130
0.0
111
1.0
121
0.0
131
0.0
112
0.0
122
1.0
132
0.0
 79
     0
146
0.0
 60
     3
 61
     5
292
     1
282
     1
141
0.0
142
0.0
 63
   250
361
3F
  0
ENDTAB
  0
TABLE
  2
LTYPE
  5
5
330
0
100
AcDbSymbolTable
 70
     1
  0
LTYPE
  5
14
330
5
100
AcDbSymbolTableRecord
100
AcDbLinetypeTableRecord
  2
ByBlock
 70
     0
  3

 72
    65
 73
     0
 40
0.0
  0
LTYPE
  5
15
330
5
100
AcDbSymbolTableRecord
100
AcDbLinetypeTableRecord
  2
ByLayer
 70
     0
  3

 72
    65
 73
     0
 40
0.0
  0
LTYPE
  5
16
330
5
100
AcDbSymbolTableRecord
100
AcDbLinetypeTableRecord
  2
Continuous
 70
     0
  3
Solid line
 72
    65
 73
     0
 40
0.0
  0
ENDTAB
  0
TABLE
  2
LAYER
  5
2
330
0
100
AcDbSymbolTable
 70
     2
  0
LAYER
  5
10
330
2
100
AcDbSymbolTableRecord
100
AcDbLayerTableRecord
  2
0
 70
     0
 62
     7
  6
Continuous
370
    -3
390
F
347
3E
  0
LAYER
  5
40
330
2
100
AcDbSymbolTableRecord
100
AcDbLayerTableRecord
  2
Layer 1
 70
     0
 62
     7
  6
Continuous
370
    -3
390
F
347
3E
  0
ENDTAB
  0
TABLE
  2
STYLE
  5
3
330
0
100
AcDbSymbolTable
 70
     1
  0
STYLE
  5
11
330
3
100
AcDbSymbolTableRecord
100
AcDbTextStyleTableRecord
  2
Standard
 70
     0
 40
0.0
 41
1.0
 50
0.0
 71
     0
 42
0.2
  3
txt
  4

  0
ENDTAB
  0
TABLE
  2
VIEW
  5
6
330
0
100
AcDbSymbolTable
 70
     0
  0
ENDTAB
  0
TABLE
  2
UCS
  5
7
330
0
100
AcDbSymbolTable
 70
     0
  0
ENDTAB
  0
TABLE
  2
APPID
  5
9
330
0
100
AcDbSymbolTable
 70
     1
  0
APPID
  5
12
330
9
100
AcDbSymbolTableRecord
100
AcDbRegAppTableRecord
  2
ACAD
 70
     0
  0
ENDTAB
  0
TABLE
  2
DIMSTYLE
  5
A
330
0
100
AcDbSymbolTable
 70
     1
100
AcDbDimStyleTable
  0
DIMSTYLE
105
27
330
A
100
AcDbSymbolTableRecord
100
AcDbDimStyleTableRecord
  2
Standard
 70
     0
178
     0
340
11
  0
ENDTAB
  0
TABLE
  2
BLOCK_RECORD
  5
1
330
0
100
AcDbSymbolTable
 70
     2
  0
BLOCK_RECORD
  5
1F
330
1
100
AcDbSymbolTableRecord
100
AcDbBlockTableRecord
  2
*Model_Space
340
22
 70
     0
280
     1
281
     0
  0
BLOCK_RECORD
  5
1B
330
1
100
AcDbSymbolTableRecord
100
AcDbBlockTableRecord
  2
*Paper_Space
340
1E
 70
     0
280
     1
281
     0
  0
BLOCK_RECORD
  5
23
330
1
100
AcDbSymbolTableRecord
100
AcDbBlockTableRecord
  2
*Paper_Space0
340
26
 70
     0
280
     1
281
     0
  0
BLOCK_RECORD
  5
41
330
1
100
AcDbSymbolTableRecord
100
AcDbBlockTableRecord
  2
block 2
340
0
102
{BLKREFS
331
42
102
}
 70
     0
280
     1
281
     0
  0
ENDTAB
  0
ENDSEC
  0
SECTION
  2
BLOCKS
  0
BLOCK
  5
20
330
1F
100
AcDbEntity
  8
0
100
AcDbBlockBegin
  2
*Model_Space
 70
     0
 10
0.0
 20
0.0
 30
0.0
  3
*Model_Space
  1

  0
ENDBLK
  5
21
330
1F
100
AcDbEntity
  8
0
100
AcDbBlockEnd
  0
BLOCK
  5
1C
330
1B
100
AcDbEntity
 67
     1
  8
0
100
AcDbBlockBegin
  2
*Paper_Space
 70
     0
 10
0.0
 20
0.0
 30
0.0
  3
*Paper_Space
  1

  0
ENDBLK
  5
1D
330
1B
100
AcDbEntity
 67
     1
  8
0
100
AcDbBlockEnd
  0
BLOCK
  5
24
330
23
100
AcDbEntity
  8
0
100
AcDbBlockBegin
  2
*Paper_Space0
 70
     0
 10
0.0
 20
0.0
 30
0.0
  3
*Paper_Space0
  1

  0
ENDBLK
  5
25
330
23
100
AcDbEntity
  8
0
100
AcDbBlockEnd
  0
BLOCK
  5
43
330
41
100
AcDbEntity
  8
0
100
AcDbBlockBegin
  2
block 2
 70
     0
 10
0.0
 20
0.0
 30
0.0
  3
block 2
  1

  0
SPLINE
  5
45
330
41
100
AcDbEntity
  8
Layer 1
370
     0
100
AcDbSpline
210
0.0
220
0.0
230
1.0
 70
    11
 71
     3
 72
   248
 73
   244
 74
     0
 42
0.0000000001
 43
0.0000000001
 12
1.0
 22
0.0
 32
0.0
 13
1.0
 23
0.0
 33
0.0
 40
0.0
 40
0.0
 40
0.0
 40
0.0
 40
1.0
 40
1.0
 40
1.0
 40
2.0
 40
2.0
 40
2.0
 40
3.0
 40
3.0
 40
3.0
 40
4.0
 40
4.0
 40
4.0
 40
5.0
 40
5.0
 40
5.0
 40
6.0
 40
6.0
 40
6.0
 40
7.0
 40
7.0
 40
7.0
 40
8.0
 40
8.0
 40
8.0
 40
9.0
 40
9.0
 40
9.0
 40
10.0
 40
10.0
 40
10.0
 40
11.0
 40
11.0
 40
11.0
 40
12.0
 40
12.0
 40
12.0
 40
13.0
 40
13.0
 40
13.0
 40
14.0
 40
14.0
 40
14.0
 40
15.0
 40
15.0
 40
15.0
 40
16.0
 40
16.0
 40
16.0
 40
17.0
 40
17.0
 40
17.0
 40
18.0
 40
18.0
 40
18.0
 40
19.0
 40
19.0
 40
19.0
 40
20.0
 40
20.0
 40
20.0
 40
21.0
 40
21.0
 40
21.0
 40
22.0
 40
22.0
 40
22.0
 40
23.0
 40
23.0
 40
23.0
 40
24.0
 40
24.0
 40
24.0
 40
25.0
 40
25.0
 40
25.0
 40
26.0
 40
26.0
 40
26.0
 40
27.0
 40
27.0
 40
27.0
 40
28.0
 40
28.0
 40
28.0
 40
29.0
 40
29.0
 40
29.0
 40
30.0
 40
30.0
 40
30.0
 40
31.0
 40
31.0
 40
31.0
 40
32.0
 40
32.0
 40
32.0
 40
33.0
 40
33.0
 40
33.0
 40
34.0
 40
34.0
 40
34.0
 40
35.0
 40
35.0
 40
35.0
 40
36.0
 40
36.0
 40
36.0
 40
37.0
 40
37.0
 40
37.0
 40
38.0
 40
38.0
 40
38.0
 40
39.0
 40
39.0
 40
39.0
 40
40.0
 40
40.0
 40
40.0
 40
41.0
 40
41.0
 40
41.0
 40
42.0
 40
42.0
 40
42.0
 40
43.0
 40
43.0
 40
43.0
 40
44.0
 40
44.0
 40
44.0
 40
45.0
 40
45.0
 40
45.0
 40
46.0
 40
46.0
 40
46.0
 40
47.0
 40
47.0
 40
47.0
 40
48.0
 40
48.0
 40
48.0
 40
49.0
 40
49.0
 40
49.0
 40
50.0
 40
50.0
 40
50.0
 40
51.0
 40
51.0
 40
51.0
 40
52.0
 40
52.0
 40
52.0
 40
53.0
 40
53.0
 40
53.0
 40
54.0
 40
54.0
 40
54.0
 40
55.0
 40
55.0
 40
55.0
 40
56.0
 40
56.0
 40
56.0
 40
57.0
 40
57.0
 40
57.0
 40
58.0
 40
58.0
 40
58.0
 40
59.0
 40
59.0
 40
59.0
 40
60.0
 40
60.0
 40
60.0
 40
61.0
 40
61.0
 40
61.0
 40
62.0
 40
62.0
 40
62.0
 40
63.0
 40
63.0
 40
63.0
 40
64.0
 40
64.0
 40
64.0
 40
65.0
 40
65.0
 40
65.0
 40
66.0
 40
66.0
 40
66.0
 40
67.0
 40
67.0
 40
67.0
 40
68.0
 40
68.0
 40
68.0
 40
69.0
 40
69.0
 40
69.0
 40
70.0
 40
70.0
 40
70.0
 40
71.0
 40
71.0
 40
71.0
 40
72.0
 40
72.0
 40
72.0
 40
73.0
 40
73.0
 40
73.0
 40
74.0
 40
74.0
 40
74.0
 40
75.0
 40
75.0
 40
75.0
 40
76.0
 40
76.0
 40
76.0
 40
77.0
 40
77.0
 40
77.0
 40
78.0
 40
78.0
 40
78.0
 40
79.0
 40
79.0
 40
79.0
 40
80.0
 40
80.0
 40
80.0
 40
81.0
 40
81.0
 40
81.0
 40
81.0
 10
39.52057615859324
 20
-10.06157073826008
 30
0.0
 10
39.33954717242453
 20
-9.756428397764024
 30
0.0
 10
39.36534317736527
 20
-9.494185787226098
 30
0.0
 10
39.84122017361121
 20
-9.44262573675588
 30
0.0
 10
39.86681218230795
 20
-9.439853427810814
 30
0.0
 10
39.88994263633797
 20
-9.410293692183371
 30
0.0
 10
39.91335868510772
 20
-9.39209722728964
 30
0.0
 10
40.58564326431
 20
-8.869662168457342
 30
0.0
 10
41.14286852244506
 20
-9.273544130564407
 30
0.0
 10
41.67344643131857
 20
-9.64822403045606
 30
0.0
 10
41.78550292768514
 20
-9.727354173194913
 30
0.0
 10
41.84784689955823
 20
-10.05337688915818
 30
0.0
 10
41.77761507294795
 20
-10.17806347292975
 30
0.0
 10
41.62279280415586
 20
-10.45292801102191
 30
0.0
 10
41.3601027618578
 20
-10.66496306618265
 30
0.0
 10
41.15877750946508
 20
-10.91652171347654
 30
0.0
 10
41.04689508989249
 20
-11.05632305889431
 30
0.0
 10
40.88977990332735
 20
-11.22379173478971
 30
0.0
 10
40.88929031234364
 20
-11.37921783246109
 30
0.0
 10
40.88284403105836
 20
-13.44214752153278
 30
0.0
 10
40.91977823087751
 20
-15.50529480659694
 30
0.0
 10
40.90476682732822
 20
-17.56808713819827
 30
0.0
 10
40.89636490205759
 20
-18.72295747009765
 30
0.0
 10
40.79242473622063
 20
-19.8768771795031
 30
0.0
 10
40.76886725005546
 20
-21.03198822697008
 30
0.0
 10
40.75438895668805
 20
-21.7418774736441
 30
0.0
 10
40.78814353506338
 20
-22.45480626434238
 30
0.0
 10
40.83913443601443
 20
-23.16357081172912
 30
0.0
 10
40.96999394610449
 20
-24.98255091337768
 30
0.0
 10
41.12408998827097
 20
-26.79985008598259
 30
0.0
 10
41.26585649749751
 20
-28.6180577218569
 30
0.0
 10
41.34773514961965
 20
-29.6681324636725
 30
0.0
 10
41.45877982462057
 20
-30.71763329605754
 30
0.0
 10
41.48987429198419
 20
-31.76936720731754
 30
0.0
 10
41.5102222372565
 20
-32.4575199742915
 30
0.0
 10
41.94194628662279
 20
-32.84644289188422
 30
0.0
 10
42.39618336139006
 20
-33.2039068688248
 30
0.0
 10
42.69513305592994
 20
-33.43916349633729
 30
0.0
 10
42.71527972490873
 20
-33.63028077671927
 30
0.0
 10
42.47970758320714
 20
-33.84731373983914
 30
0.0
 10
42.15522843881746
 20
-34.14626343437934
 30
0.0
 10
41.82427853359311
 20
-34.47223583126924
 30
0.0
 10
41.43504010181098
 20
-34.66017621015786
 30
0.0
 10
40.44805731809331
 20
-35.13673591383091
 30
0.0
 10
39.41998153114461
 20
-35.52735608016687
 30
0.0
 10
38.42223590563572
 20
-35.98278177304391
 30
0.0
 10
37.79213502957828
 20
-36.27039471636137
 30
0.0
 10
37.16159896153524
 20
-36.57229827650345
 30
0.0
 10
36.57672813252084
 20
-36.94009806310011
 30
0.0
 10
35.74806819312848
 20
-37.46120510638844
 30
0.0
 10
34.94648807503406
 20
-38.02913880731725
 30
0.0
 10
34.16232107625886
 20
-38.61580480327214
 30
0.0
 10
33.70238842638229
 20
-38.95990294635773
 30
0.0
 10
33.29761092076799
 20
-39.37798100702896
 30
0.0
 10
32.87113093482645
 20
-39.76619673764517
 30
0.0
 10
32.81756696126101
 20
-39.8149599996206
 30
0.0
 10
32.73605006247691
 20
-39.89516588254922
 30
0.0
 10
32.74681290426815
 20
-39.94292820295799
 30
0.0
 10
32.86708636931142
 20
-40.4767374123233
 30
0.0
 10
32.47203812452248
 20
-40.46778061727122
 30
0.0
 10
32.13824859159311
 20
-40.57848529853334
 30
0.0
 10
31.84712419294219
 20
-40.67503808041644
 30
0.0
 10
31.57104655718989
 20
-40.84174653031212
 30
0.0
 10
31.31938863172416
 20
-41.0210592280885
 30
0.0
 10
31.20929593919208
 20
-41.09951074332433
 30
0.0
 10
31.12313064601271
 20
-41.28476653165282
 30
0.0
 10
31.11832721447287
 20
-41.42468891484136
 30
0.0
 10
31.10051426251644
 20
-41.94326640471412
 30
0.0
 10
31.10866323244493
 20
-42.46369074057565
 30
0.0
 10
31.13073834590951
 20
-42.98241510774348
 30
0.0
 10
31.15343904785327
 20
-43.51584352412229
 30
0.0
 10
30.78698835641189
 20
-43.83137947320998
 30
0.0
 10
30.28202421583501
 20
-43.68183118729233
 30
0.0
 10
29.97444956013205
 20
-43.59073734487697
 30
0.0
 10
29.60451733280689
 20
-43.56210987208069
 30
0.0
 10
29.38474810007891
 20
-43.36748657626489
 30
0.0
 10
29.19442232511964
 20
-43.19893944023054
 30
0.0
 10
29.12084768007086
 20
-42.84102939150442
 30
0.0
 10
29.09517407287646
 20
-42.55780100744016
 30
0.0
 10
29.05823715310684
 20
-42.1503389112654
 30
0.0
 10
29.10990260163585
 20
-41.73463808681438
 30
0.0
 10
29.12676901102373
 20
-41.3225738353933
 30
0.0
 10
29.141949051468
 20
-40.95187186224339
 30
0.0
 10
28.96728746803705
 20
-40.83907825945158
 30
0.0
 10
28.60546613134121
 20
-40.86608736205149
 30
0.0
 10
26.25226338794068
 20
-41.04174444714914
 30
0.0
 10
23.90001262700834
 20
-41.24809616697479
 30
0.0
 10
21.54339226654654
 20
-41.35460124557634
 30
0.0
 10
19.49304098583123
 20
-41.44726449908929
 30
0.0
 10
17.53220869653309
 20
-42.00548525889136
 30
0.0
 10
15.53501067694703
 20
-42.36816881970795
 30
0.0
 10
13.97988475615755
 20
-42.65057849884963
 30
0.0
 10
12.43143155248325
 20
-42.59289108122131
 30
0.0
 10
10.87372575920514
 20
-42.52739196745348
 30
0.0
 10
10.41420382176412
 20
-42.50806944329725
 30
0.0
 10
9.953988977084304
 20
-42.50306473546389
 30
0.0
 10
9.494018927896182
 20
-42.49732292120529
 30
0.0
 10
9.1998094260606
 20
-42.49364826887778
 30
0.0
 10
9.081940396737716
 20
-42.63813200806398
 30
0.0
 10
9.075747070793932
 20
-42.93988869091097
 30
0.0
 10
9.062384636876702
 20
-43.59096310071956
 30
0.0
 10
9.015594698560477
 20
-44.24133848340177
 30
0.0
 10
8.983336092635188
 20
-44.89204298002251
 30
0.0
 10
8.963251302517026
 20
-45.29719039882434
 30
0.0
 10
8.749386401054387
 20
-45.49415829146244
 30
0.0
 10
8.349549004463
 20
-45.56148249161917
 30
0.0
 10
7.985485749054472
 20
-45.6227901625772
 30
0.0
 10
7.786275257716393
 20
-45.49323350849345
 30
0.0
 10
7.523096984409538
 20
-45.22908285309342
 30
0.0
 10
6.909854357890178
 20
-44.61357450830024
 30
0.0
 10
7.035525563528501
 20
-43.8732503821146
 30
0.0
 10
7.034145188949588
 20
-43.15116624002183
 30
0.0
 10
7.033459081584709
 20
-42.79224708987956
 30
0.0
 10
6.940678870225732
 20
-42.64097435571914
 30
0.0
 10
6.560421033057137
 20
-42.6598970472388
 30
0.0
 10
5.937819738886916
 20
-42.69087999665668
 30
0.0
 10
5.313205341790721
 20
-42.67999747706958
 30
0.0
 10
4.689510627756865
 20
-42.69084463730766
 30
0.0
 10
4.127327920918034
 20
-42.70062013728231
 30
0.0
 10
3.960258227674607
 20
-42.56204412929922
 30
0.0
 10
3.858408343342897
 20
-41.99757020465462
 30
0.0
 10
3.845444892077962
 20
-41.92572544774828
 30
0.0
 10
3.815030242194327
 20
-41.85543922214021
 30
0.0
 10
3.783488513066921
 20
-41.78879228951062
 30
0.0
 10
3.502490997919382
 20
-41.1950190644429
 30
0.0
 10
3.807369843268288
 20
-40.75571995457867
 30
0.0
 10
4.471656239764923
 20
-40.77042672373882
 30
0.0
 10
5.213772812940588
 20
-40.78685522119129
 30
0.0
 10
5.956430316154611
 20
-40.77951407638574
 30
0.0
 10
6.698854243670209
 20
-40.78011790526567
 30
0.0
 10
6.756051730320529
 20
-40.78016686436381
 30
0.0
 10
6.813264856683149
 20
-40.76125777259392
 30
0.0
 10
6.922527284505729
 20
-40.7419706077867
 30
0.0
 10
6.793068548618602
 20
-39.87272357584661
 30
0.0
 10
6.606990315436771
 20
-39.01726125004686
 30
0.0
 10
6.549658191265586
 20
-38.15325828153186
 30
0.0
 10
6.442660461736523
 20
-36.54078221690305
 30
0.0
 10
6.387773572534073
 20
-34.92382911472374
 30
0.0
 10
6.353421285166093
 20
-33.3078415947621
 30
0.0
 10
6.317787561396759
 20
-31.63155550525986
 30
0.0
 10
6.332998881264984
 20
-29.95419775549227
 30
0.0
 10
6.323972727490745
 20
-28.27732143685859
 30
0.0
 10
6.322294518396609
 20
-27.96553085879708
 30
0.0
 10
6.292911239519325
 20
-27.65295421521027
 30
0.0
 10
6.307223955936199
 20
-27.34216457871479
 30
0.0
 10
6.427396782832709
 20
-24.73267999500231
 30
0.0
 10
6.018861666418329
 20
-22.15842420251659
 30
0.0
 10
5.803138019186656
 20
-19.57118472913762
 30
0.0
 10
5.764968622114473
 20
-19.11340491961422
 30
0.0
 10
5.748326948587925
 20
-18.65039328644026
 30
0.0
 10
5.769929810749018
 20
-18.19206948693437
 30
0.0
 10
5.790047240266694
 20
-17.76525358717942
 30
0.0
 10
5.684345226875732
 20
-17.57149251548468
 30
0.0
 10
5.205889718115748
 20
-17.61195313036199
 30
0.0
 10
4.365492514877086
 20
-17.68302406151885
 30
0.0
 10
3.520457967039428
 20
-17.71551930308603
 30
0.0
 10
2.677038899451647
 20
-17.72206214259301
 30
0.0
 10
2.488758441826044
 20
-17.72352275569435
 30
0.0
 10
2.251980002339206
 20
-17.58927146806765
 30
0.0
 10
2.131025954829842
 20
-17.44115115585215
 30
0.0
 10
2.074861879148082
 20
-17.37237450244357
 30
0.0
 10
2.242675053699167
 20
-17.12069753732809
 30
0.0
 10
2.304562753975023
 20
-16.96311451937817
 30
0.0
 10
2.260885628333302
 20
-16.78510467760875
 30
0.0
 10
2.113264256929242
 20
-16.52254927283124
 30
0.0
 10
2.18871779237655
 20
-16.41131692128689
 30
0.0
 10
2.301237530212218
 20
-16.24544077606355
 30
0.0
 10
2.561967508607184
 20
-16.12437444562233
 30
0.0
 10
2.775626033870299
 20
-16.09295086431857
 30
0.0
 10
3.509250753431862
 20
-15.98505589131307
 30
0.0
 10
4.25102478291556
 20
-15.93405411056239
 30
0.0
 10
4.987348202777985
 20
-15.84250875646248
 30
0.0
 10
5.492025728632913
 20
-15.77976223200299
 30
0.0
 10
5.536714165650618
 20
-15.58495941949292
 30
0.0
 10
5.595912855446986
 20
-15.10872610980922
 30
0.0
 10
5.694703816112001
 20
-14.31399482558649
 30
0.0
 10
5.890901622931384
 20
-13.5265394073709
 30
0.0
 10
6.11614237489592
 20
-12.7565120682005
 30
0.0
 10
6.160137224686886
 20
-12.60610835803667
 30
0.0
 10
6.520487748468742
 20
-12.48181072710302
 30
0.0
 10
6.739477035560284
 20
-12.4740547899359
 30
0.0
 10
6.869910533495807
 20
-12.46943631498999
 30
0.0
 10
7.02134782462582
 20
-12.70572924341753
 30
0.0
 10
7.139880521726718
 20
-12.8526473377722
 30
0.0
 10
7.208283862010332
 20
-12.93743225637265
 30
0.0
 10
7.229999262099397
 20
-13.05988304131881
 30
0.0
 10
7.289232291263197
 20
-13.20613066802121
 30
0.0
 10
7.436603257278604
 20
-13.1329626554839
 30
0.0
 10
7.558605930476365
 20
-13.08674934654805
 30
0.0
 10
7.665317725271094
 20
-13.01710502911875
 30
0.0
 10
8.42302777127737
 20
-12.52260725579311
 30
0.0
 10
9.182045433202315
 20
-12.02986793008467
 30
0.0
 10
9.931263795591475
 20
-11.52270742995614
 30
0.0
 10
10.29090033252226
 20
-11.2792623932414
 30
0.0
 10
10.61229641368982
 20
-11.1729545110083
 30
0.0
 10
11.0343150017922
 20
-11.43980743664267
 30
0.0
 10
11.21443212475408
 20
-11.55369989919872
 30
0.0
 10
11.52654773683035
 20
-11.4588402861338
 30
0.0
 10
11.71146761134477
 20
-11.4588402861338
 30
0.0
 10
11.25279905818805
 20
-11.27061703245431
 30
0.0
 10
10.75895067290368
 20
-11.067957644631
 30
0.0
 10
10.2186435032048
 20
-10.84623140794341
 30
0.0
 10
10.45595369289829
 20
-10.37895897323621
 30
0.0
 10
10.67489878080404
 20
-9.982394356372904
 30
0.0
 10
11.20307837384476
 20
-10.0023751084075
 30
0.0
 10
12.98171345848746
 20
-10.06965850931556
 30
0.0
 10
14.14713175613574
 20
-8.917623725197098
 30
0.0
 10
15.40041803560596
 20
-7.931693562094398
 30
0.0
 10
15.59596747436599
 20
-7.777860675081733
 30
0.0
 10
15.80775637406012
 20
-7.530826664462527
 30
0.0
 10
16.01395169676566
 20
-7.528868980514974
 30
0.0
 10
16.40292493343144
 20
-7.525178688475166
 30
0.0
 10
16.80868570093822
 20
-7.630214314137969
 30
0.0
 10
17.17259051926443
 20
-7.776703336395268
 30
0.0
 10
17.26722709643626
 20
-7.814799634813558
 30
0.0
 10
17.32578761798527
 20
-8.227987225547958
 30
0.0
 10
17.23968080372908
 20
-8.373442666839393
 30
0.0
 10
17.02393709686704
 20
-8.737890115172197
 30
0.0
 10
16.72207025604858
 20
-9.053086750509344
 30
0.0
 10
16.44095391308946
 20
-9.376028443212382
 30
0.0
 10
16.358610149533
 20
-9.47062354114857
 30
0.0
 10
16.22996195871896
 20
-9.524911701376778
 30
0.0
 10
16.12253481709793
 20
-9.59767376139057
 30
0.0
 10
16.14622966073347
 20
-9.640569411423641
 30
0.0
 10
16.1699231443941
 20
-9.68346574144529
 30
0.0
 10
16.19361798802965
 20
-9.72636139147836
 30
0.0
 10
16.3166304426315
 20
-9.739761904693792
 30
0.0
 10
16.43936002244281
 20
-9.760882315740668
 30
0.0
 10
16.56269751105846
 20
-9.76540287249029
 30
0.0
 10
18.40118373348226
 20
-9.83278623155781
 30
0.0
 10
20.2393394819923
 20
-9.930606510098846
 30
0.0
 10
22.07842137344655
 20
-9.953674405279985
 30
0.0
 10
23.63525406280429
 20
-9.973202285654162
 30
0.0
 10
25.20053763652984
 20
-9.990637164573588
 30
0.0
 10
26.74889088204532
 20
-9.85660551290125
 30
0.0
 10
29.0499168263342
 20
-9.657419501112564
 30
0.0
 10
31.34664524976623
 20
-9.641435035482472
 30
0.0
 10
33.64677633053485
 20
-9.750065074950676
 30
0.0
 10
35.17377796926121
 20
-9.822183866811109
 30
0.0
 10
36.69750478829695
 20
-9.961725457011859
 30
0.0
 10
38.22354628470499
 20
-10.05756969194386
 30
0.0
 10
38.64264704654278
 20
-10.08389200719192
 30
0.0
 10
39.06479687222858
 20
-10.06157073826008
 30
0.0
 10
39.52057615859324
 20
-10.06157073826008
 30
0.0
  0
SPLINE
  5
46
330
41
100
AcDbEntity
  8
Layer 1
370
     0
100
AcDbSpline
210
0.0
220
0.0
230
1.0
 70
    11
 71
     3
 72
   164
 73
   160
 74
     0
 42
0.0000000001
 43
0.0000000001
 12
1.0
 22
0.0
 32
0.0
 13
1.0
 23
0.0
 33
0.0
 40
0.0
 40
0.0
 40
0.0
 40
0.0
 40
1.0
 40
1.0
 40
1.0
 40
2.0
 40
2.0
 40
2.0
 40
3.0
 40
3.0
 40
3.0
 40
4.0
 40
4.0
 40
4.0
 40
5.0
 40
5.0
 40
5.0
 40
6.0
 40
6.0
 40
6.0
 40
7.0
 40
7.0
 40
7.0
 40
8.0
 40
8.0
 40
8.0
 40
9.0
 40
9.0
 40
9.0
 40
10.0
 40
10.0
 40
10.0
 40
11.0
 40
11.0
 40
11.0
 40
12.0
 40
12.0
 40
12.0
 40
13.0
 40
13.0
 40
13.0
 40
14.0
 40
14.0
 40
14.0
 40
15.0
 40
15.0
 40
15.0
 40
16.0
 40
16.0
 40
16.0
 40
17.0
 40
17.0
 40
17.0
 40
18.0
 40
18.0
 40
18.0
 40
19.0
 40
19.0
 40
19.0
 40
20.0
 40
20.0
 40
20.0
 40
21.0
 40
21.0
 40
21.0
 40
22.0
 40
22.0
 40
22.0
 40
23.0
 40
23.0
 40
23.0
 40
24.0
 40
24.0
 40
24.0
 40
25.0
 40
25.0
 40
25.0
 40
26.0
 40
26.0
 40
26.0
 40
27.0
 40
27.0
 40
27.0
 40
28.0
 40
28.0
 40
28.0
 40
29.0
 40
29.0
 40
29.0
 40
30.0
 40
30.0
 40
30.0
 40
31.0
 40
31.0
 40
31.0
 40
32.0
 40
32.0
 40
32.0
 40
33.0
 40
33.0
 40
33.0
 40
34.0
 40
34.0
 40
34.0
 40
35.0
 40
35.0
 40
35.0
 40
36.0
 40
36.0
 40
36.0
 40
37.0
 40
37.0
 40
37.0
 40
38.0
 40
38.0
 40
38.0
 40
39.0
 40
39.0
 40
39.0
 40
40.0
 40
40.0
 40
40.0
 40
41.0
 40
41.0
 40
41.0
 40
42.0
 40
42.0
 40
42.0
 40
43.0
 40
43.0
 40
43.0
 40
44.0
 40
44.0
 40
44.0
 40
45.0
 40
45.0
 40
45.0
 40
46.0
 40
46.0
 40
46.0
 40
47.0
 40
47.0
 40
47.0
 40
48.0
 40
48.0
 40
48.0
 40
49.0
 40
49.0
 40
49.0
 40
50.0
 40
50.0
 40
50.0
 40
51.0
 40
51.0
 40
51.0
 40
52.0
 40
52.0
 40
52.0
 40
53.0
 40
53.0
 40
53.0
 40
53.0
 10
39.6300650222454
 20
-12.00158861087636
 30
0.0
 10
39.12333019427806
 20
-12.39799139071958
 30
0.0
 10
38.75176327705725
 20
-12.71673552072587
 30
0.0
 10
38.35255894880689
 20
-12.99595741857297
 30
0.0
 10
36.8236669448939
 20
-14.06532476509608
 30
0.0
 10
35.13182546185893
 20
-14.8199775874039
 30
0.0
 10
33.4179523845585
 20
-15.53302197597331
 30
0.0
 10
33.09378603440841
 20
-15.66788797227988
 30
0.0
 10
32.79866874929074
 20
-15.87197533380534
 30
0.0
 10
32.48816198758516
 20
-16.04046399091748
 30
0.0
 10
32.21572636476214
 20
-16.188293268492
 30
0.0
 10
31.94876600110613
 20
-16.43600318666439
 30
0.0
 10
31.66513506445547
 20
-16.45829861607192
 30
0.0
 10
30.21818427151221
 20
-16.57203740145801
 30
0.0
 10
28.76702843600875
 20
-16.63667701105396
 30
0.0
 10
27.31653354833347
 20
-16.69974040967808
 30
0.0
 10
25.83376645498345
 20
-16.76420730245528
 30
0.0
 10
24.34826309202435
 20
-16.77732154094337
 30
0.0
 10
22.86722996674182
 20
-16.86696972998112
 30
0.0
 10
21.16372533849571
 20
-16.9700857509965
 30
0.0
 10
19.46600876365651
 20
-17.19643726250553
 30
0.0
 10
17.76184998745773
 20
-17.2550331434026
 30
0.0
 10
14.76481878080671
 20
-17.35808388561959
 30
0.0
 10
11.76482554870435
 20
-17.37563028248508
 30
0.0
 10
8.76601549481275
 20
-17.42563520159414
 30
0.0
 10
8.23847576998859
 20
-17.43443151960073
 30
0.0
 10
7.710662690197959
 20
-17.42688229862742
 30
0.0
 10
7.241328533459323
 20
-17.42688229862742
 30
0.0
 10
7.327886859400383
 20
-17.67561627794097
 30
0.0
 10
7.435161683826365
 20
-17.86418360528336
 30
0.0
 10
7.455789783939384
 20
-18.06179476607482
 30
0.0
 10
7.648276559101618
 20
-19.90579976686477
 30
0.0
 10
7.853324062945081
 20
-21.74918597905108
 30
0.0
 10
7.999644448307731
 20
-23.59711450758434
 30
0.0
 10
8.13058623688274
 20
-25.25083045273959
 30
0.0
 10
8.192958768229953
 20
-26.90999989746293
 30
0.0
 10
8.283597699022685
 20
-28.56687098451229
 30
0.0
 10
8.309519501646552
 20
-29.04071617817584
 30
0.0
 10
8.340470491652852
 20
-29.51473272868354
 30
0.0
 10
8.348696980153939
 20
-29.98902671408181
 30
0.0
 10
8.391402233693432
 20
-32.4512205703013
 30
0.0
 10
8.404817706633867
 20
-34.91423041149355
 30
0.0
 10
8.480413954453027
 20
-37.37535804734863
 30
0.0
 10
8.501716602143041
 20
-38.06886639569373
 30
0.0
 10
8.698542377398413
 20
-38.7569865232685
 30
0.0
 10
8.814862395248054
 20
-39.44757636536076
 30
0.0
 10
8.86070919093317
 20
-39.46305288034469
 30
0.0
 10
8.90655666660558
 20
-39.47852667538008
 30
0.0
 10
8.95240414227799
 20
-39.49400319036338
 30
0.0
 10
9.285735363647927
 20
-39.16653482102441
 30
0.0
 10
9.652341772221483
 20
-38.86562676254935
 30
0.0
 10
9.941756682354319
 20
-38.50310095882651
 30
0.0
 10
10.16882830060169
 20
-38.21866491700305
 30
0.0
 10
10.30350662036483
 20
-37.85960704941517
 30
0.0
 10
10.47362180752217
 20
-37.5308004647196
 30
0.0
 10
10.65726398556665
 20
-37.17584156164617
 30
0.0
 10
11.19733111968587
 20
-36.90535614290692
 30
0.0
 10
11.46752074387211
 20
-37.03916135874936
 30
0.0
 10
11.78019122572983
 20
-37.19400538714071
 30
0.0
 10
11.85088816377475
 20
-37.60433703046953
 30
0.0
 10
11.64782554337742
 20
-38.04926915659676
 30
0.0
 10
11.22699897332257
 20
-38.97134849557671
 30
0.0
 10
10.80977701688547
 20
-39.89493196685651
 30
0.0
 10
9.90976531150759
 20
-40.47422689855714
 30
0.0
 10
9.88140371381496
 20
-40.49248592229815
 30
0.0
 10
9.877508065557535
 20
-40.54875080612398
 30
0.0
 10
9.853084275346234
 20
-40.61028695287379
 30
0.0
 10
9.917701445355956
 20
-40.63028130465752
 30
0.0
 10
9.969930603503197
 20
-40.65757056209846
 30
0.0
 10
10.02387061014377
 20
-40.66152808921618
 30
0.0
 10
11.95313652076812
 20
-40.80293556505514
 30
0.0
 10
13.88478578750091
 20
-40.87384737914303
 30
0.0
 10
15.78701675600136
 20
-40.44231644621981
 30
0.0
 10
18.66805433879146
 20
-39.78873424259488
 30
0.0
 10
21.60149719648562
 20
-39.62395695713451
 30
0.0
 10
24.5339187129891
 20
-39.4410104062793
 30
0.0
 10
25.85184052213117
 20
-39.35878904046885
 30
0.0
 10
27.17176965430624
 20
-39.30919347382107
 30
0.0
 10
28.49039321052517
 20
-39.23752007375887
 30
0.0
 10
28.97704392836196
 20
-39.21107128083975
 30
0.0
 10
29.011497533864
 20
-39.12224315669981
 30
0.0
 10
28.99717699759097
 20
-38.6234397026672
 30
0.0
 10
28.91965842517392
 20
-35.92413965299788
 30
0.0
 10
28.80207227064125
 20
-33.2242738537462
 30
0.0
 10
28.80702257947618
 20
-30.52479972728162
 30
0.0
 10
28.81221496385329
 20
-27.69126470968455
 30
0.0
 10
28.9094232536646
 20
-24.85668251137121
 30
0.0
 10
29.02620702297429
 20
-22.02502425921102
 30
0.0
 10
29.09521487212481
 20
-20.35182939277973
 30
0.0
 10
29.27678784827567
 20
-18.68312652362458
 30
0.0
 10
29.42132870641013
 20
-17.0135791100219
 30
0.0
 10
29.42980679027779
 20
-16.91565003348462
 30
0.0
 10
29.55647485755773
 20
-16.752020566886
 30
0.0
 10
29.63426270501587
 20
-16.74834047465884
 30
0.0
 10
30.14239830718677
 20
-16.72430563728481
 30
0.0
 10
30.65222027830161
 20
-16.73597558237052
 30
0.0
 10
31.20111432986472
 20
-16.73597558237052
 30
0.0
 10
31.17724132951014
 20
-17.15705646774241
 30
0.0
 10
31.17125743970935
 20
-17.45271366291686
 30
0.0
 10
31.1418983003875
 20
-17.74602898121947
 30
0.0
 10
31.03989473888582
 20
-18.76515477299163
 30
0.0
 10
30.86742543508211
 20
-19.78151301573043
 30
0.0
 10
30.83542794434812
 20
-20.80248701346531
 30
0.0
 10
30.76343903009619
 20
-23.09950783151291
 30
0.0
 10
30.75064166577275
 20
-25.39858357171707
 30
0.0
 10
30.73116410447163
 20
-27.69697116459413
 30
0.0
 10
30.71870945383649
 20
-29.16707417116569
 30
0.0
 10
30.74271845168686
 20
-30.63745189267864
 30
0.0
 10
30.73839373133078
 20
-32.1076718570972
 30
0.0
 10
30.73725407231883
 20
-32.49510152218939
 30
0.0
 10
30.77055169910931
 20
-32.76113982282624
 30
0.0
 10
31.26427428671055
 20
-32.85415122992778
 30
0.0
 10
31.7909028283155
 20
-32.95336684277177
 30
0.0
 10
31.83557528562693
 20
-33.24810605485212
 30
0.0
 10
31.43540537515892
 20
-33.63364807470749
 30
0.0
 10
31.2042014730119
 20
-33.85640653238571
 30
0.0
 10
30.925390287601
 20
-34.02974894011107
 30
0.0
 10
30.70668183533747
 20
-34.19594059952446
 30
0.0
 10
30.77424811103639
 20
-35.72398669901567
 30
0.0
 10
30.84055776987699
 20
-37.22366372095302
 30
0.0
 10
30.907974448331
 20
-38.7483914815548
 30
0.0
 10
33.3118607383433
 20
-36.75429012494031
 30
0.0
 10
35.7269287424325
 20
-34.9557858062094
 30
0.0
 10
38.70066629805979
 20
-33.87628120637454
 30
0.0
 10
38.48025787710223
 20
-33.86062517469569
 30
0.0
 10
38.34939836701218
 20
-33.86056805574743
 30
0.0
 10
38.2216096803697
 20
-33.84072330120861
 30
0.0
 10
37.46216702627117
 20
-33.72279171303748
 30
0.0
 10
36.69992010381664
 20
-33.61756773084363
 30
0.0
 10
35.94750308033424
 20
-33.46439919159628
 30
0.0
 10
35.80103377771398
 20
-33.43458310068958
 30
0.0
 10
35.69374535353823
 20
-33.21230607414463
 30
0.0
 10
35.56838286221475
 20
-33.07880005279264
 30
0.0
 10
35.68518567117354
 20
-32.98495090111975
 30
0.0
 10
35.78825273308981
 20
-32.84179177753911
 30
0.0
 10
35.92090469016988
 20
-32.80483853807022
 30
0.0
 10
37.32534538597958
 20
-32.41360638300422
 30
0.0
 10
38.65678262622156
 20
-32.55247070567847
 30
0.0
 10
39.92810625351621
 20
-33.41776293045002
 30
0.0
 10
39.95598574008731
 20
-33.20522332458088
 30
0.0
 10
40.0210007027714
 20
-33.00200226710155
 30
0.0
 10
40.00163465941635
 20
-32.80716681519292
 30
0.0
 10
39.91233054404182
 20
-31.90872928082466
 30
0.0
 10
39.79316681856179
 20
-31.01330001105734
 30
0.0
 10
39.69840104376906
 20
-30.11534390782363
 30
0.0
 10
39.66270986105845
 20
-29.77714805604085
 30
0.0
 10
39.65106575549609
 20
-29.43505995593809
 30
0.0
 10
39.65070400215804
 20
-29.09472350357636
 30
0.0
 10
39.64919442995823
 20
-27.67344903777733
 30
0.0
 10
39.68593823328413
 20
-26.25144562540319
 30
0.0
 10
39.65173758312358
 20
-24.83108234282403
 30
0.0
 10
39.61643807319975
 20
-23.36517349901209
 30
0.0
 10
39.48172711403742
 20
-21.90143789517765
 30
0.0
 10
39.45621398388754
 20
-20.43560792991386
 30
0.0
 10
39.44258975479173
 20
-19.65300490233691
 30
0.0
 10
39.61131096762038
 20
-18.86855502877181
 30
0.0
 10
39.62149718003155
 20
-18.08394875808692
 30
0.0
 10
39.64730950467156
 20
-16.09580953167397
 30
0.0
 10
39.6300650222454
 20
-14.10710999557959
 30
0.0
 10
39.6300650222454
 20
-12.00158861087636
 30
0.0
  0
SPLINE
  5
47
330
41
100
AcDbEntity
  8
Layer 1
370
     0
100
AcDbSpline
210
0.0
220
0.0
230
1.0
 70
    11
 71
     3
 72
   113
 73
   109
 74
     0
 42
0.0000000001
 43
0.0000000001
 12
1.0
 22
0.0
 32
0.0
 13
1.0
 23
0.0
 33
0.0
 40
0.0
 40
0.0
 40
0.0
 40
0.0
 40
1.0
 40
1.0
 40
1.0
 40
2.0
 40
2.0
 40
2.0
 40
3.0
 40
3.0
 40
3.0
 40
4.0
 40
4.0
 40
4.0
 40
5.0
 40
5.0
 40
5.0
 40
6.0
 40
6.0
 40
6.0
 40
7.0
 40
7.0
 40
7.0
 40
8.0
 40
8.0
 40
8.0
 40
9.0
 40
9.0
 40
9.0
 40
10.0
 40
10.0
 40
10.0
 40
11.0
 40
11.0
 40
11.0
 40
12.0
 40
12.0
 40
12.0
 40
13.0
 40
13.0
 40
13.0
 40
14.0
 40
14.0
 40
14.0
 40
15.0
 40
15.0
 40
15.0
 40
16.0
 40
16.0
 40
16.0
 40
17.0
 40
17.0
 40
17.0
 40
18.0
 40
18.0
 40
18.0
 40
19.0
 40
19.0
 40
19.0
 40
20.0
 40
20.0
 40
20.0
 40
21.0
 40
21.0
 40
21.0
 40
22.0
 40
22.0
 40
22.0
 40
23.0
 40
23.0
 40
23.0
 40
24.0
 40
24.0
 40
24.0
 40
25.0
 40
25.0
 40
25.0
 40
26.0
 40
26.0
 40
26.0
 40
27.0
 40
27.0
 40
27.0
 40
28.0
 40
28.0
 40
28.0
 40
29.0
 40
29.0
 40
29.0
 40
30.0
 40
30.0
 40
30.0
 40
31.0
 40
31.0
 40
31.0
 40
32.0
 40
32.0
 40
32.0
 40
33.0
 40
33.0
 40
33.0
 40
34.0
 40
34.0
 40
34.0
 40
35.0
 40
35.0
 40
35.0
 40
36.0
 40
36.0
 40
36.0
 40
36.0
 10
39.22754235510593
 20
-11.17659924388709
 30
0.0
 10
39.22322579459966
 20
-11.13805483372137
 30
0.0
 10
39.21891195404353
 20
-11.09950906358042
 30
0.0
 10
39.21459539353726
 20
-11.06096329343947
 30
0.0
 10
38.73019135432583
 20
-11.09528634134602
 30
0.0
 10
38.24441646035987
 20
-11.17189373054354
 30
0.0
 10
37.76163351129463
 20
-11.15624313876498
 30
0.0
 10
36.11534846929206
 20
-11.10286956169311
 30
0.0
 10
34.47046692144319
 20
-11.00780731236072
 30
0.0
 10
32.82439947543341
 20
-10.94591349219759
 30
0.0
 10
30.85153004781154
 20
-10.87173093834383
 30
0.0
 10
28.88885499245
 20
-10.89550874045195
 30
0.0
 10
26.91335265331596
 20
-11.09738070277601
 30
0.0
 10
25.1515186992634
 20
-11.27741962717767
 30
0.0
 10
23.35340061341929
 20
-11.24934702416381
 30
0.0
 10
21.58169596114561
 20
-11.14177164527214
 30
0.0
 10
20.02009111967199
 20
-11.04695419143112
 30
0.0
 10
18.47077365191409
 20
-10.99776117737038
 30
0.0
 10
16.91321881585548
 20
-11.12336710421064
 30
0.0
 10
16.61634444309616
 20
-11.1473081033128
 30
0.0
 10
16.48193947829917
 20
-11.2829533652685
 30
0.0
 10
16.47627926253759
 20
-11.56767772178247
 30
0.0
 10
16.46919787294875
 20
-11.92400475966189
 30
0.0
 10
16.48930510265378
 20
-12.28306670717353
 30
0.0
 10
16.45146787946425
 20
-12.63599380766554
 30
0.0
 10
16.41061695177509
 20
-13.01704383024606
 30
0.0
 10
16.32956516442563
 20
-13.39567717733102
 30
0.0
 10
16.23605328654076
 20
-13.76782888378297
 30
0.0
 10
16.2132981855992
 20
-13.85838961601581
 30
0.0
 10
16.07307796789543
 20
-13.91943481180635
 30
0.0
 10
15.98686915551757
 20
-13.99405119767111
 30
0.0
 10
15.91955583516047
 20
-13.91063033394965
 30
0.0
 10
15.81576798651824
 20
-13.83658105764249
 30
0.0
 10
15.79149651350199
 20
-13.74210223756472
 30
0.0
 10
15.70488106861235
 20
-13.40493588682274
 30
0.0
 10
15.63156753875518
 20
-13.06292394531702
 30
0.0
 10
15.57898818705681
 20
-12.71880812255661
 30
0.0
 10
15.51628382182091
 20
-12.30843024007882
 30
0.0
 10
15.47583816666829
 20
-11.89443210427197
 30
0.0
 10
15.4340230167367
 20
-11.48116427501482
 30
0.0
 10
15.40852756626069
 20
-11.2291894753854
 30
0.0
 10
15.27994737419455
 20
-11.11284905791111
 30
0.0
 10
15.02718242911573
 20
-11.11400775657216
 30
0.0
 10
14.32430249335793
 20
-11.11722953723989
 30
0.0
 10
13.62139943802597
 20
-11.11512565598455
 30
0.0
 10
12.91850454254348
 20
-11.11512565598455
 30
0.0
 10
12.91836854504802
 20
-11.16276421867271
 30
0.0
 10
12.91823254755257
 20
-11.21040278136088
 30
0.0
 10
12.91809655005711
 20
-11.25804134404904
 30
0.0
 10
13.12055058166216
 20
-11.27419920648582
 30
0.0
 10
13.32300461326689
 20
-11.29035706892196
 30
0.0
 10
13.65501801890584
 20
-11.31685482093923
 30
0.0
 10
11.45178039374641
 20
-12.85330828560038
 30
0.0
 10
9.209593765872345
 20
-14.07882523647162
 30
0.0
 10
7.267561770347862
 20
-15.73232358563312
 30
0.0
 10
7.517924999656761
 20
-15.78209186910029
 30
0.0
 10
7.736093541863521
 20
-15.78327776726088
 30
0.0
 10
7.954245764370364
 20
-15.78190827248159
 30
0.0
 10
10.44810187749741
 20
-15.76625224080274
 30
0.0
 10
12.94197771026149
 20
-15.75287824709892
 30
0.0
 10
15.43579370412748
 20
-15.73235078513266
 30
0.0
 10
16.04427233838044
 20
-15.72734335734947
 30
0.0
 10
16.65338472096236
 20
-15.71291674303036
 30
0.0
 10
17.26077129532627
 20
-15.6779395471705
 30
0.0
 10
18.99473120270803
 20
-15.57808610607217
 30
0.0
 10
20.72663346798277
 20
-15.42611434478471
 30
0.0
 10
22.46180239309896
 20
-15.3677591794546
 30
0.0
 10
24.62770802576455
 20
-15.29491756090664
 30
0.0
 10
26.79601945412479
 20
-15.29060508032478
 30
0.0
 10
28.96341425936585
 20
-15.26854764653503
 30
0.0
 10
29.2761269004478
 20
-15.26536530514074
 30
0.0
 10
29.3769826430874
 20
-15.17314132353845
 30
0.0
 10
29.34719919157957
 20
-14.84882809609295
 30
0.0
 10
29.3088941370059
 20
-14.43172377748949
 30
0.0
 10
29.33788064319041
 20
-14.00843973269138
 30
0.0
 10
29.33788064319041
 20
-13.5878185188548
 30
0.0
 10
29.36017879254744
 20
-13.58368691494245
 30
0.0
 10
29.38247422195465
 20
-13.5795553110301
 30
0.0
 10
29.40477237131169
 20
-13.57542234714252
 30
0.0
 10
29.444712115781
 20
-13.73060636927299
 30
0.0
 10
29.48465186025031
 20
-13.88579039140282
 30
0.0
 10
29.54399844732334
 20
-14.11637958486997
 30
0.0
 10
29.62287155479532
 20
-13.6621370702037
 30
0.0
 10
29.63368335568534
 20
-13.26321289679437
 30
0.0
 10
29.77328750473433
 20
-12.91608472950923
 30
0.0
 10
29.86394887511393
 20
-12.69064984111971
 30
0.0
 10
30.11926241325775
 20
-12.49288364318369
 30
0.0
 10
30.3487663467117
 20
-12.38193960632985
 30
0.0
 10
30.43351998588788
 20
-12.34096900084515
 30
0.0
 10
30.73913083775602
 20
-12.55209695271109
 30
0.0
 10
30.79752544236052
 20
-12.70441006771163
 30
0.0
 10
30.91563926717575
 20
-13.0124851941976
 30
0.0
 10
30.94264564982615
 20
-13.35766315739801
 30
0.0
 10
30.9899374189003
 20
-13.69000159705043
 30
0.0
 10
31.02528860787275
 20
-13.9384499816233
 30
0.0
 10
31.03354365584765
 20
-14.1907525352173
 30
0.0
 10
31.05540117331944
 20
-14.4602791716125
 30
0.0
 10
31.69567738198778
 20
-14.17646327836856
 30
0.0
 10
32.25525539679493
 20
-13.94760669299302
 30
0.0
 10
32.79798060196365
 20
-13.68405578654849
 30
0.0
 10
34.14352078248521
 20
-13.03066125946732
 30
0.0
 10
35.49913837742137
 20
-12.39412906184832
 30
0.0
 10
36.81239547246921
 20
-11.68032988717949
 30
0.0
 10
37.25611722088613
 20
-11.43915328869
 30
0.0
 10
37.64528493397054
 20
-11.22177897185706
 30
0.0
 10
38.16950903985542
 20
-11.26505609486522
 30
0.0
 10
38.51738247341591
 20
-11.29377604595814
 30
0.0
 10
38.87454181596671
 20
-11.21001110857378
 30
0.0
 10
39.22754235510593
 20
-11.17659924388709
 30
0.0
  0
HATCH
  5
48
330
41
100
AcDbEntity
  8
Layer 1
 62
     7
420
 16777215
100
AcDbHatch
 10
0.0
 20
0.0
 30
0.0
210
0.0
220
0.0
230
1.0
  2
SOLID
 70
     1
 71
     0
 91
        3
 92
        1
 93
        1
 72
     4
 94
        3
 73
     0
 74
     1
 95
      248
 96
      244
 40
0.0
 40
0.0
 40
0.0
 40
0.0
 40
1.0
 40
1.0
 40
1.0
 40
2.0
 40
2.0
 40
2.0
 40
3.0
 40
3.0
 40
3.0
 40
4.0
 40
4.0
 40
4.0
 40
5.0
 40
5.0
 40
5.0
 40
6.0
 40
6.0
 40
6.0
 40
7.0
 40
7.0
 40
7.0
 40
8.0
 40
8.0
 40
8.0
 40
9.0
 40
9.0
 40
9.0
 40
10.0
 40
10.0
 40
10.0
 40
11.0
 40
11.0
 40
11.0
 40
12.0
 40
12.0
 40
12.0
 40
13.0
 40
13.0
 40
13.0
 40
14.0
 40
14.0
 40
14.0
 40
15.0
 40
15.0
 40
15.0
 40
16.0
 40
16.0
 40
16.0
 40
17.0
 40
17.0
 40
17.0
 40
18.0
 40
18.0
 40
18.0
 40
19.0
 40
19.0
 40
19.0
 40
20.0
 40
20.0
 40
20.0
 40
21.0
 40
21.0
 40
21.0
 40
22.0
 40
22.0
 40
22.0
 40
23.0
 40
23.0
 40
23.0
 40
24.0
 40
24.0
 40
24.0
 40
25.0
 40
25.0
 40
25.0
 40
26.0
 40
26.0
 40
26.0
 40
27.0
 40
27.0
 40
27.0
 40
28.0
 40
28.0
 40
28.0
 40
29.0
 40
29.0
 40
29.0
 40
30.0
 40
30.0
 40
30.0
 40
31.0
 40
31.0
 40
31.0
 40
32.0
 40
32.0
 40
32.0
 40
33.0
 40
33.0
 40
33.0
 40
34.0
 40
34.0
 40
34.0
 40
35.0
 40
35.0
 40
35.0
 40
36.0
 40
36.0
 40
36.0
 40
37.0
 40
37.0
 40
37.0
 40
38.0
 40
38.0
 40
38.0
 40
39.0
 40
39.0
 40
39.0
 40
40.0
 40
40.0
 40
40.0
 40
41.0
 40
41.0
 40
41.0
 40
42.0
 40
42.0
 40
42.0
 40
43.0
 40
43.0
 40
43.0
 40
44.0
 40
44.0
 40
44.0
 40
45.0
 40
45.0
 40
45.0
 40
46.0
 40
46.0
 40
46.0
 40
47.0
 40
47.0
 40
47.0
 40
48.0
 40
48.0
 40
48.0
 40
49.0
 40
49.0
 40
49.0
 40
50.0
 40
50.0
 40
50.0
 40
51.0
 40
51.0
 40
51.0
 40
52.0
 40
52.0
 40
52.0
 40
53.0
 40
53.0
 40
53.0
 40
54.0
 40
54.0
 40
54.0
 40
55.0
 40
55.0
 40
55.0
 40
56.0
 40
56.0
 40
56.0
 40
57.0
 40
57.0
 40
57.0
 40
58.0
 40
58.0
 40
58.0
 40
59.0
 40
59.0
 40
59.0
 40
60.0
 40
60.0
 40
60.0
 40
61.0
 40
61.0
 40
61.0
 40
62.0
 40
62.0
 40
62.0
 40
63.0
 40
63.0
 40
63.0
 40
64.0
 40
64.0
 40
64.0
 40
65.0
 40
65.0
 40
65.0
 40
66.0
 40
66.0
 40
66.0
 40
67.0
 40
67.0
 40
67.0
 40
68.0
 40
68.0
 40
68.0
 40
69.0
 40
69.0
 40
69.0
 40
70.0
 40
70.0
 40
70.0
 40
71.0
 40
71.0
 40
71.0
 40
72.0
 40
72.0
 40
72.0
 40
73.0
 40
73.0
 40
73.0
 40
74.0
 40
74.0
 40
74.0
 40
75.0
 40
75.0
 40
75.0
 40
76.0
 40
76.0
 40
76.0
 40
77.0
 40
77.0
 40
77.0
 40
78.0
 40
78.0
 40
78.0
 40
79.0
 40
79.0
 40
79.0
 40
80.0
 40
80.0
 40
80.0
 40
81.0
 40
81.0
 40
81.0
 40
81.0
 10
39.52057615859324
 20
-10.06157073826008
 10
39.33954717242453
 20
-9.756428397764024
 10
39.36534317736527
 20
-9.494185787226098
 10
39.84122017361121
 20
-9.44262573675588
 10
39.86681218230795
 20
-9.439853427810814
 10
39.88994263633797
 20
-9.410293692183371
 10
39.91335868510772
 20
-9.39209722728964
 10
40.58564326431
 20
-8.869662168457342
 10
41.14286852244506
 20
-9.273544130564407
 10
41.67344643131857
 20
-9.64822403045606
 10
41.78550292768514
 20
-9.727354173194913
 10
41.84784689955823
 20
-10.05337688915818
 10
41.77761507294795
 20
-10.17806347292975
 10
41.62279280415586
 20
-10.45292801102191
 10
41.3601027618578
 20
-10.66496306618265
 10
41.15877750946508
 20
-10.91652171347654
 10
41.04689508989249
 20
-11.05632305889431
 10
40.88977990332735
 20
-11.22379173478971
 10
40.88929031234364
 20
-11.37921783246109
 10
40.88284403105836
 20
-13.44214752153278
 10
40.91977823087751
 20
-15.50529480659694
 10
40.90476682732822
 20
-17.56808713819827
 10
40.89636490205759
 20
-18.72295747009765
 10
40.79242473622063
 20
-19.8768771795031
 10
40.76886725005546
 20
-21.03198822697008
 10
40.75438895668805
 20
-21.7418774736441
 10
40.78814353506338
 20
-22.45480626434238
 10
40.83913443601443
 20
-23.16357081172912
 10
40.96999394610449
 20
-24.98255091337768
 10
41.12408998827097
 20
-26.79985008598259
 10
41.26585649749751
 20
-28.6180577218569
 10
41.34773514961965
 20
-29.6681324636725
 10
41.45877982462057
 20
-30.71763329605754
 10
41.48987429198419
 20
-31.76936720731754
 10
41.5102222372565
 20
-32.4575199742915
 10
41.94194628662279
 20
-32.84644289188422
 10
42.39618336139006
 20
-33.2039068688248
 10
42.69513305592994
 20
-33.43916349633729
 10
42.71527972490873
 20
-33.63028077671927
 10
42.47970758320714
 20
-33.84731373983914
 10
42.15522843881746
 20
-34.14626343437934
 10
41.82427853359311
 20
-34.47223583126924
 10
41.43504010181098
 20
-34.66017621015786
 10
40.44805731809331
 20
-35.13673591383091
 10
39.41998153114461
 20
-35.52735608016687
 10
38.42223590563572
 20
-35.98278177304391
 10
37.79213502957828
 20
-36.27039471636137
 10
37.16159896153524
 20
-36.57229827650345
 10
36.57672813252084
 20
-36.94009806310011
 10
35.74806819312848
 20
-37.46120510638844
 10
34.94648807503406
 20
-38.02913880731725
 10
34.16232107625886
 20
-38.61580480327214
 10
33.70238842638229
 20
-38.95990294635773
 10
33.29761092076799
 20
-39.37798100702896
 10
32.87113093482645
 20
-39.76619673764517
 10
32.81756696126101
 20
-39.8149599996206
 10
32.73605006247691
 20
-39.89516588254922
 10
32.74681290426815
 20
-39.94292820295799
 10
32.86708636931142
 20
-40.4767374123233
 10
32.47203812452248
 20
-40.46778061727122
 10
32.13824859159311
 20
-40.57848529853334
 10
31.84712419294219
 20
-40.67503808041644
 10
31.57104655718989
 20
-40.84174653031212
 10
31.31938863172416
 20
-41.0210592280885
 10
31.20929593919208
 20
-41.09951074332433
 10
31.12313064601271
 20
-41.28476653165282
 10
31.11832721447287
 20
-41.42468891484136
 10
31.10051426251644
 20
-41.94326640471412
 10
31.10866323244493
 20
-42.46369074057565
 10
31.13073834590951
 20
-42.98241510774348
 10
31.15343904785327
 20
-43.51584352412229
 10
30.78698835641189
 20
-43.83137947320998
 10
30.28202421583501
 20
-43.68183118729233
 10
29.97444956013205
 20
-43.59073734487697
 10
29.60451733280689
 20
-43.56210987208069
 10
29.38474810007891
 20
-43.36748657626489
 10
29.19442232511964
 20
-43.19893944023054
 10
29.12084768007086
 20
-42.84102939150442
 10
29.09517407287646
 20
-42.55780100744016
 10
29.05823715310684
 20
-42.1503389112654
 10
29.10990260163585
 20
-41.73463808681438
 10
29.12676901102373
 20
-41.3225738353933
 10
29.141949051468
 20
-40.95187186224339
 10
28.96728746803705
 20
-40.83907825945158
 10
28.60546613134121
 20
-40.86608736205149
 10
26.25226338794068
 20
-41.04174444714914
 10
23.90001262700834
 20
-41.24809616697479
 10
21.54339226654654
 20
-41.35460124557634
 10
19.49304098583123
 20
-41.44726449908929
 10
17.53220869653309
 20
-42.00548525889136
 10
15.53501067694703
 20
-42.36816881970795
 10
13.97988475615755
 20
-42.65057849884963
 10
12.43143155248325
 20
-42.59289108122131
 10
10.87372575920514
 20
-42.52739196745348
 10
10.41420382176412
 20
-42.50806944329725
 10
9.953988977084304
 20
-42.50306473546389
 10
9.494018927896182
 20
-42.49732292120529
 10
9.1998094260606
 20
-42.49364826887778
 10
9.081940396737716
 20
-42.63813200806398
 10
9.075747070793932
 20
-42.93988869091097
 10
9.062384636876702
 20
-43.59096310071956
 10
9.015594698560477
 20
-44.24133848340177
 10
8.983336092635188
 20
-44.89204298002251
 10
8.963251302517026
 20
-45.29719039882434
 10
8.749386401054387
 20
-45.49415829146244
 10
8.349549004463
 20
-45.56148249161917
 10
7.985485749054472
 20
-45.6227901625772
 10
7.786275257716393
 20
-45.49323350849345
 10
7.523096984409538
 20
-45.22908285309342
 10
6.909854357890178
 20
-44.61357450830024
 10
7.035525563528501
 20
-43.8732503821146
 10
7.034145188949588
 20
-43.15116624002183
 10
7.033459081584709
 20
-42.79224708987956
 10
6.940678870225732
 20
-42.64097435571914
 10
6.560421033057137
 20
-42.6598970472388
 10
5.937819738886916
 20
-42.69087999665668
 10
5.313205341790721
 20
-42.67999747706958
 10
4.689510627756865
 20
-42.69084463730766
 10
4.127327920918034
 20
-42.70062013728231
 10
3.960258227674607
 20
-42.56204412929922
 10
3.858408343342897
 20
-41.99757020465462
 10
3.845444892077962
 20
-41.92572544774828
 10
3.815030242194327
 20
-41.85543922214021
 10
3.783488513066921
 20
-41.78879228951062
 10
3.502490997919382
 20
-41.1950190644429
 10
3.807369843268288
 20
-40.75571995457867
 10
4.471656239764923
 20
-40.77042672373882
 10
5.213772812940588
 20
-40.78685522119129
 10
5.956430316154611
 20
-40.77951407638574
 10
6.698854243670209
 20
-40.78011790526567
 10
6.756051730320529
 20
-40.78016686436381
 10
6.813264856683149
 20
-40.76125777259392
 10
6.922527284505729
 20
-40.7419706077867
 10
6.793068548618602
 20
-39.87272357584661
 10
6.606990315436771
 20
-39.01726125004686
 10
6.549658191265586
 20
-38.15325828153186
 10
6.442660461736523
 20
-36.54078221690305
 10
6.387773572534073
 20
-34.92382911472374
 10
6.353421285166093
 20
-33.3078415947621
 10
6.317787561396759
 20
-31.63155550525986
 10
6.332998881264984
 20
-29.95419775549227
 10
6.323972727490745
 20
-28.27732143685859
 10
6.322294518396609
 20
-27.96553085879708
 10
6.292911239519325
 20
-27.65295421521027
 10
6.307223955936199
 20
-27.34216457871479
 10
6.427396782832709
 20
-24.73267999500231
 10
6.018861666418329
 20
-22.15842420251659
 10
5.803138019186656
 20
-19.57118472913762
 10
5.764968622114473
 20
-19.11340491961422
 10
5.748326948587925
 20
-18.65039328644026
 10
5.769929810749018
 20
-18.19206948693437
 10
5.790047240266694
 20
-17.76525358717942
 10
5.684345226875732
 20
-17.57149251548468
 10
5.205889718115748
 20
-17.61195313036199
 10
4.365492514877086
 20
-17.68302406151885
 10
3.520457967039428
 20
-17.71551930308603
 10
2.677038899451647
 20
-17.72206214259301
 10
2.488758441826044
 20
-17.72352275569435
 10
2.251980002339206
 20
-17.58927146806765
 10
2.131025954829842
 20
-17.44115115585215
 10
2.074861879148082
 20
-17.37237450244357
 10
2.242675053699167
 20
-17.12069753732809
 10
2.304562753975023
 20
-16.96311451937817
 10
2.260885628333302
 20
-16.78510467760875
 10
2.113264256929242
 20
-16.52254927283124
 10
2.18871779237655
 20
-16.41131692128689
 10
2.301237530212218
 20
-16.24544077606355
 10
2.561967508607184
 20
-16.12437444562233
 10
2.775626033870299
 20
-16.09295086431857
 10
3.509250753431862
 20
-15.98505589131307
 10
4.25102478291556
 20
-15.93405411056239
 10
4.987348202777985
 20
-15.84250875646248
 10
5.492025728632913
 20
-15.77976223200299
 10
5.536714165650618
 20
-15.58495941949292
 10
5.595912855446986
 20
-15.10872610980922
 10
5.694703816112001
 20
-14.31399482558649
 10
5.890901622931384
 20
-13.5265394073709
 10
6.11614237489592
 20
-12.7565120682005
 10
6.160137224686886
 20
-12.60610835803667
 10
6.520487748468742
 20
-12.48181072710302
 10
6.739477035560284
 20
-12.4740547899359
 10
6.869910533495807
 20
-12.46943631498999
 10
7.02134782462582
 20
-12.70572924341753
 10
7.139880521726718
 20
-12.8526473377722
 10
7.208283862010332
 20
-12.93743225637265
 10
7.229999262099397
 20
-13.05988304131881
 10
7.289232291263197
 20
-13.20613066802121
 10
7.436603257278604
 20
-13.1329626554839
 10
7.558605930476365
 20
-13.08674934654805
 10
7.665317725271094
 20
-13.01710502911875
 10
8.42302777127737
 20
-12.52260725579311
 10
9.182045433202315
 20
-12.02986793008467
 10
9.931263795591475
 20
-11.52270742995614
 10
10.29090033252226
 20
-11.2792623932414
 10
10.61229641368982
 20
-11.1729545110083
 10
11.0343150017922
 20
-11.43980743664267
 10
11.21443212475408
 20
-11.55369989919872
 10
11.52654773683035
 20
-11.4588402861338
 10
11.71146761134477
 20
-11.4588402861338
 10
11.25279905818805
 20
-11.27061703245431
 10
10.75895067290368
 20
-11.067957644631
 10
10.2186435032048
 20
-10.84623140794341
 10
10.45595369289829
 20
-10.37895897323621
 10
10.67489878080404
 20
-9.982394356372904
 10
11.20307837384476
 20
-10.0023751084075
 10
12.98171345848746
 20
-10.06965850931556
 10
14.14713175613574
 20
-8.917623725197098
 10
15.40041803560596
 20
-7.931693562094398
 10
15.59596747436599
 20
-7.777860675081733
 10
15.80775637406012
 20
-7.530826664462527
 10
16.01395169676566
 20
-7.528868980514974
 10
16.40292493343144
 20
-7.525178688475166
 10
16.80868570093822
 20
-7.630214314137969
 10
17.17259051926443
 20
-7.776703336395268
 10
17.26722709643626
 20
-7.814799634813558
 10
17.32578761798527
 20
-8.227987225547958
 10
17.23968080372908
 20
-8.373442666839393
 10
17.02393709686704
 20
-8.737890115172197
 10
16.72207025604858
 20
-9.053086750509344
 10
16.44095391308946
 20
-9.376028443212382
 10
16.358610149533
 20
-9.47062354114857
 10
16.22996195871896
 20
-9.524911701376778
 10
16.12253481709793
 20
-9.59767376139057
 10
16.14622966073347
 20
-9.640569411423641
 10
16.1699231443941
 20
-9.68346574144529
 10
16.19361798802965
 20
-9.72636139147836
 10
16.3166304426315
 20
-9.739761904693792
 10
16.43936002244281
 20
-9.760882315740668
 10
16.56269751105846
 20
-9.76540287249029
 10
18.40118373348226
 20
-9.83278623155781
 10
20.2393394819923
 20
-9.930606510098846
 10
22.07842137344655
 20
-9.953674405279985
 10
23.63525406280429
 20
-9.973202285654162
 10
25.20053763652984
 20
-9.990637164573588
 10
26.74889088204532
 20
-9.85660551290125
 10
29.0499168263342
 20
-9.657419501112564
 10
31.34664524976623
 20
-9.641435035482472
 10
33.64677633053485
 20
-9.750065074950676
 10
35.17377796926121
 20
-9.822183866811109
 10
36.69750478829695
 20
-9.961725457011859
 10
38.22354628470499
 20
-10.05756969194386
 10
38.64264704654278
 20
-10.08389200719192
 10
39.06479687222858
 20
-10.06157073826008
 10
39.52057615859324
 20
-10.06157073826008
 97
        0
 97
        0
 92
        1
 93
        1
 72
     4
 94
        3
 73
     0
 74
     1
 95
      164
 96
      160
 40
0.0
 40
0.0
 40
0.0
 40
0.0
 40
1.0
 40
1.0
 40
1.0
 40
2.0
 40
2.0
 40
2.0
 40
3.0
 40
3.0
 40
3.0
 40
4.0
 40
4.0
 40
4.0
 40
5.0
 40
5.0
 40
5.0
 40
6.0
 40
6.0
 40
6.0
 40
7.0
 40
7.0
 40
7.0
 40
8.0
 40
8.0
 40
8.0
 40
9.0
 40
9.0
 40
9.0
 40
10.0
 40
10.0
 40
10.0
 40
11.0
 40
11.0
 40
11.0
 40
12.0
 40
12.0
 40
12.0
 40
13.0
 40
13.0
 40
13.0
 40
14.0
 40
14.0
 40
14.0
 40
15.0
 40
15.0
 40
15.0
 40
16.0
 40
16.0
 40
16.0
 40
17.0
 40
17.0
 40
17.0
 40
18.0
 40
18.0
 40
18.0
 40
19.0
 40
19.0
 40
19.0
 40
20.0
 40
20.0
 40
20.0
 40
21.0
 40
21.0
 40
21.0
 40
22.0
 40
22.0
 40
22.0
 40
23.0
 40
23.0
 40
23.0
 40
24.0
 40
24.0
 40
24.0
 40
25.0
 40
25.0
 40
25.0
 40
26.0
 40
26.0
 40
26.0
 40
27.0
 40
27.0
 40
27.0
 40
28.0
 40
28.0
 40
28.0
 40
29.0
 40
29.0
 40
29.0
 40
30.0
 40
30.0
 40
30.0
 40
31.0
 40
31.0
 40
31.0
 40
32.0
 40
32.0
 40
32.0
 40
33.0
 40
33.0
 40
33.0
 40
34.0
 40
34.0
 40
34.0
 40
35.0
 40
35.0
 40
35.0
 40
36.0
 40
36.0
 40
36.0
 40
37.0
 40
37.0
 40
37.0
 40
38.0
 40
38.0
 40
38.0
 40
39.0
 40
39.0
 40
39.0
 40
40.0
 40
40.0
 40
40.0
 40
41.0
 40
41.0
 40
41.0
 40
42.0
 40
42.0
 40
42.0
 40
43.0
 40
43.0
 40
43.0
 40
44.0
 40
44.0
 40
44.0
 40
45.0
 40
45.0
 40
45.0
 40
46.0
 40
46.0
 40
46.0
 40
47.0
 40
47.0
 40
47.0
 40
48.0
 40
48.0
 40
48.0
 40
49.0
 40
49.0
 40
49.0
 40
50.0
 40
50.0
 40
50.0
 40
51.0
 40
51.0
 40
51.0
 40
52.0
 40
52.0
 40
52.0
 40
53.0
 40
53.0
 40
53.0
 40
53.0
 10
39.6300650222454
 20
-12.00158861087636
 10
39.12333019427806
 20
-12.39799139071958
 10
38.75176327705725
 20
-12.71673552072587
 10
38.35255894880689
 20
-12.99595741857297
 10
36.8236669448939
 20
-14.06532476509608
 10
35.13182546185893
 20
-14.8199775874039
 10
33.4179523845585
 20
-15.53302197597331
 10
33.09378603440841
 20
-15.66788797227988
 10
32.79866874929074
 20
-15.87197533380534
 10
32.48816198758516
 20
-16.04046399091748
 10
32.21572636476214
 20
-16.188293268492
 10
31.94876600110613
 20
-16.43600318666439
 10
31.66513506445547
 20
-16.45829861607192
 10
30.21818427151221
 20
-16.57203740145801
 10
28.76702843600875
 20
-16.63667701105396
 10
27.31653354833347
 20
-16.69974040967808
 10
25.83376645498345
 20
-16.76420730245528
 10
24.34826309202435
 20
-16.77732154094337
 10
22.86722996674182
 20
-16.86696972998112
 10
21.16372533849571
 20
-16.9700857509965
 10
19.46600876365651
 20
-17.19643726250553
 10
17.76184998745773
 20
-17.2550331434026
 10
14.76481878080671
 20
-17.35808388561959
 10
11.76482554870435
 20
-17.37563028248508
 10
8.76601549481275
 20
-17.42563520159414
 10
8.23847576998859
 20
-17.43443151960073
 10
7.710662690197959
 20
-17.42688229862742
 10
7.241328533459323
 20
-17.42688229862742
 10
7.327886859400383
 20
-17.67561627794097
 10
7.435161683826365
 20
-17.86418360528336
 10
7.455789783939384
 20
-18.06179476607482
 10
7.648276559101618
 20
-19.90579976686477
 10
7.853324062945081
 20
-21.74918597905108
 10
7.999644448307731
 20
-23.59711450758434
 10
8.13058623688274
 20
-25.25083045273959
 10
8.192958768229953
 20
-26.90999989746293
 10
8.283597699022685
 20
-28.56687098451229
 10
8.309519501646552
 20
-29.04071617817584
 10
8.340470491652852
 20
-29.51473272868354
 10
8.348696980153939
 20
-29.98902671408181
 10
8.391402233693432
 20
-32.4512205703013
 10
8.404817706633867
 20
-34.91423041149355
 10
8.480413954453027
 20
-37.37535804734863
 10
8.501716602143041
 20
-38.06886639569373
 10
8.698542377398413
 20
-38.7569865232685
 10
8.814862395248054
 20
-39.44757636536076
 10
8.86070919093317
 20
-39.46305288034469
 10
8.90655666660558
 20
-39.47852667538008
 10
8.95240414227799
 20
-39.49400319036338
 10
9.285735363647927
 20
-39.16653482102441
 10
9.652341772221483
 20
-38.86562676254935
 10
9.941756682354319
 20
-38.50310095882651
 10
10.16882830060169
 20
-38.21866491700305
 10
10.30350662036483
 20
-37.85960704941517
 10
10.47362180752217
 20
-37.5308004647196
 10
10.65726398556665
 20
-37.17584156164617
 10
11.19733111968587
 20
-36.90535614290692
 10
11.46752074387211
 20
-37.03916135874936
 10
11.78019122572983
 20
-37.19400538714071
 10
11.85088816377475
 20
-37.60433703046953
 10
11.64782554337742
 20
-38.04926915659676
 10
11.22699897332257
 20
-38.97134849557671
 10
10.80977701688547
 20
-39.89493196685651
 10
9.90976531150759
 20
-40.47422689855714
 10
9.88140371381496
 20
-40.49248592229815
 10
9.877508065557535
 20
-40.54875080612398
 10
9.853084275346234
 20
-40.61028695287379
 10
9.917701445355956
 20
-40.63028130465752
 10
9.969930603503197
 20
-40.65757056209846
 10
10.02387061014377
 20
-40.66152808921618
 10
11.95313652076812
 20
-40.80293556505514
 10
13.88478578750091
 20
-40.87384737914303
 10
15.78701675600136
 20
-40.44231644621981
 10
18.66805433879146
 20
-39.78873424259488
 10
21.60149719648562
 20
-39.62395695713451
 10
24.5339187129891
 20
-39.4410104062793
 10
25.85184052213117
 20
-39.35878904046885
 10
27.17176965430624
 20
-39.30919347382107
 10
28.49039321052517
 20
-39.23752007375887
 10
28.97704392836196
 20
-39.21107128083975
 10
29.011497533864
 20
-39.12224315669981
 10
28.99717699759097
 20
-38.6234397026672
 10
28.91965842517392
 20
-35.92413965299788
 10
28.80207227064125
 20
-33.2242738537462
 10
28.80702257947618
 20
-30.52479972728162
 10
28.81221496385329
 20
-27.69126470968455
 10
28.9094232536646
 20
-24.85668251137121
 10
29.02620702297429
 20
-22.02502425921102
 10
29.09521487212481
 20
-20.35182939277973
 10
29.27678784827567
 20
-18.68312652362458
 10
29.42132870641013
 20
-17.0135791100219
 10
29.42980679027779
 20
-16.91565003348462
 10
29.55647485755773
 20
-16.752020566886
 10
29.63426270501587
 20
-16.74834047465884
 10
30.14239830718677
 20
-16.72430563728481
 10
30.65222027830161
 20
-16.73597558237052
 10
31.20111432986472
 20
-16.73597558237052
 10
31.17724132951014
 20
-17.15705646774241
 10
31.17125743970935
 20
-17.45271366291686
 10
31.1418983003875
 20
-17.74602898121947
 10
31.03989473888582
 20
-18.76515477299163
 10
30.86742543508211
 20
-19.78151301573043
 10
30.83542794434812
 20
-20.80248701346531
 10
30.76343903009619
 20
-23.09950783151291
 10
30.75064166577275
 20
-25.39858357171707
 10
30.73116410447163
 20
-27.69697116459413
 10
30.71870945383649
 20
-29.16707417116569
 10
30.74271845168686
 20
-30.63745189267864
 10
30.73839373133078
 20
-32.1076718570972
 10
30.73725407231883
 20
-32.49510152218939
 10
30.77055169910931
 20
-32.76113982282624
 10
31.26427428671055
 20
-32.85415122992778
 10
31.7909028283155
 20
-32.95336684277177
 10
31.83557528562693
 20
-33.24810605485212
 10
31.43540537515892
 20
-33.63364807470749
 10
31.2042014730119
 20
-33.85640653238571
 10
30.925390287601
 20
-34.02974894011107
 10
30.70668183533747
 20
-34.19594059952446
 10
30.77424811103639
 20
-35.72398669901567
 10
30.84055776987699
 20
-37.22366372095302
 10
30.907974448331
 20
-38.7483914815548
 10
33.3118607383433
 20
-36.75429012494031
 10
35.7269287424325
 20
-34.9557858062094
 10
38.70066629805979
 20
-33.87628120637454
 10
38.48025787710223
 20
-33.86062517469569
 10
38.34939836701218
 20
-33.86056805574743
 10
38.2216096803697
 20
-33.84072330120861
 10
37.46216702627117
 20
-33.72279171303748
 10
36.69992010381664
 20
-33.61756773084363
 10
35.94750308033424
 20
-33.46439919159628
 10
35.80103377771398
 20
-33.43458310068958
 10
35.69374535353823
 20
-33.21230607414463
 10
35.56838286221475
 20
-33.07880005279264
 10
35.68518567117354
 20
-32.98495090111975
 10
35.78825273308981
 20
-32.84179177753911
 10
35.92090469016988
 20
-32.80483853807022
 10
37.32534538597958
 20
-32.41360638300422
 10
38.65678262622156
 20
-32.55247070567847
 10
39.92810625351621
 20
-33.41776293045002
 10
39.95598574008731
 20
-33.20522332458088
 10
40.0210007027714
 20
-33.00200226710155
 10
40.00163465941635
 20
-32.80716681519292
 10
39.91233054404182
 20
-31.90872928082466
 10
39.79316681856179
 20
-31.01330001105734
 10
39.69840104376906
 20
-30.11534390782363
 10
39.66270986105845
 20
-29.77714805604085
 10
39.65106575549609
 20
-29.43505995593809
 10
39.65070400215804
 20
-29.09472350357636
 10
39.64919442995823
 20
-27.67344903777733
 10
39.68593823328413
 20
-26.25144562540319
 10
39.65173758312358
 20
-24.83108234282403
 10
39.61643807319975
 20
-23.36517349901209
 10
39.48172711403742
 20
-21.90143789517765
 10
39.45621398388754
 20
-20.43560792991386
 10
39.44258975479173
 20
-19.65300490233691
 10
39.61131096762038
 20
-18.86855502877181
 10
39.62149718003155
 20
-18.08394875808692
 10
39.64730950467156
 20
-16.09580953167397
 10
39.6300650222454
 20
-14.10710999557959
 10
39.6300650222454
 20
-12.00158861087636
 97
        0
 97
        0
 92
        1
 93
        1
 72
     4
 94
        3
 73
     0
 74
     1
 95
      113
 96
      109
 40
0.0
 40
0.0
 40
0.0
 40
0.0
 40
1.0
 40
1.0
 40
1.0
 40
2.0
 40
2.0
 40
2.0
 40
3.0
 40
3.0
 40
3.0
 40
4.0
 40
4.0
 40
4.0
 40
5.0
 40
5.0
 40
5.0
 40
6.0
 40
6.0
 40
6.0
 40
7.0
 40
7.0
 40
7.0
 40
8.0
 40
8.0
 40
8.0
 40
9.0
 40
9.0
 40
9.0
 40
10.0
 40
10.0
 40
10.0
 40
11.0
 40
11.0
 40
11.0
 40
12.0
 40
12.0
 40
12.0
 40
13.0
 40
13.0
 40
13.0
 40
14.0
 40
14.0
 40
14.0
 40
15.0
 40
15.0
 40
15.0
 40
16.0
 40
16.0
 40
16.0
 40
17.0
 40
17.0
 40
17.0
 40
18.0
 40
18.0
 40
18.0
 40
19.0
 40
19.0
 40
19.0
 40
20.0
 40
20.0
 40
20.0
 40
21.0
 40
21.0
 40
21.0
 40
22.0
 40
22.0
 40
22.0
 40
23.0
 40
23.0
 40
23.0
 40
24.0
 40
24.0
 40
24.0
 40
25.0
 40
25.0
 40
25.0
 40
26.0
 40
26.0
 40
26.0
 40
27.0
 40
27.0
 40
27.0
 40
28.0
 40
28.0
 40
28.0
 40
29.0
 40
29.0
 40
29.0
 40
30.0
 40
30.0
 40
30.0
 40
31.0
 40
31.0
 40
31.0
 40
32.0
 40
32.0
 40
32.0
 40
33.0
 40
33.0
 40
33.0
 40
34.0
 40
34.0
 40
34.0
 40
35.0
 40
35.0
 40
35.0
 40
36.0
 40
36.0
 40
36.0
 40
36.0
 10
39.22754235510593
 20
-11.17659924388709
 10
39.22322579459966
 20
-11.13805483372137
 10
39.21891195404353
 20
-11.09950906358042
 10
39.21459539353726
 20
-11.06096329343947
 10
38.73019135432583
 20
-11.09528634134602
 10
38.24441646035987
 20
-11.17189373054354
 10
37.76163351129463
 20
-11.15624313876498
 10
36.11534846929206
 20
-11.10286956169311
 10
34.47046692144319
 20
-11.00780731236072
 10
32.82439947543341
 20
-10.94591349219759
 10
30.85153004781154
 20
-10.87173093834383
 10
28.88885499245
 20
-10.89550874045195
 10
26.91335265331596
 20
-11.09738070277601
 10
25.1515186992634
 20
-11.27741962717767
 10
23.35340061341929
 20
-11.24934702416381
 10
21.58169596114561
 20
-11.14177164527214
 10
20.02009111967199
 20
-11.04695419143112
 10
18.47077365191409
 20
-10.99776117737038
 10
16.91321881585548
 20
-11.12336710421064
 10
16.61634444309616
 20
-11.1473081033128
 10
16.48193947829917
 20
-11.2829533652685
 10
16.47627926253759
 20
-11.56767772178247
 10
16.46919787294875
 20
-11.92400475966189
 10
16.48930510265378
 20
-12.28306670717353
 10
16.45146787946425
 20
-12.63599380766554
 10
16.41061695177509
 20
-13.01704383024606
 10
16.32956516442563
 20
-13.39567717733102
 10
16.23605328654076
 20
-13.76782888378297
 10
16.2132981855992
 20
-13.85838961601581
 10
16.07307796789543
 20
-13.91943481180635
 10
15.98686915551757
 20
-13.99405119767111
 10
15.91955583516047
 20
-13.91063033394965
 10
15.81576798651824
 20
-13.83658105764249
 10
15.79149651350199
 20
-13.74210223756472
 10
15.70488106861235
 20
-13.40493588682274
 10
15.63156753875518
 20
-13.06292394531702
 10
15.57898818705681
 20
-12.71880812255661
 10
15.51628382182091
 20
-12.30843024007882
 10
15.47583816666829
 20
-11.89443210427197
 10
15.4340230167367
 20
-11.48116427501482
 10
15.40852756626069
 20
-11.2291894753854
 10
15.27994737419455
 20
-11.11284905791111
 10
15.02718242911573
 20
-11.11400775657216
 10
14.32430249335793
 20
-11.11722953723989
 10
13.62139943802597
 20
-11.11512565598455
 10
12.91850454254348
 20
-11.11512565598455
 10
12.91836854504802
 20
-11.16276421867271
 10
12.91823254755257
 20
-11.21040278136088
 10
12.91809655005711
 20
-11.25804134404904
 10
13.12055058166216
 20
-11.27419920648582
 10
13.32300461326689
 20
-11.29035706892196
 10
13.65501801890584
 20
-11.31685482093923
 10
11.45178039374641
 20
-12.85330828560038
 10
9.209593765872345
 20
-14.07882523647162
 10
7.267561770347862
 20
-15.73232358563312
 10
7.517924999656761
 20
-15.78209186910029
 10
7.736093541863521
 20
-15.78327776726088
 10
7.954245764370364
 20
-15.78190827248159
 10
10.44810187749741
 20
-15.76625224080274
 10
12.94197771026149
 20
-15.75287824709892
 10
15.43579370412748
 20
-15.73235078513266
 10
16.04427233838044
 20
-15.72734335734947
 10
16.65338472096236
 20
-15.71291674303036
 10
17.26077129532627
 20
-15.6779395471705
 10
18.99473120270803
 20
-15.57808610607217
 10
20.72663346798277
 20
-15.42611434478471
 10
22.46180239309896
 20
-15.3677591794546
 10
24.62770802576455
 20
-15.29491756090664
 10
26.79601945412479
 20
-15.29060508032478
 10
28.96341425936585
 20
-15.26854764653503
 10
29.2761269004478
 20
-15.26536530514074
 10
29.3769826430874
 20
-15.17314132353845
 10
29.34719919157957
 20
-14.84882809609295
 10
29.3088941370059
 20
-14.43172377748949
 10
29.33788064319041
 20
-14.00843973269138
 10
29.33788064319041
 20
-13.5878185188548
 10
29.36017879254744
 20
-13.58368691494245
 10
29.38247422195465
 20
-13.5795553110301
 10
29.40477237131169
 20
-13.57542234714252
 10
29.444712115781
 20
-13.73060636927299
 10
29.48465186025031
 20
-13.88579039140282
 10
29.54399844732334
 20
-14.11637958486997
 10
29.62287155479532
 20
-13.6621370702037
 10
29.63368335568534
 20
-13.26321289679437
 10
29.77328750473433
 20
-12.91608472950923
 10
29.86394887511393
 20
-12.69064984111971
 10
30.11926241325775
 20
-12.49288364318369
 10
30.3487663467117
 20
-12.38193960632985
 10
30.43351998588788
 20
-12.34096900084515
 10
30.73913083775602
 20
-12.55209695271109
 10
30.79752544236052
 20
-12.70441006771163
 10
30.91563926717575
 20
-13.0124851941976
 10
30.94264564982615
 20
-13.35766315739801
 10
30.9899374189003
 20
-13.69000159705043
 10
31.02528860787275
 20
-13.9384499816233
 10
31.03354365584765
 20
-14.1907525352173
 10
31.05540117331944
 20
-14.4602791716125
 10
31.69567738198778
 20
-14.17646327836856
 10
32.25525539679493
 20
-13.94760669299302
 10
32.79798060196365
 20
-13.68405578654849
 10
34.14352078248521
 20
-13.03066125946732
 10
35.49913837742137
 20
-12.39412906184832
 10
36.81239547246921
 20
-11.68032988717949
 10
37.25611722088613
 20
-11.43915328869
 10
37.64528493397054
 20
-11.22177897185706
 10
38.16950903985542
 20
-11.26505609486522
 10
38.51738247341591
 20
-11.29377604595814
 10
38.87454181596671
 20
-11.21001110857378
 10
39.22754235510593
 20
-11.17659924388709
 97
        0
 97
        0
 75
     2
 76
     1
 98
        0
  0
SPLINE
  5
49
330
41
100
AcDbEntity
  8
Layer 1
370
     0
100
AcDbSpline
210
0.0
220
0.0
230
1.0
 70
    11
 71
     3
 72
   251
 73
   247
 74
     0
 42
0.0000000001
 43
0.0000000001
 12
1.0
 22
0.0
 32
0.0
 13
1.0
 23
0.0
 33
0.0
 40
0.0
 40
0.0
 40
0.0
 40
0.0
 40
1.0
 40
1.0
 40
1.0
 40
2.0
 40
2.0
 40
2.0
 40
3.0
 40
3.0
 40
3.0
 40
4.0
 40
4.0
 40
4.0
 40
5.0
 40
5.0
 40
5.0
 40
6.0
 40
6.0
 40
6.0
 40
7.0
 40
7.0
 40
7.0
 40
8.0
 40
8.0
 40
8.0
 40
9.0
 40
9.0
 40
9.0
 40
10.0
 40
10.0
 40
10.0
 40
11.0
 40
11.0
 40
11.0
 40
12.0
 40
12.0
 40
12.0
 40
13.0
 40
13.0
 40
13.0
 40
14.0
 40
14.0
 40
14.0
 40
15.0
 40
15.0
 40
15.0
 40
16.0
 40
16.0
 40
16.0
 40
17.0
 40
17.0
 40
17.0
 40
18.0
 40
18.0
 40
18.0
 40
19.0
 40
19.0
 40
19.0
 40
20.0
 40
20.0
 40
20.0
 40
21.0
 40
21.0
 40
21.0
 40
22.0
 40
22.0
 40
22.0
 40
23.0
 40
23.0
 40
23.0
 40
24.0
 40
24.0
 40
24.0
 40
25.0
 40
25.0
 40
25.0
 40
26.0
 40
26.0
 40
26.0
 40
27.0
 40
27.0
 40
27.0
 40
28.0
 40
28.0
 40
28.0
 40
29.0
 40
29.0
 40
29.0
 40
30.0
 40
30.0
 40
30.0
 40
31.0
 40
31.0
 40
31.0
 40
32.0
 40
32.0
 40
32.0
 40
33.0
 40
33.0
 40
33.0
 40
34.0
 40
34.0
 40
34.0
 40
35.0
 40
35.0
 40
35.0
 40
36.0
 40
36.0
 40
36.0
 40
37.0
 40
37.0
 40
37.0
 40
38.0
 40
38.0
 40
38.0
 40
39.0
 40
39.0
 40
39.0
 40
40.0
 40
40.0
 40
40.0
 40
41.0
 40
41.0
 40
41.0
 40
42.0
 40
42.0
 40
42.0
 40
43.0
 40
43.0
 40
43.0
 40
44.0
 40
44.0
 40
44.0
 40
45.0
 40
45.0
 40
45.0
 40
46.0
 40
46.0
 40
46.0
 40
47.0
 40
47.0
 40
47.0
 40
48.0
 40
48.0
 40
48.0
 40
49.0
 40
49.0
 40
49.0
 40
50.0
 40
50.0
 40
50.0
 40
51.0
 40
51.0
 40
51.0
 40
52.0
 40
52.0
 40
52.0
 40
53.0
 40
53.0
 40
53.0
 40
54.0
 40
54.0
 40
54.0
 40
55.0
 40
55.0
 40
55.0
 40
56.0
 40
56.0
 40
56.0
 40
57.0
 40
57.0
 40
57.0
 40
58.0
 40
58.0
 40
58.0
 40
59.0
 40
59.0
 40
59.0
 40
60.0
 40
60.0
 40
60.0
 40
61.0
 40
61.0
 40
61.0
 40
62.0
 40
62.0
 40
62.0
 40
63.0
 40
63.0
 40
63.0
 40
64.0
 40
64.0
 40
64.0
 40
65.0
 40
65.0
 40
65.0
 40
66.0
 40
66.0
 40
66.0
 40
67.0
 40
67.0
 40
67.0
 40
68.0
 40
68.0
 40
68.0
 40
69.0
 40
69.0
 40
69.0
 40
70.0
 40
70.0
 40
70.0
 40
71.0
 40
71.0
 40
71.0
 40
72.0
 40
72.0
 40
72.0
 40
73.0
 40
73.0
 40
73.0
 40
74.0
 40
74.0
 40
74.0
 40
75.0
 40
75.0
 40
75.0
 40
76.0
 40
76.0
 40
76.0
 40
77.0
 40
77.0
 40
77.0
 40
78.0
 40
78.0
 40
78.0
 40
79.0
 40
79.0
 40
79.0
 40
80.0
 40
80.0
 40
80.0
 40
81.0
 40
81.0
 40
81.0
 40
82.0
 40
82.0
 40
82.0
 40
82.0
 10
77.17435504631959
 20
-10.95146354998802
 30
0.0
 10
77.48604498623563
 20
-11.17816321508501
 30
0.0
 10
77.77733530183042
 20
-11.44224995166126
 30
0.0
 10
78.11283024335346
 20
-11.62532298018689
 30
0.0
 10
79.9051357962403
 20
-12.60334896885344
 30
0.0
 10
81.69010292427271
 20
-12.44750535887066
 30
0.0
 10
83.42202014927213
 20
-11.48046524788843
 30
0.0
 10
83.91793229655013
 20
-11.20356482728914
 30
0.0
 10
84.37682048566187
 20
-10.81890407120426
 30
0.0
 10
84.76262362070885
 20
-10.40059345481491
 30
0.0
 10
85.02763922017978
 20
-10.11324434663889
 30
0.0
 10
85.20614409283225
 20
-9.699112253298786
 30
0.0
 10
85.29935133632702
 20
-9.311814505776677
 30
0.0
 10
85.4246975079509
 20
-8.791001217077866
 30
0.0
 10
85.42483894534632
 20
-8.240716591123837
 30
0.0
 10
85.49235354199728
 20
-7.704798740591473
 30
0.0
 10
85.50694335331107
 20
-7.58898803336194
 30
0.0
 10
85.57950617699322
 20
-7.48048107162704
 30
0.0
 10
85.62536997236523
 20
-7.368610891828983
 30
0.0
 10
85.73758422582684
 20
-7.429911082924192
 30
0.0
 10
85.88331370207106
 20
-7.464513605683839
 30
0.0
 10
85.9567469097257
 20
-7.556704267900281
 30
0.0
 10
86.58406527702542
 20
-8.344305203435711
 30
0.0
 10
86.74846992934812
 20
-9.234302053246893
 30
0.0
 10
86.45664106367116
 20
-10.19204673541315
 30
0.0
 10
86.22661489983462
 20
-10.9469851524623
 30
0.0
 10
85.78701115558027
 20
-11.57897639370638
 30
0.0
 10
85.20173777397851
 20
-12.10725866485639
 30
0.0
 10
83.95697445755
 20
-13.23079789374929
 30
0.0
 10
82.5028674763945
 20
-13.91602263464569
 30
0.0
 10
80.82401647412702
 20
-13.95419033174867
 30
0.0
 10
79.13487318140324
 20
-13.99259330451896
 30
0.0
 10
77.53557527408502
 20
-13.59028007352281
 30
0.0
 10
76.26776310212351
 20
-12.39301932228541
 30
0.0
 10
75.81614805906976
 20
-11.96654069631975
 30
0.0
 10
75.5136189104485
 20
-11.38121563567002
 30
0.0
 10
75.14955361507745
 20
-10.86381588410774
 30
0.0
 10
75.07616392662324
 20
-10.75950852503276
 30
0.0
 10
75.03218777648804
 20
-10.6345037071226
 30
0.0
 10
74.94514393948833
 20
-10.45984348366656
 30
0.0
 10
74.6271654753814
 20
-10.81291338152859
 30
0.0
 10
74.3466026422285
 20
-11.13074360836456
 30
0.0
 10
74.05927801360157
 20
-11.44233835003348
 30
0.0
 10
72.95437996141206
 20
-12.6405633235133
 30
0.0
 10
71.71292410407302
 20
-13.68197094494321
 30
0.0
 10
70.08965799815377
 20
-14.02909367232871
 30
0.0
 10
68.30034983006601
 20
-14.41172398580547
 30
0.0
 10
66.55624722947255
 20
-14.30000612320279
 30
0.0
 10
65.19884534739583
 20
-12.82701996972675
 30
0.0
 10
64.91193959105455
 20
-12.51567954337392
 30
0.0
 10
64.69090558161815
 20
-12.13640292813495
 30
0.0
 10
64.47896164477945
 20
-11.76586823190478
 30
0.0
 10
64.34755542475742
 20
-11.53613310270858
 30
0.0
 10
64.22811154443667
 20
-11.4360321461684
 30
0.0
 10
63.95440298505574
 20
-11.52116793830728
 30
0.0
 10
63.37645170861073
 20
-11.70093894764309
 30
0.0
 10
62.78973675355801
 20
-11.85254487566711
 30
0.0
 10
62.20661757228464
 20
-12.01570515090636
 30
0.0
 10
62.18949820755527
 20
-12.06211837615984
 30
0.0
 10
62.17237884282558
 20
-12.10853024143874
 30
0.0
 10
62.15525947809589
 20
-12.15494346669223
 30
0.0
 10
62.51390663324756
 20
-12.41771782743809
 30
0.0
 10
62.86006921831408
 20
-12.70006766768104
 30
0.0
 10
63.23408953035374
 20
-12.93874327222909
 30
0.0
 10
63.81618057056058
 20
-13.31018915167912
 30
0.0
 10
64.01969266268057
 20
-13.84639735686516
 30
0.0
 10
63.6855740158117
 20
-14.30864468411499
 30
0.0
 10
63.61129218378674
 20
-14.41141799144077
 30
0.0
 10
63.41270864090274
 20
-14.43151026142144
 30
0.0
 10
63.26662013126995
 20
-14.47301261711344
 30
0.0
 10
63.14374367416356
 20
-14.50792045425113
 30
0.0
 10
63.01398574378662
 20
-14.51861121736941
 30
0.0
 10
62.87894567068575
 20
-14.59472765560831
 30
0.0
 10
62.10934128372608
 20
-14.27035458926536
 30
0.0
 10
61.45442630464515
 20
-13.73434358044842
 30
0.0
 10
60.911181589044
 20
-13.08988680876926
 30
0.0
 10
60.54433106496572
 20
-12.65467578361824
 30
0.0
 10
60.20186761177546
 20
-12.60656938954593
 30
0.0
 10
59.67661808477451
 20
-12.75480257968209
 30
0.0
 10
57.92148336734808
 20
-13.25012313785536
 30
0.0
 10
56.14812498552966
 20
-13.68057833058944
 30
0.0
 10
54.38792572137242
 20
-14.15864624648739
 30
0.0
 10
54.22235693048869
 20
-14.2036138183639
 30
0.0
 10
54.03393512046614
 20
-14.38249540407974
 30
0.0
 10
53.96969534350581
 20
-14.54429026446411
 30
0.0
 10
53.70711681915446
 20
-15.20571000375286
 30
0.0
 10
53.51840669444141
 20
-15.8972123890402
 30
0.0
 10
53.2417605891582
 20
-16.5519777708759
 30
0.0
 10
53.09618887000835
 20
-16.89650022614778
 30
0.0
 10
52.82530361863284
 20
-17.18807613648325
 30
0.0
 10
52.54404991820272
 20
-17.60213275121425
 30
0.0
 10
52.43317388009677
 20
-17.32296117243989
 30
0.0
 10
52.38696193113648
 20
-17.20660171531616
 30
0.0
 10
52.33844346465338
 20
-17.08443380516152
 30
0.0
 10
52.25187833883679
 20
-17.1207233768524
 30
0.0
 10
52.17787394170271
 20
-17.15174712551894
 30
0.0
 10
52.03253069834464
 20
-17.21267808341424
 30
0.0
 10
52.30449848978448
 20
-16.26309461095004
 30
0.0
 10
52.55842213352435
 20
-15.37649973848815
 30
0.0
 10
52.83845185649472
 20
-14.39876750441241
 30
0.0
 10
52.44818256369719
 20
-14.44106272550332
 30
0.0
 10
52.17527910948908
 20
-14.47719862002423
 30
0.0
 10
51.90122783641952
 20
-14.49897725894818
 30
0.0
 10
51.3278243162227
 20
-14.54454593975544
 30
0.0
 10
51.17156319392916
 20
-14.30648096396156
 30
0.0
 10
51.2675774257304
 20
-13.74988265428027
 30
0.0
 10
51.39143306480358
 20
-13.03185259752756
 30
0.0
 10
51.83780948433255
 20
-12.74187601773839
 30
0.0
 10
52.48917764873162
 20
-12.71094338739389
 30
0.0
 10
53.03469080255707
 20
-12.68503994443119
 30
0.0
 10
53.23570598065971
 20
-12.41563842573183
 30
0.0
 10
53.32681342282484
 20
-11.90374521276148
 30
0.0
 10
53.69174910216677
 20
-9.853352452809565
 30
0.0
 10
54.58030777846283
 20
-8.014946468908184
 30
0.0
 10
55.69897965699339
 20
-6.279060157003796
 30
0.0
 10
55.85083446043448
 20
-6.043412536692141
 30
0.0
 10
56.05951989728185
 20
-5.845101668786356
 30
0.0
 10
56.22180842857499
 20
-5.615318940467241
 30
0.0
 10
56.61434615959681
 20
-5.059526415946047
 30
0.0
 10
57.49718206128434
 20
-5.094316615249446
 30
0.0
 10
57.84781080410301
 20
-5.581575921878835
 30
0.0
 10
58.40856111732099
 20
-6.360831371104292
 30
0.0
 10
58.97251553153217
 20
-7.14225598038283
 30
0.0
 10
59.46516917881917
 20
-7.964661394958726
 30
0.0
 10
59.88343763598398
 20
-8.662891576346334
 30
0.0
 10
60.20602369523688
 20
-9.418786055787784
 30
0.0
 10
60.56450221349358
 20
-10.15231370713701
 30
0.0
 10
60.71599254364648
 20
-10.46230231838411
 30
0.0
 10
60.91432041123947
 20
-10.58335096915178
 30
0.0
 10
61.27660141946934
 20
-10.47781555269229
 30
0.0
 10
62.17419032946503
 20
-10.21634404795403
 30
0.0
 10
63.08469900153049
 20
-9.999248525986888
 30
0.0
 10
63.98247830802039
 20
-9.73836793036607
 30
0.0
 10
64.12578158894596
 20
-9.696727537215116
 30
0.0
 10
64.28029106349814
 20
-9.54348623930848
 30
0.0
 10
64.34365501658732
 20
-9.403053185524593
 30
0.0
 10
64.61090097498337
 20
-8.81073921358298
 30
0.0
 10
64.80754791353209
 20
-8.184536025745818
 30
0.0
 10
65.09959437520217
 20
-7.605843562950516
 30
0.0
 10
65.86039156435531
 20
-6.098292966013673
 30
0.0
 10
67.0239698158897
 20
-5.012782716778143
 30
0.0
 10
68.64711624401278
 20
-4.492908490785704
 30
0.0
 10
69.36510686149205
 20
-4.262944205810108
 30
0.0
 10
70.0897069572519
 20
-4.363775468900637
 30
0.0
 10
70.75633948054242
 20
-4.745557837994042
 30
0.0
 10
71.31393465186532
 20
-5.064889477179376
 30
0.0
 10
71.64026880209295
 20
-5.683123211782647
 30
0.0
 10
71.50175263300794
 20
-6.284937968757528
 30
0.0
 10
71.45617715232645
 20
-6.482938082386258
 30
0.0
 10
71.25900798339546
 20
-6.731081832569015
 30
0.0
 10
71.07803883612453
 20
-6.788295298924962
 30
0.0
 10
70.90672551103206
 20
-6.842454941520858
 30
0.0
 10
70.60811853018016
 20
-6.73570982733964
 30
0.0
 10
70.46525588113951
 20
-6.596994421923646
 30
0.0
 10
69.78344059745524
 20
-5.934964733867394
 30
0.0
 10
68.96564957790083
 20
-5.775634148100214
 30
0.0
 10
68.14650402329151
 20
-6.268006280571265
 30
0.0
 10
67.08037613711096
 20
-6.90883667903441
 30
0.0
 10
66.14283660284602
 20
-7.709360776577059
 30
0.0
 10
65.85705146586727
 20
-8.984797648121619
 30
0.0
 10
65.63942283371762
 20
-9.956091080774268
 30
0.0
 10
65.58647084888156
 20
-10.98763752380777
 30
0.0
 10
66.4516814751561
 20
-11.70670932137582
 30
0.0
 10
66.86596248575412
 20
-12.05101418065522
 30
0.0
 10
67.42565201850766
 20
-12.2824846378935
 30
0.0
 10
67.95682559641098
 20
-12.41248736376214
 30
0.0
 10
69.6193895386208
 20
-12.81939187020529
 30
0.0
 10
71.05541429277847
 20
-12.22325364869127
 30
0.0
 10
72.25565202919093
 20
-11.13137191679355
 30
0.0
 10
73.12706414125904
 20
-10.33862483602997
 30
0.0
 10
73.8572346944327
 20
-9.389926707261965
 30
0.0
 10
74.64116777751552
 20
-8.502628047760052
 30
0.0
 10
74.73362431483528
 20
-8.397990894759232
 30
0.0
 10
74.79933286474612
 20
-8.247313149641318
 30
0.0
 10
74.82347514014114
 20
-8.108584144476195
 30
0.0
 10
74.9328497658974
 20
-7.480171677324576
 30
0.0
 10
75.10371701920498
 20
-6.847237973436042
 30
0.0
 10
75.09477382390267
 20
-6.218170678344467
 30
0.0
 10
75.08734836064997
 20
-5.695269828090555
 30
0.0
 10
75.14763877034174
 20
-5.240923275340399
 30
0.0
 10
75.43823277875997
 20
-4.815042358365792
 30
0.0
 10
75.4457507203093
 20
-4.804026561233389
 30
0.0
 10
75.4375963104815
 20
-4.779260737321074
 30
0.0
 10
75.44606623449872
 20
-4.772380624025437
 30
0.0
 10
75.84406562493905
 20
-4.449190735892619
 30
0.0
 10
76.23789261221901
 20
-4.120340971992195
 30
0.0
 10
76.64775098426404
 20
-3.8128744342985
 30
0.0
 10
76.70732332717871
 20
-3.76818701726206
 30
0.0
 10
76.87163006130511
 20
-3.790397448234488
 30
0.0
 10
76.94076574810161
 20
-3.843018619162796
 30
0.0
 10
77.3779650566362
 20
-4.175764031320967
 30
0.0
 10
77.80668356135297
 20
-3.979833799573151
 30
0.0
 10
78.25299470208356
 20
-3.869718327460244
 30
0.0
 10
79.82168773302122
 20
-3.482680675148804
 30
0.0
 10
81.38982589417647
 20
-3.090123904477247
 30
0.0
 10
82.96914848936038
 20
-2.750754394308727
 30
0.0
 10
83.75819507827214
 20
-2.58120087680805
 30
0.0
 10
84.28770948673107
 20
-3.064183742191897
 30
0.0
 10
84.17459220989973
 20
-3.784667533756461
 30
0.0
 10
84.14793126088779
 20
-3.954492366261399
 30
0.0
 10
83.99389505761971
 20
-4.191641738916711
 30
0.0
 10
83.84707216151087
 20
-4.239202443038305
 30
0.0
 10
83.37226138563031
 20
-4.393002010664481
 30
0.0
 10
82.86954936357813
 20
-4.457698059221717
 30
0.0
 10
82.38476725132905
 20
-4.584217889231336
 30
0.0
 10
80.87774092473731
 20
-4.977524686090601
 30
0.0
 10
79.37144354472134
 20
-5.374344298257928
 30
0.0
 10
77.87263146685552
 20
-5.797327108603055
 30
0.0
 10
77.70491391554368
 20
-5.844658316951285
 30
0.0
 10
77.54422471479653
 20
-6.045424619637492
 30
0.0
 10
77.45393869750443
 20
-6.214391987933076
 30
0.0
 10
77.1888414995368
 20
-6.710550290677698
 30
0.0
 10
76.96121977142064
 20
-7.226709065094281
 30
0.0
 10
76.71808344902044
 20
-7.73463659109742
 30
0.0
 10
76.67321515531545
 20
-7.828381024699139
 30
0.0
 10
76.59537562880901
 20
-7.916497201950857
 30
0.0
 10
76.58278226072828
 20
-8.013693931975252
 30
0.0
 10
76.53999744865398
 20
-8.343842131963282
 30
0.0
 10
76.51962502383228
 20
-8.676893198491863
 30
0.0
 10
76.49069019669606
 20
-9.008835885433411
 30
0.0
 10
76.76247303154197
 20
-8.992263230635695
 30
0.0
 10
77.04006567939341
 20
-9.00562838450211
 30
0.0
 10
77.30508671876399
 20
-8.954211811390493
 30
0.0
 10
78.90722425378755
 20
-8.643380015671113
 30
0.0
 10
80.49642026714174
 20
-8.24897639901077
 30
0.0
 10
82.1434750549678
 20
-8.247105073473554
 30
0.0
 10
82.51307272845445
 20
-8.246685521199618
 30
0.0
 10
82.88273568073885
 20
-8.246964996053357
 30
0.0
 10
83.25225175572815
 20
-8.253478596098907
 30
0.0
 10
83.592985320776
 20
-8.259484925486236
 30
0.0
 10
83.9327614634563
 20
-8.6031771160483
 30
0.0
 10
84.01758038143053
 20
-9.017678442588315
 30
0.0
 10
84.09076879359252
 20
-9.37532941608535
 30
0.0
 10
83.83315145787475
 20
-9.895583755077967
 30
0.0
 10
83.49606262570505
 20
-10.0058634441665
 30
0.0
 10
83.27405487420182
 20
-10.07849970649652
 30
0.0
 10
83.02604440156438
 20
-10.15349688534778
 30
0.0
 10
82.8022850023195
 20
-10.12574523642235
 30
0.0
 10
81.28163172668116
 20
-9.937157509455302
 30
0.0
 10
79.81886442501484
 20
-10.28207979736375
 30
0.0
 10
78.3488185373909
 20
-10.56977025925413
 30
0.0
 10
77.97579372701922
 20
-10.64277507479677
 30
0.0
 10
77.60427032899626
 20
-10.72348414845791
 30
0.0
 10
77.23205606369704
 20
-10.80065048736226
 30
0.0
 10
77.2128260178381
 20
-10.85092196156195
 30
0.0
 10
77.19359053207884
 20
-10.90119207578769
 30
0.0
 10
77.17435504631959
 20
-10.95146354998802
 30
0.0
  0
SPLINE
  5
4A
330
41
100
AcDbEntity
  8
Layer 1
370
     0
100
AcDbSpline
210
0.0
220
0.0
230
1.0
 70
    11
 71
     3
 72
    23
 73
    19
 74
     0
 42
0.0000000001
 43
0.0000000001
 12
1.0
 22
0.0
 32
0.0
 13
1.0
 23
0.0
 33
0.0
 40
0.0
 40
0.0
 40
0.0
 40
0.0
 40
1.0
 40
1.0
 40
1.0
 40
2.0
 40
2.0
 40
2.0
 40
3.0
 40
3.0
 40
3.0
 40
4.0
 40
4.0
 40
4.0
 40
5.0
 40
5.0
 40
5.0
 40
6.0
 40
6.0
 40
6.0
 40
6.0
 10
59.46576212789915
 20
-11.19752245856486
 30
0.0
 10
59.27361398650081
 20
-10.82210681222192
 30
0.0
 10
59.11919155034561
 20
-10.51023327568784
 30
0.0
 10
58.9558041592895
 20
-10.20312373141888
 30
0.0
 10
58.48374597271569
 20
-9.315810792181184
 30
0.0
 10
58.02891594886908
 20
-8.418308240595195
 30
0.0
 10
57.52429452198148
 20
-7.549803754979346
 30
0.0
 10
57.30020328884694
 20
-7.164120297729185
 30
0.0
 10
57.1411950171447
 20
-7.208702996694125
 30
0.0
 10
56.96811372461063
 20
-7.616847800296321
 30
0.0
 10
56.49414613320172
 20
-8.734480657961361
 30
0.0
 10
56.01608229722883
 20
-9.850378867571619
 30
0.0
 10
55.53831765574576
 20
-10.96639743496536
 30
0.0
 10
55.36642770127258
 20
-11.36790964071311
 30
0.0
 10
55.19076789622544
 20
-11.76780075631532
 30
0.0
 10
54.9546436046919
 20
-12.31165066077195
 30
0.0
 10
56.5580540762724
 20
-11.9156490735399
 30
0.0
 10
58.02485778360396
 20
-11.55338846493373
 30
0.0
 10
59.46576212789915
 20
-11.19752245856486
 30
0.0
  0
HATCH
  5
4B
330
41
100
AcDbEntity
  8
Layer 1
 62
     7
420
 16777215
100
AcDbHatch
 10
0.0
 20
0.0
 30
0.0
210
0.0
220
0.0
230
1.0
  2
SOLID
 70
     1
 71
     0
 91
        2
 92
        1
 93
        1
 72
     4
 94
        3
 73
     0
 74
     1
 95
      251
 96
      247
 40
0.0
 40
0.0
 40
0.0
 40
0.0
 40
1.0
 40
1.0
 40
1.0
 40
2.0
 40
2.0
 40
2.0
 40
3.0
 40
3.0
 40
3.0
 40
4.0
 40
4.0
 40
4.0
 40
5.0
 40
5.0
 40
5.0
 40
6.0
 40
6.0
 40
6.0
 40
7.0
 40
7.0
 40
7.0
 40
8.0
 40
8.0
 40
8.0
 40
9.0
 40
9.0
 40
9.0
 40
10.0
 40
10.0
 40
10.0
 40
11.0
 40
11.0
 40
11.0
 40
12.0
 40
12.0
 40
12.0
 40
13.0
 40
13.0
 40
13.0
 40
14.0
 40
14.0
 40
14.0
 40
15.0
 40
15.0
 40
15.0
 40
16.0
 40
16.0
 40
16.0
 40
17.0
 40
17.0
 40
17.0
 40
18.0
 40
18.0
 40
18.0
 40
19.0
 40
19.0
 40
19.0
 40
20.0
 40
20.0
 40
20.0
 40
21.0
 40
21.0
 40
21.0
 40
22.0
 40
22.0
 40
22.0
 40
23.0
 40
23.0
 40
23.0
 40
24.0
 40
24.0
 40
24.0
 40
25.0
 40
25.0
 40
25.0
 40
26.0
 40
26.0
 40
26.0
 40
27.0
 40
27.0
 40
27.0
 40
28.0
 40
28.0
 40
28.0
 40
29.0
 40
29.0
 40
29.0
 40
30.0
 40
30.0
 40
30.0
 40
31.0
 40
31.0
 40
31.0
 40
32.0
 40
32.0
 40
32.0
 40
33.0
 40
33.0
 40
33.0
 40
34.0
 40
34.0
 40
34.0
 40
35.0
 40
35.0
 40
35.0
 40
36.0
 40
36.0
 40
36.0
 40
37.0
 40
37.0
 40
37.0
 40
38.0
 40
38.0
 40
38.0
 40
39.0
 40
39.0
 40
39.0
 40
40.0
 40
40.0
 40
40.0
 40
41.0
 40
41.0
 40
41.0
 40
42.0
 40
42.0
 40
42.0
 40
43.0
 40
43.0
 40
43.0
 40
44.0
 40
44.0
 40
44.0
 40
45.0
 40
45.0
 40
45.0
 40
46.0
 40
46.0
 40
46.0
 40
47.0
 40
47.0
 40
47.0
 40
48.0
 40
48.0
 40
48.0
 40
49.0
 40
49.0
 40
49.0
 40
50.0
 40
50.0
 40
50.0
 40
51.0
 40
51.0
 40
51.0
 40
52.0
 40
52.0
 40
52.0
 40
53.0
 40
53.0
 40
53.0
 40
54.0
 40
54.0
 40
54.0
 40
55.0
 40
55.0
 40
55.0
 40
56.0
 40
56.0
 40
56.0
 40
57.0
 40
57.0
 40
57.0
 40
58.0
 40
58.0
 40
58.0
 40
59.0
 40
59.0
 40
59.0
 40
60.0
 40
60.0
 40
60.0
 40
61.0
 40
61.0
 40
61.0
 40
62.0
 40
62.0
 40
62.0
 40
63.0
 40
63.0
 40
63.0
 40
64.0
 40
64.0
 40
64.0
 40
65.0
 40
65.0
 40
65.0
 40
66.0
 40
66.0
 40
66.0
 40
67.0
 40
67.0
 40
67.0
 40
68.0
 40
68.0
 40
68.0
 40
69.0
 40
69.0
 40
69.0
 40
70.0
 40
70.0
 40
70.0
 40
71.0
 40
71.0
 40
71.0
 40
72.0
 40
72.0
 40
72.0
 40
73.0
 40
73.0
 40
73.0
 40
74.0
 40
74.0
 40
74.0
 40
75.0
 40
75.0
 40
75.0
 40
76.0
 40
76.0
 40
76.0
 40
77.0
 40
77.0
 40
77.0
 40
78.0
 40
78.0
 40
78.0
 40
79.0
 40
79.0
 40
79.0
 40
80.0
 40
80.0
 40
80.0
 40
81.0
 40
81.0
 40
81.0
 40
82.0
 40
82.0
 40
82.0
 40
82.0
 10
77.17435504631959
 20
-10.95146354998802
 10
77.48604498623563
 20
-11.17816321508501
 10
77.77733530183042
 20
-11.44224995166126
 10
78.11283024335346
 20
-11.62532298018689
 10
79.9051357962403
 20
-12.60334896885344
 10
81.69010292427271
 20
-12.44750535887066
 10
83.42202014927213
 20
-11.48046524788843
 10
83.91793229655013
 20
-11.20356482728914
 10
84.37682048566187
 20
-10.81890407120426
 10
84.76262362070885
 20
-10.40059345481491
 10
85.02763922017978
 20
-10.11324434663889
 10
85.20614409283225
 20
-9.699112253298786
 10
85.29935133632702
 20
-9.311814505776677
 10
85.4246975079509
 20
-8.791001217077866
 10
85.42483894534632
 20
-8.240716591123837
 10
85.49235354199728
 20
-7.704798740591473
 10
85.50694335331107
 20
-7.58898803336194
 10
85.57950617699322
 20
-7.48048107162704
 10
85.62536997236523
 20
-7.368610891828983
 10
85.73758422582684
 20
-7.429911082924192
 10
85.88331370207106
 20
-7.464513605683839
 10
85.9567469097257
 20
-7.556704267900281
 10
86.58406527702542
 20
-8.344305203435711
 10
86.74846992934812
 20
-9.234302053246893
 10
86.45664106367116
 20
-10.19204673541315
 10
86.22661489983462
 20
-10.9469851524623
 10
85.78701115558027
 20
-11.57897639370638
 10
85.20173777397851
 20
-12.10725866485639
 10
83.95697445755
 20
-13.23079789374929
 10
82.5028674763945
 20
-13.91602263464569
 10
80.82401647412702
 20
-13.95419033174867
 10
79.13487318140324
 20
-13.99259330451896
 10
77.53557527408502
 20
-13.59028007352281
 10
76.26776310212351
 20
-12.39301932228541
 10
75.81614805906976
 20
-11.96654069631975
 10
75.5136189104485
 20
-11.38121563567002
 10
75.14955361507745
 20
-10.86381588410774
 10
75.07616392662324
 20
-10.75950852503276
 10
75.03218777648804
 20
-10.6345037071226
 10
74.94514393948833
 20
-10.45984348366656
 10
74.6271654753814
 20
-10.81291338152859
 10
74.3466026422285
 20
-11.13074360836456
 10
74.05927801360157
 20
-11.44233835003348
 10
72.95437996141206
 20
-12.6405633235133
 10
71.71292410407302
 20
-13.68197094494321
 10
70.08965799815377
 20
-14.02909367232871
 10
68.30034983006601
 20
-14.41172398580547
 10
66.55624722947255
 20
-14.30000612320279
 10
65.19884534739583
 20
-12.82701996972675
 10
64.91193959105455
 20
-12.51567954337392
 10
64.69090558161815
 20
-12.13640292813495
 10
64.47896164477945
 20
-11.76586823190478
 10
64.34755542475742
 20
-11.53613310270858
 10
64.22811154443667
 20
-11.4360321461684
 10
63.95440298505574
 20
-11.52116793830728
 10
63.37645170861073
 20
-11.70093894764309
 10
62.78973675355801
 20
-11.85254487566711
 10
62.20661757228464
 20
-12.01570515090636
 10
62.18949820755527
 20
-12.06211837615984
 10
62.17237884282558
 20
-12.10853024143874
 10
62.15525947809589
 20
-12.15494346669223
 10
62.51390663324756
 20
-12.41771782743809
 10
62.86006921831408
 20
-12.70006766768104
 10
63.23408953035374
 20
-12.93874327222909
 10
63.81618057056058
 20
-13.31018915167912
 10
64.01969266268057
 20
-13.84639735686516
 10
63.6855740158117
 20
-14.30864468411499
 10
63.61129218378674
 20
-14.41141799144077
 10
63.41270864090274
 20
-14.43151026142144
 10
63.26662013126995
 20
-14.47301261711344
 10
63.14374367416356
 20
-14.50792045425113
 10
63.01398574378662
 20
-14.51861121736941
 10
62.87894567068575
 20
-14.59472765560831
 10
62.10934128372608
 20
-14.27035458926536
 10
61.45442630464515
 20
-13.73434358044842
 10
60.911181589044
 20
-13.08988680876926
 10
60.54433106496572
 20
-12.65467578361824
 10
60.20186761177546
 20
-12.60656938954593
 10
59.67661808477451
 20
-12.75480257968209
 10
57.92148336734808
 20
-13.25012313785536
 10
56.14812498552966
 20
-13.68057833058944
 10
54.38792572137242
 20
-14.15864624648739
 10
54.22235693048869
 20
-14.2036138183639
 10
54.03393512046614
 20
-14.38249540407974
 10
53.96969534350581
 20
-14.54429026446411
 10
53.70711681915446
 20
-15.20571000375286
 10
53.51840669444141
 20
-15.8972123890402
 10
53.2417605891582
 20
-16.5519777708759
 10
53.09618887000835
 20
-16.89650022614778
 10
52.82530361863284
 20
-17.18807613648325
 10
52.54404991820272
 20
-17.60213275121425
 10
52.43317388009677
 20
-17.32296117243989
 10
52.38696193113648
 20
-17.20660171531616
 10
52.33844346465338
 20
-17.08443380516152
 10
52.25187833883679
 20
-17.1207233768524
 10
52.17787394170271
 20
-17.15174712551894
 10
52.03253069834464
 20
-17.21267808341424
 10
52.30449848978448
 20
-16.26309461095004
 10
52.55842213352435
 20
-15.37649973848815
 10
52.83845185649472
 20
-14.39876750441241
 10
52.44818256369719
 20
-14.44106272550332
 10
52.17527910948908
 20
-14.47719862002423
 10
51.90122783641952
 20
-14.49897725894818
 10
51.3278243162227
 20
-14.54454593975544
 10
51.17156319392916
 20
-14.30648096396156
 10
51.2675774257304
 20
-13.74988265428027
 10
51.39143306480358
 20
-13.03185259752756
 10
51.83780948433255
 20
-12.74187601773839
 10
52.48917764873162
 20
-12.71094338739389
 10
53.03469080255707
 20
-12.68503994443119
 10
53.23570598065971
 20
-12.41563842573183
 10
53.32681342282484
 20
-11.90374521276148
 10
53.69174910216677
 20
-9.853352452809565
 10
54.58030777846283
 20
-8.014946468908184
 10
55.69897965699339
 20
-6.279060157003796
 10
55.85083446043448
 20
-6.043412536692141
 10
56.05951989728185
 20
-5.845101668786356
 10
56.22180842857499
 20
-5.615318940467241
 10
56.61434615959681
 20
-5.059526415946047
 10
57.49718206128434
 20
-5.094316615249446
 10
57.84781080410301
 20
-5.581575921878835
 10
58.40856111732099
 20
-6.360831371104292
 10
58.97251553153217
 20
-7.14225598038283
 10
59.46516917881917
 20
-7.964661394958726
 10
59.88343763598398
 20
-8.662891576346334
 10
60.20602369523688
 20
-9.418786055787784
 10
60.56450221349358
 20
-10.15231370713701
 10
60.71599254364648
 20
-10.46230231838411
 10
60.91432041123947
 20
-10.58335096915178
 10
61.27660141946934
 20
-10.47781555269229
 10
62.17419032946503
 20
-10.21634404795403
 10
63.08469900153049
 20
-9.999248525986888
 10
63.98247830802039
 20
-9.73836793036607
 10
64.12578158894596
 20
-9.696727537215116
 10
64.28029106349814
 20
-9.54348623930848
 10
64.34365501658732
 20
-9.403053185524593
 10
64.61090097498337
 20
-8.81073921358298
 10
64.80754791353209
 20
-8.184536025745818
 10
65.09959437520217
 20
-7.605843562950516
 10
65.86039156435531
 20
-6.098292966013673
 10
67.0239698158897
 20
-5.012782716778143
 10
68.64711624401278
 20
-4.492908490785704
 10
69.36510686149205
 20
-4.262944205810108
 10
70.0897069572519
 20
-4.363775468900637
 10
70.75633948054242
 20
-4.745557837994042
 10
71.31393465186532
 20
-5.064889477179376
 10
71.64026880209295
 20
-5.683123211782647
 10
71.50175263300794
 20
-6.284937968757528
 10
71.45617715232645
 20
-6.482938082386258
 10
71.25900798339546
 20
-6.731081832569015
 10
71.07803883612453
 20
-6.788295298924962
 10
70.90672551103206
 20
-6.842454941520858
 10
70.60811853018016
 20
-6.73570982733964
 10
70.46525588113951
 20
-6.596994421923646
 10
69.78344059745524
 20
-5.934964733867394
 10
68.96564957790083
 20
-5.775634148100214
 10
68.14650402329151
 20
-6.268006280571265
 10
67.08037613711096
 20
-6.90883667903441
 10
66.14283660284602
 20
-7.709360776577059
 10
65.85705146586727
 20
-8.984797648121619
 10
65.63942283371762
 20
-9.956091080774268
 10
65.58647084888156
 20
-10.98763752380777
 10
66.4516814751561
 20
-11.70670932137582
 10
66.86596248575412
 20
-12.05101418065522
 10
67.42565201850766
 20
-12.2824846378935
 10
67.95682559641098
 20
-12.41248736376214
 10
69.6193895386208
 20
-12.81939187020529
 10
71.05541429277847
 20
-12.22325364869127
 10
72.25565202919093
 20
-11.13137191679355
 10
73.12706414125904
 20
-10.33862483602997
 10
73.8572346944327
 20
-9.389926707261965
 10
74.64116777751552
 20
-8.502628047760052
 10
74.73362431483528
 20
-8.397990894759232
 10
74.79933286474612
 20
-8.247313149641318
 10
74.82347514014114
 20
-8.108584144476195
 10
74.9328497658974
 20
-7.480171677324576
 10
75.10371701920498
 20
-6.847237973436042
 10
75.09477382390267
 20
-6.218170678344467
 10
75.08734836064997
 20
-5.695269828090555
 10
75.14763877034174
 20
-5.240923275340399
 10
75.43823277875997
 20
-4.815042358365792
 10
75.4457507203093
 20
-4.804026561233389
 10
75.4375963104815
 20
-4.779260737321074
 10
75.44606623449872
 20
-4.772380624025437
 10
75.84406562493905
 20
-4.449190735892619
 10
76.23789261221901
 20
-4.120340971992195
 10
76.64775098426404
 20
-3.8128744342985
 10
76.70732332717871
 20
-3.76818701726206
 10
76.87163006130511
 20
-3.790397448234488
 10
76.94076574810161
 20
-3.843018619162796
 10
77.3779650566362
 20
-4.175764031320967
 10
77.80668356135297
 20
-3.979833799573151
 10
78.25299470208356
 20
-3.869718327460244
 10
79.82168773302122
 20
-3.482680675148804
 10
81.38982589417647
 20
-3.090123904477247
 10
82.96914848936038
 20
-2.750754394308727
 10
83.75819507827214
 20
-2.58120087680805
 10
84.28770948673107
 20
-3.064183742191897
 10
84.17459220989973
 20
-3.784667533756461
 10
84.14793126088779
 20
-3.954492366261399
 10
83.99389505761971
 20
-4.191641738916711
 10
83.84707216151087
 20
-4.239202443038305
 10
83.37226138563031
 20
-4.393002010664481
 10
82.86954936357813
 20
-4.457698059221717
 10
82.38476725132905
 20
-4.584217889231336
 10
80.87774092473731
 20
-4.977524686090601
 10
79.37144354472134
 20
-5.374344298257928
 10
77.87263146685552
 20
-5.797327108603055
 10
77.70491391554368
 20
-5.844658316951285
 10
77.54422471479653
 20
-6.045424619637492
 10
77.45393869750443
 20
-6.214391987933076
 10
77.1888414995368
 20
-6.710550290677698
 10
76.96121977142064
 20
-7.226709065094281
 10
76.71808344902044
 20
-7.73463659109742
 10
76.67321515531545
 20
-7.828381024699139
 10
76.59537562880901
 20
-7.916497201950857
 10
76.58278226072828
 20
-8.013693931975252
 10
76.53999744865398
 20
-8.343842131963282
 10
76.51962502383228
 20
-8.676893198491863
 10
76.49069019669606
 20
-9.008835885433411
 10
76.76247303154197
 20
-8.992263230635695
 10
77.04006567939341
 20
-9.00562838450211
 10
77.30508671876399
 20
-8.954211811390493
 10
78.90722425378755
 20
-8.643380015671113
 10
80.49642026714174
 20
-8.24897639901077
 10
82.1434750549678
 20
-8.247105073473554
 10
82.51307272845445
 20
-8.246685521199618
 10
82.88273568073885
 20
-8.246964996053357
 10
83.25225175572815
 20
-8.253478596098907
 10
83.592985320776
 20
-8.259484925486236
 10
83.9327614634563
 20
-8.6031771160483
 10
84.01758038143053
 20
-9.017678442588315
 10
84.09076879359252
 20
-9.37532941608535
 10
83.83315145787475
 20
-9.895583755077967
 10
83.49606262570505
 20
-10.0058634441665
 10
83.27405487420182
 20
-10.07849970649652
 10
83.02604440156438
 20
-10.15349688534778
 10
82.8022850023195
 20
-10.12574523642235
 10
81.28163172668116
 20
-9.937157509455302
 10
79.81886442501484
 20
-10.28207979736375
 10
78.3488185373909
 20
-10.56977025925413
 10
77.97579372701922
 20
-10.64277507479677
 10
77.60427032899626
 20
-10.72348414845791
 10
77.23205606369704
 20
-10.80065048736226
 10
77.2128260178381
 20
-10.85092196156195
 10
77.19359053207884
 20
-10.90119207578769
 10
77.17435504631959
 20
-10.95146354998802
 97
        0
 97
        0
 92
        1
 93
        1
 72
     4
 94
        3
 73
     0
 74
     1
 95
       23
 96
       19
 40
0.0
 40
0.0
 40
0.0
 40
0.0
 40
1.0
 40
1.0
 40
1.0
 40
2.0
 40
2.0
 40
2.0
 40
3.0
 40
3.0
 40
3.0
 40
4.0
 40
4.0
 40
4.0
 40
5.0
 40
5.0
 40
5.0
 40
6.0
 40
6.0
 40
6.0
 40
6.0
 10
59.46576212789915
 20
-11.19752245856486
 10
59.27361398650081
 20
-10.82210681222192
 10
59.11919155034561
 20
-10.51023327568784
 10
58.9558041592895
 20
-10.20312373141888
 10
58.48374597271569
 20
-9.315810792181184
 10
58.02891594886908
 20
-8.418308240595195
 10
57.52429452198148
 20
-7.549803754979346
 10
57.30020328884694
 20
-7.164120297729185
 10
57.1411950171447
 20
-7.208702996694125
 10
56.96811372461063
 20
-7.616847800296321
 10
56.49414613320172
 20
-8.734480657961361
 10
56.01608229722883
 20
-9.850378867571619
 10
55.53831765574576
 20
-10.96639743496536
 10
55.36642770127258
 20
-11.36790964071311
 10
55.19076789622544
 20
-11.76780075631532
 10
54.9546436046919
 20
-12.31165066077195
 10
56.5580540762724
 20
-11.9156490735399
 10
58.02485778360396
 20
-11.55338846493373
 10
59.46576212789915
 20
-11.19752245856486
 97
        0
 97
        0
 75
     2
 76
     1
 98
        0
  0
SPLINE
  5
4C
330
41
100
AcDbEntity
  8
Layer 1
370
     0
100
AcDbSpline
210
0.0
220
0.0
230
1.0
 70
    11
 71
     3
 72
   152
 73
   148
 74
     0
 42
0.0000000001
 43
0.0000000001
 12
1.0
 22
0.0
 32
0.0
 13
1.0
 23
0.0
 33
0.0
 40
0.0
 40
0.0
 40
0.0
 40
0.0
 40
1.0
 40
1.0
 40
1.0
 40
2.0
 40
2.0
 40
2.0
 40
3.0
 40
3.0
 40
3.0
 40
4.0
 40
4.0
 40
4.0
 40
5.0
 40
5.0
 40
5.0
 40
6.0
 40
6.0
 40
6.0
 40
7.0
 40
7.0
 40
7.0
 40
8.0
 40
8.0
 40
8.0
 40
9.0
 40
9.0
 40
9.0
 40
10.0
 40
10.0
 40
10.0
 40
11.0
 40
11.0
 40
11.0
 40
12.0
 40
12.0
 40
12.0
 40
13.0
 40
13.0
 40
13.0
 40
14.0
 40
14.0
 40
14.0
 40
15.0
 40
15.0
 40
15.0
 40
16.0
 40
16.0
 40
16.0
 40
17.0
 40
17.0
 40
17.0
 40
18.0
 40
18.0
 40
18.0
 40
19.0
 40
19.0
 40
19.0
 40
20.0
 40
20.0
 40
20.0
 40
21.0
 40
21.0
 40
21.0
 40
22.0
 40
22.0
 40
22.0
 40
23.0
 40
23.0
 40
23.0
 40
24.0
 40
24.0
 40
24.0
 40
25.0
 40
25.0
 40
25.0
 40
26.0
 40
26.0
 40
26.0
 40
27.0
 40
27.0
 40
27.0
 40
28.0
 40
28.0
 40
28.0
 40
29.0
 40
29.0
 40
29.0
 40
30.0
 40
30.0
 40
30.0
 40
31.0
 40
31.0
 40
31.0
 40
32.0
 40
32.0
 40
32.0
 40
33.0
 40
33.0
 40
33.0
 40
34.0
 40
34.0
 40
34.0
 40
35.0
 40
35.0
 40
35.0
 40
36.0
 40
36.0
 40
36.0
 40
37.0
 40
37.0
 40
37.0
 40
38.0
 40
38.0
 40
38.0
 40
39.0
 40
39.0
 40
39.0
 40
40.0
 40
40.0
 40
40.0
 40
41.0
 40
41.0
 40
41.0
 40
42.0
 40
42.0
 40
42.0
 40
43.0
 40
43.0
 40
43.0
 40
44.0
 40
44.0
 40
44.0
 40
45.0
 40
45.0
 40
45.0
 40
46.0
 40
46.0
 40
46.0
 40
47.0
 40
47.0
 40
47.0
 40
48.0
 40
48.0
 40
48.0
 40
49.0
 40
49.0
 40
49.0
 40
49.0
 10
105.7627856815671
 20
-4.573351689343519
 30
0.0
 10
105.310512410635
 20
-4.627164538325403
 30
0.0
 10
104.9450273014113
 20
-4.650175994546215
 30
0.0
 10
104.5877782005134
 20
-4.717060922793251
 30
0.0
 10
103.5811138592512
 20
-4.905528971964113
 30
0.0
 10
102.5755483777527
 20
-5.101711479065486
 30
0.0
 10
101.5755642334686
 20
-5.322137579697231
 30
0.0
 10
101.4191127146808
 20
-5.356624504585114
 30
0.0
 10
101.1954893129311
 20
-5.51440063897908
 30
0.0
 10
101.169432192799
 20
-5.647714223874964
 30
0.0
 10
100.8169158047435
 20
-7.451237530176304
 30
0.0
 10
100.48263396088
 20
-9.258626565286667
 30
0.0
 10
100.1773250234521
 20
-11.07070071411528
 30
0.0
 10
100.1375811153767
 20
-11.3066250893302
 30
0.0
 10
100.2760156859644
 20
-11.57643324054167
 30
0.0
 10
100.3465929462128
 20
-11.82640207711268
 30
0.0
 10
100.6125061291538
 20
-12.76820241291151
 30
0.0
 10
100.9039106826451
 20
-13.70334159138112
 30
0.0
 10
101.1453116770026
 20
-14.65127949414941
 30
0.0
 10
101.2525756216293
 20
-15.07250861679033
 30
0.0
 10
100.9891865522042
 20
-15.447131397735
 30
0.0
 10
100.6188381725425
 20
-15.50747484644933
 30
0.0
 10
100.3274771382497
 20
-15.55494341226857
 30
0.0
 10
99.88228661688197
 20
-15.40263845711688
 30
0.0
 10
99.68965976429922
 20
-15.17980792076603
 30
0.0
 10
98.94342518696067
 20
-14.31658557787539
 30
0.0
 10
98.44291088443633
 20
-13.29699739461875
 30
0.0
 10
98.55958585574882
 20
-12.13045031775877
 30
0.0
 10
98.72025873679574
 20
-10.52393502335626
 30
0.0
 10
98.98078641891625
 20
-8.927084390969632
 30
0.0
 10
99.21409284234336
 20
-7.328363113032442
 30
0.0
 10
99.28041610093342
 20
-6.873931561847185
 30
0.0
 10
99.39800497541623
 20
-6.426767036832307
 30
0.0
 10
99.49740282490433
 20
-5.977448991476647
 30
0.0
 10
99.56254018533443
 20
-5.683010333861992
 30
0.0
 10
99.45165326742885
 20
-5.555450802998597
 30
0.0
 10
99.15172983082087
 20
-5.580723217581837
 30
0.0
 10
98.98908770603914
 20
-5.594428365188018
 30
0.0
 10
98.82518352450042
 20
-5.606621220643605
 30
0.0
 10
98.66234556332547
 20
-5.601992545885683
 30
0.0
 10
98.33075102997253
 20
-5.592567239462166
 30
0.0
 10
98.15928538768532
 20
-5.692121486070048
 30
0.0
 10
98.12285981849867
 20
-6.074749759584925
 30
0.0
 10
98.10149189201059
 20
-6.299178266508125
 30
0.0
 10
97.91674201436572
 20
-6.605615983148953
 30
0.0
 10
97.72581241052686
 20
-6.686055781769004
 30
0.0
 10
97.56770716219435
 20
-6.752668715024803
 30
0.0
 10
97.27525814793722
 20
-6.571295655192228
 30
0.0
 10
97.07336170606409
 20
-6.448683033227275
 30
0.0
 10
96.62223081409343
 20
-6.174700438892903
 30
0.0
 10
96.1836552109053
 20
-5.878310217216999
 30
0.0
 10
95.7551978213795
 20
-5.569869937455531
 30
0.0
 10
95.63489987678749
 20
-5.483264692378533
 30
0.0
 10
95.5243719922698
 20
-5.33555985251191
 30
0.0
 10
95.48358362342856
 20
-5.194429131576867
 30
0.0
 10
95.32534781750057
 20
-4.646831816132481
 30
0.0
 10
95.91667580759987
 20
-3.887739015591435
 30
0.0
 10
96.4836004071119
 20
-3.87675993778232
 30
0.0
 10
97.5814918683347
 20
-3.85549706935971
 30
0.0
 10
98.67927453156126
 20
-3.82730206859888
 30
0.0
 10
99.77719863218327
 20
-3.807583111743188
 30
0.0
 10
100.0714754527785
 20
-3.802297229087849
 30
0.0
 10
100.2210835775942
 20
-3.664365849233346
 30
0.0
 10
100.3199591967004
 20
-3.385255469332309
 30
0.0
 10
100.5155779941825
 20
-2.833019619311643
 30
0.0
 10
100.9184678545603
 20
-2.729007714796025
 30
0.0
 10
101.2773815648023
 20
-3.180285824054773
 30
0.0
 10
101.5769894872209
 20
-3.557000246479284
 30
0.0
 10
101.9070934880231
 20
-3.566891344324415
 30
0.0
 10
102.2992449861578
 20
-3.494005186597017
 30
0.0
 10
102.9999476020134
 20
-3.363771604979139
 30
0.0
 10
103.6955367120394
 20
-3.197488487250687
 30
0.0
 10
104.4008632427405
 20
-3.103072906008452
 30
0.0
 10
105.1628408901542
 20
-3.001074444413099
 30
0.0
 10
105.9334679782801
 20
-2.963317459745677
 30
0.0
 10
106.7005047325257
 20
-2.899927327138869
 30
0.0
 10
106.7888487055826
 20
-2.892626301594705
 30
0.0
 10
106.8838184766183
 20
-2.920687004828638
 30
0.0
 10
106.9666681508584
 20
-2.898522813004531
 30
0.0
 10
108.4207968916125
 20
-2.509508777090084
 30
0.0
 10
109.4132739741473
 20
-3.306559838591753
 30
0.0
 10
110.2539343325397
 20
-4.283804861640284
 30
0.0
 10
111.2678772597595
 20
-5.462480195146364
 30
0.0
 10
112.1687573091451
 20
-6.737821868444456
 30
0.0
 10
113.14414222645
 20
-7.950752931097135
 30
0.0
 10
113.3246816216343
 20
-8.175259636579911
 30
0.0
 10
113.6052716542868
 20
-8.357159006719487
 30
0.0
 10
113.8769946502333
 20
-8.462305470341056
 30
0.0
 10
114.3874639694265
 20
-8.659831632698694
 30
0.0
 10
114.9319109028882
 20
-8.767738165490794
 30
0.0
 10
115.4496479282392
 20
-8.948841270294341
 30
0.0
 10
115.9640992540998
 20
-9.12879179632442
 30
0.0
 10
116.2496722349858
 20
-9.494089229003755
 30
0.0
 10
116.1772454087987
 20
-9.888898118200965
 30
0.0
 10
116.0945262921548
 20
-10.3397699349419
 30
0.0
 10
115.781688533377
 20
-10.58032910480234
 30
0.0
 10
115.3380320637578
 20
-10.69904539852225
 30
0.0
 10
115.1881954631497
 20
-10.73914426006118
 30
0.0
 10
115.0718795252251
 20
-10.91607836164147
 30
0.0
 10
114.9477192517612
 20
-11.03808307480144
 30
0.0
 10
114.7359330720168
 20
-11.24618372241894
 30
0.0
 10
114.55185774195
 20
-11.60320162757463
 30
0.0
 10
114.316669113185
 20
-11.63909272660352
 30
0.0
 10
113.9440577351997
 20
-11.6959587193588
 30
0.0
 10
113.5637978580683
 20
-11.49922610238801
 30
0.0
 10
113.3928544461636
 20
-11.08520620698191
 30
0.0
 10
113.088492051304
 20
-10.34806170224009
 30
0.0
 10
112.5846158906905
 20
-9.945579834349617
 30
0.0
 10
111.7430851483274
 20
-10.05471374453828
 30
0.0
 10
110.2438487582753
 20
-10.24914392391068
 30
0.0
 10
108.7422623315026
 20
-10.42538987816453
 30
0.0
 10
107.2426669080632
 20
-10.61707426810282
 30
0.0
 10
106.8574349624976
 20
-10.66631352131252
 30
0.0
 10
106.6296663570863
 20
-10.8698133736583
 30
0.0
 10
106.5041134692686
 20
-11.27155133524865
 30
0.0
 10
106.2612001827618
 20
-12.04884094067708
 30
0.0
 10
105.9616357795418
 20
-12.80955925128302
 30
0.0
 10
105.6592426284163
 20
-13.56663690893524
 30
0.0
 10
105.5113861513422
 20
-13.93677177252884
 30
0.0
 10
105.2249319066858
 20
-14.19674458486757
 30
0.0
 10
104.7963765989637
 20
-14.1018618522288
 30
0.0
 10
104.3646879089455
 20
-14.00628825231249
 30
0.0
 10
104.1784039795521
 20
-13.67424900715052
 30
0.0
 10
104.1616164487117
 20
-13.24300230899276
 30
0.0
 10
104.1454490664502
 20
-12.82783459472427
 30
0.0
 10
104.1098938812348
 20
-12.4124316047891
 30
0.0
 10
104.1165523186129
 20
-11.99767324298189
 30
0.0
 10
104.122101016428
 20
-11.65195400975012
 30
0.0
 10
103.9871915009223
 20
-11.61355103697983
 30
0.0
 10
103.6777808790309
 20
-11.66698309297456
 30
0.0
 10
103.4482171066788
 20
-11.70662636290388
 30
0.0
 10
103.183000230915
 20
-11.66403466727234
 30
0.0
 10
102.9625210912601
 20
-11.58123531210628
 30
0.0
 10
102.8464009897293
 20
-11.53762499523387
 30
0.0
 10
102.7403664624618
 20
-11.33685869254767
 30
0.0
 10
102.7196404441524
 20
-11.19400964325744
 30
0.0
 10
102.6585830085861
 20
-10.77332995049736
 30
0.0
 10
103.0786085533929
 20
-10.1295966854943
 30
0.0
 10
103.5020612350853
 20
-10.04329947474453
 30
0.0
 10
104.0520895057601
 20
-9.931206939041004
 30
0.0
 10
104.235642605445
 20
-9.64736588626005
 30
0.0
 10
104.3093641277889
 20
-9.084008501053896
 30
0.0
 10
104.4990099152702
 20
-7.634978306405014
 30
0.0
 10
104.9383688640332
 20
-6.246834870464353
 30
0.0
 10
105.6273430558789
 20
-4.947196564613324
 30
0.0
 10
105.667402478145
 20
-4.871648595905337
 30
0.0
 10
105.6869861174923
 20
-4.785248707046278
 30
0.0
 10
105.7627856815671
 20
-4.573351689343519
 30
0.0
  0
SPLINE
  5
4D
330
41
100
AcDbEntity
  8
Layer 1
370
     0
100
AcDbSpline
210
0.0
220
0.0
230
1.0
 70
    11
 71
     3
 72
    20
 73
    16
 74
     0
 42
0.0000000001
 43
0.0000000001
 12
1.0
 22
0.0
 32
0.0
 13
1.0
 23
0.0
 33
0.0
 40
0.0
 40
0.0
 40
0.0
 40
0.0
 40
1.0
 40
1.0
 40
1.0
 40
2.0
 40
2.0
 40
2.0
 40
3.0
 40
3.0
 40
3.0
 40
4.0
 40
4.0
 40
4.0
 40
5.0
 40
5.0
 40
5.0
 40
5.0
 10
108.558676592419
 20
-5.166307569463578
 30
0.0
 10
108.236895638339
 20
-6.239488285759164
 30
0.0
 10
107.9475256073802
 20
-7.243290559729411
 30
0.0
 10
107.6325662876729
 20
-8.239003022681004
 30
0.0
 10
107.4709251044584
 20
-8.749994572256844
 30
0.0
 10
107.4993213815125
 20
-8.826819557447477
 30
0.0
 10
108.0298856906362
 20
-8.77143797735467
 30
0.0
 10
109.0921784474444
 20
-8.660551059449741
 30
0.0
 10
110.1521429271312
 20
-8.52718987542966
 30
0.0
 10
111.2124773200046
 20
-8.398173131402691
 30
0.0
 10
111.2604354768065
 20
-8.392337478872863
 30
0.0
 10
111.3025076620053
 20
-8.33809555779233
 30
0.0
 10
111.3885451175394
 20
-8.277246878381671
 30
0.0
 10
110.4784063586614
 20
-7.172074791239356
 30
0.0
 10
109.6995106228105
 20
-5.985355885863906
 30
0.0
 10
108.558676592419
 20
-5.166307569463578
 30
0.0
  0
SPLINE
  5
4E
330
41
100
AcDbEntity
  8
Layer 1
370
     0
100
AcDbSpline
210
0.0
220
0.0
230
1.0
 70
    11
 71
     3
 72
    11
 73
     7
 74
     0
 42
0.0000000001
 43
0.0000000001
 12
1.0
 22
0.0
 32
0.0
 13
1.0
 23
0.0
 33
0.0
 40
0.0
 40
0.0
 40
0.0
 40
0.0
 40
1.0
 40
1.0
 40
1.0
 40
2.0
 40
2.0
 40
2.0
 40
2.0
 10
105.9375696627438
 20
-8.400104295838641
 30
0.0
 10
106.2294094082207
 20
-7.682597829443115
 30
0.0
 10
106.6813562851635
 20
-7.016284220279139
 30
0.0
 10
106.6292311651001
 20
-6.193682969310015
 30
0.0
 10
106.1627815152405
 20
-6.852966867933445
 30
0.0
 10
105.9398870600665
 20
-7.591844660754171
 30
0.0
 10
105.9375696627438
 20
-8.400104295838641
 30
0.0
  0
HATCH
  5
4F
330
41
100
AcDbEntity
  8
Layer 1
 62
     7
420
 16777215
100
AcDbHatch
 10
0.0
 20
0.0
 30
0.0
210
0.0
220
0.0
230
1.0
  2
SOLID
 70
     1
 71
     0
 91
        3
 92
        1
 93
        1
 72
     4
 94
        3
 73
     0
 74
     1
 95
      152
 96
      148
 40
0.0
 40
0.0
 40
0.0
 40
0.0
 40
1.0
 40
1.0
 40
1.0
 40
2.0
 40
2.0
 40
2.0
 40
3.0
 40
3.0
 40
3.0
 40
4.0
 40
4.0
 40
4.0
 40
5.0
 40
5.0
 40
5.0
 40
6.0
 40
6.0
 40
6.0
 40
7.0
 40
7.0
 40
7.0
 40
8.0
 40
8.0
 40
8.0
 40
9.0
 40
9.0
 40
9.0
 40
10.0
 40
10.0
 40
10.0
 40
11.0
 40
11.0
 40
11.0
 40
12.0
 40
12.0
 40
12.0
 40
13.0
 40
13.0
 40
13.0
 40
14.0
 40
14.0
 40
14.0
 40
15.0
 40
15.0
 40
15.0
 40
16.0
 40
16.0
 40
16.0
 40
17.0
 40
17.0
 40
17.0
 40
18.0
 40
18.0
 40
18.0
 40
19.0
 40
19.0
 40
19.0
 40
20.0
 40
20.0
 40
20.0
 40
21.0
 40
21.0
 40
21.0
 40
22.0
 40
22.0
 40
22.0
 40
23.0
 40
23.0
 40
23.0
 40
24.0
 40
24.0
 40
24.0
 40
25.0
 40
25.0
 40
25.0
 40
26.0
 40
26.0
 40
26.0
 40
27.0
 40
27.0
 40
27.0
 40
28.0
 40
28.0
 40
28.0
 40
29.0
 40
29.0
 40
29.0
 40
30.0
 40
30.0
 40
30.0
 40
31.0
 40
31.0
 40
31.0
 40
32.0
 40
32.0
 40
32.0
 40
33.0
 40
33.0
 40
33.0
 40
34.0
 40
34.0
 40
34.0
 40
35.0
 40
35.0
 40
35.0
 40
36.0
 40
36.0
 40
36.0
 40
37.0
 40
37.0
 40
37.0
 40
38.0
 40
38.0
 40
38.0
 40
39.0
 40
39.0
 40
39.0
 40
40.0
 40
40.0
 40
40.0
 40
41.0
 40
41.0
 40
41.0
 40
42.0
 40
42.0
 40
42.0
 40
43.0
 40
43.0
 40
43.0
 40
44.0
 40
44.0
 40
44.0
 40
45.0
 40
45.0
 40
45.0
 40
46.0
 40
46.0
 40
46.0
 40
47.0
 40
47.0
 40
47.0
 40
48.0
 40
48.0
 40
48.0
 40
49.0
 40
49.0
 40
49.0
 40
49.0
 10
105.7627856815671
 20
-4.573351689343519
 10
105.310512410635
 20
-4.627164538325403
 10
104.9450273014113
 20
-4.650175994546215
 10
104.5877782005134
 20
-4.717060922793251
 10
103.5811138592512
 20
-4.905528971964113
 10
102.5755483777527
 20
-5.101711479065486
 10
101.5755642334686
 20
-5.322137579697231
 10
101.4191127146808
 20
-5.356624504585114
 10
101.1954893129311
 20
-5.51440063897908
 10
101.169432192799
 20
-5.647714223874964
 10
100.8169158047435
 20
-7.451237530176304
 10
100.48263396088
 20
-9.258626565286667
 10
100.1773250234521
 20
-11.07070071411528
 10
100.1375811153767
 20
-11.3066250893302
 10
100.2760156859644
 20
-11.57643324054167
 10
100.3465929462128
 20
-11.82640207711268
 10
100.6125061291538
 20
-12.76820241291151
 10
100.9039106826451
 20
-13.70334159138112
 10
101.1453116770026
 20
-14.65127949414941
 10
101.2525756216293
 20
-15.07250861679033
 10
100.9891865522042
 20
-15.447131397735
 10
100.6188381725425
 20
-15.50747484644933
 10
100.3274771382497
 20
-15.55494341226857
 10
99.88228661688197
 20
-15.40263845711688
 10
99.68965976429922
 20
-15.17980792076603
 10
98.94342518696067
 20
-14.31658557787539
 10
98.44291088443633
 20
-13.29699739461875
 10
98.55958585574882
 20
-12.13045031775877
 10
98.72025873679574
 20
-10.52393502335626
 10
98.98078641891625
 20
-8.927084390969632
 10
99.21409284234336
 20
-7.328363113032442
 10
99.28041610093342
 20
-6.873931561847185
 10
99.39800497541623
 20
-6.426767036832307
 10
99.49740282490433
 20
-5.977448991476647
 10
99.56254018533443
 20
-5.683010333861992
 10
99.45165326742885
 20
-5.555450802998597
 10
99.15172983082087
 20
-5.580723217581837
 10
98.98908770603914
 20
-5.594428365188018
 10
98.82518352450042
 20
-5.606621220643605
 10
98.66234556332547
 20
-5.601992545885683
 10
98.33075102997253
 20
-5.592567239462166
 10
98.15928538768532
 20
-5.692121486070048
 10
98.12285981849867
 20
-6.074749759584925
 10
98.10149189201059
 20
-6.299178266508125
 10
97.91674201436572
 20
-6.605615983148953
 10
97.72581241052686
 20
-6.686055781769004
 10
97.56770716219435
 20
-6.752668715024803
 10
97.27525814793722
 20
-6.571295655192228
 10
97.07336170606409
 20
-6.448683033227275
 10
96.62223081409343
 20
-6.174700438892903
 10
96.1836552109053
 20
-5.878310217216999
 10
95.7551978213795
 20
-5.569869937455531
 10
95.63489987678749
 20
-5.483264692378533
 10
95.5243719922698
 20
-5.33555985251191
 10
95.48358362342856
 20
-5.194429131576867
 10
95.32534781750057
 20
-4.646831816132481
 10
95.91667580759987
 20
-3.887739015591435
 10
96.4836004071119
 20
-3.87675993778232
 10
97.5814918683347
 20
-3.85549706935971
 10
98.67927453156126
 20
-3.82730206859888
 10
99.77719863218327
 20
-3.807583111743188
 10
100.0714754527785
 20
-3.802297229087849
 10
100.2210835775942
 20
-3.664365849233346
 10
100.3199591967004
 20
-3.385255469332309
 10
100.5155779941825
 20
-2.833019619311643
 10
100.9184678545603
 20
-2.729007714796025
 10
101.2773815648023
 20
-3.180285824054773
 10
101.5769894872209
 20
-3.557000246479284
 10
101.9070934880231
 20
-3.566891344324415
 10
102.2992449861578
 20
-3.494005186597017
 10
102.9999476020134
 20
-3.363771604979139
 10
103.6955367120394
 20
-3.197488487250687
 10
104.4008632427405
 20
-3.103072906008452
 10
105.1628408901542
 20
-3.001074444413099
 10
105.9334679782801
 20
-2.963317459745677
 10
106.7005047325257
 20
-2.899927327138869
 10
106.7888487055826
 20
-2.892626301594705
 10
106.8838184766183
 20
-2.920687004828638
 10
106.9666681508584
 20
-2.898522813004531
 10
108.4207968916125
 20
-2.509508777090084
 10
109.4132739741473
 20
-3.306559838591753
 10
110.2539343325397
 20
-4.283804861640284
 10
111.2678772597595
 20
-5.462480195146364
 10
112.1687573091451
 20
-6.737821868444456
 10
113.14414222645
 20
-7.950752931097135
 10
113.3246816216343
 20
-8.175259636579911
 10
113.6052716542868
 20
-8.357159006719487
 10
113.8769946502333
 20
-8.462305470341056
 10
114.3874639694265
 20
-8.659831632698694
 10
114.9319109028882
 20
-8.767738165490794
 10
115.4496479282392
 20
-8.948841270294341
 10
115.9640992540998
 20
-9.12879179632442
 10
116.2496722349858
 20
-9.494089229003755
 10
116.1772454087987
 20
-9.888898118200965
 10
116.0945262921548
 20
-10.3397699349419
 10
115.781688533377
 20
-10.58032910480234
 10
115.3380320637578
 20
-10.69904539852225
 10
115.1881954631497
 20
-10.73914426006118
 10
115.0718795252251
 20
-10.91607836164147
 10
114.9477192517612
 20
-11.03808307480144
 10
114.7359330720168
 20
-11.24618372241894
 10
114.55185774195
 20
-11.60320162757463
 10
114.316669113185
 20
-11.63909272660352
 10
113.9440577351997
 20
-11.6959587193588
 10
113.5637978580683
 20
-11.49922610238801
 10
113.3928544461636
 20
-11.08520620698191
 10
113.088492051304
 20
-10.34806170224009
 10
112.5846158906905
 20
-9.945579834349617
 10
111.7430851483274
 20
-10.05471374453828
 10
110.2438487582753
 20
-10.24914392391068
 10
108.7422623315026
 20
-10.42538987816453
 10
107.2426669080632
 20
-10.61707426810282
 10
106.8574349624976
 20
-10.66631352131252
 10
106.6296663570863
 20
-10.8698133736583
 10
106.5041134692686
 20
-11.27155133524865
 10
106.2612001827618
 20
-12.04884094067708
 10
105.9616357795418
 20
-12.80955925128302
 10
105.6592426284163
 20
-13.56663690893524
 10
105.5113861513422
 20
-13.93677177252884
 10
105.2249319066858
 20
-14.19674458486757
 10
104.7963765989637
 20
-14.1018618522288
 10
104.3646879089455
 20
-14.00628825231249
 10
104.1784039795521
 20
-13.67424900715052
 10
104.1616164487117
 20
-13.24300230899276
 10
104.1454490664502
 20
-12.82783459472427
 10
104.1098938812348
 20
-12.4124316047891
 10
104.1165523186129
 20
-11.99767324298189
 10
104.122101016428
 20
-11.65195400975012
 10
103.9871915009223
 20
-11.61355103697983
 10
103.6777808790309
 20
-11.66698309297456
 10
103.4482171066788
 20
-11.70662636290388
 10
103.183000230915
 20
-11.66403466727234
 10
102.9625210912601
 20
-11.58123531210628
 10
102.8464009897293
 20
-11.53762499523387
 10
102.7403664624618
 20
-11.33685869254767
 10
102.7196404441524
 20
-11.19400964325744
 10
102.6585830085861
 20
-10.77332995049736
 10
103.0786085533929
 20
-10.1295966854943
 10
103.5020612350853
 20
-10.04329947474453
 10
104.0520895057601
 20
-9.931206939041004
 10
104.235642605445
 20
-9.64736588626005
 10
104.3093641277889
 20
-9.084008501053896
 10
104.4990099152702
 20
-7.634978306405014
 10
104.9383688640332
 20
-6.246834870464353
 10
105.6273430558789
 20
-4.947196564613324
 10
105.667402478145
 20
-4.871648595905337
 10
105.6869861174923
 20
-4.785248707046278
 10
105.7627856815671
 20
-4.573351689343519
 97
        0
 97
        0
 92
        1
 93
        1
 72
     4
 94
        3
 73
     0
 74
     1
 95
       20
 96
       16
 40
0.0
 40
0.0
 40
0.0
 40
0.0
 40
1.0
 40
1.0
 40
1.0
 40
2.0
 40
2.0
 40
2.0
 40
3.0
 40
3.0
 40
3.0
 40
4.0
 40
4.0
 40
4.0
 40
5.0
 40
5.0
 40
5.0
 40
5.0
 10
108.558676592419
 20
-5.166307569463578
 10
108.236895638339
 20
-6.239488285759164
 10
107.9475256073802
 20
-7.243290559729411
 10
107.6325662876729
 20
-8.239003022681004
 10
107.4709251044584
 20
-8.749994572256844
 10
107.4993213815125
 20
-8.826819557447477
 10
108.0298856906362
 20
-8.77143797735467
 10
109.0921784474444
 20
-8.660551059449741
 10
110.1521429271312
 20
-8.52718987542966
 10
111.2124773200046
 20
-8.398173131402691
 10
111.2604354768065
 20
-8.392337478872863
 10
111.3025076620053
 20
-8.33809555779233
 10
111.3885451175394
 20
-8.277246878381671
 10
110.4784063586614
 20
-7.172074791239356
 10
109.6995106228105
 20
-5.985355885863906
 10
108.558676592419
 20
-5.166307569463578
 97
        0
 97
        0
 92
        1
 93
        1
 72
     4
 94
        3
 73
     0
 74
     1
 95
       11
 96
        7
 40
0.0
 40
0.0
 40
0.0
 40
0.0
 40
1.0
 40
1.0
 40
1.0
 40
2.0
 40
2.0
 40
2.0
 40
2.0
 10
105.9375696627438
 20
-8.400104295838641
 10
106.2294094082207
 20
-7.682597829443115
 10
106.6813562851635
 20
-7.016284220279139
 10
106.6292311651001
 20
-6.193682969310015
 10
106.1627815152405
 20
-6.852966867933445
 10
105.9398870600665
 20
-7.591844660754171
 10
105.9375696627438
 20
-8.400104295838641
 97
        0
 97
        0
 75
     2
 76
     1
 98
        0
  0
SPLINE
  5
50
330
41
100
AcDbEntity
  8
Layer 1
370
     0
100
AcDbSpline
210
0.0
220
0.0
230
1.0
 70
    11
 71
     3
 72
   125
 73
   121
 74
     0
 42
0.0000000001
 43
0.0000000001
 12
1.0
 22
0.0
 32
0.0
 13
1.0
 23
0.0
 33
0.0
 40
0.0
 40
0.0
 40
0.0
 40
0.0
 40
1.0
 40
1.0
 40
1.0
 40
2.0
 40
2.0
 40
2.0
 40
3.0
 40
3.0
 40
3.0
 40
4.0
 40
4.0
 40
4.0
 40
5.0
 40
5.0
 40
5.0
 40
6.0
 40
6.0
 40
6.0
 40
7.0
 40
7.0
 40
7.0
 40
8.0
 40
8.0
 40
8.0
 40
9.0
 40
9.0
 40
9.0
 40
10.0
 40
10.0
 40
10.0
 40
11.0
 40
11.0
 40
11.0
 40
12.0
 40
12.0
 40
12.0
 40
13.0
 40
13.0
 40
13.0
 40
14.0
 40
14.0
 40
14.0
 40
15.0
 40
15.0
 40
15.0
 40
16.0
 40
16.0
 40
16.0
 40
17.0
 40
17.0
 40
17.0
 40
18.0
 40
18.0
 40
18.0
 40
19.0
 40
19.0
 40
19.0
 40
20.0
 40
20.0
 40
20.0
 40
21.0
 40
21.0
 40
21.0
 40
22.0
 40
22.0
 40
22.0
 40
23.0
 40
23.0
 40
23.0
 40
24.0
 40
24.0
 40
24.0
 40
25.0
 40
25.0
 40
25.0
 40
26.0
 40
26.0
 40
26.0
 40
27.0
 40
27.0
 40
27.0
 40
28.0
 40
28.0
 40
28.0
 40
29.0
 40
29.0
 40
29.0
 40
30.0
 40
30.0
 40
30.0
 40
31.0
 40
31.0
 40
31.0
 40
32.0
 40
32.0
 40
32.0
 40
33.0
 40
33.0
 40
33.0
 40
34.0
 40
34.0
 40
34.0
 40
35.0
 40
35.0
 40
35.0
 40
36.0
 40
36.0
 40
36.0
 40
37.0
 40
37.0
 40
37.0
 40
38.0
 40
38.0
 40
38.0
 40
39.0
 40
39.0
 40
39.0
 40
40.0
 40
40.0
 40
40.0
 40
40.0
 10
83.98970089485944
 20
-20.1827001874647
 30
0.0
 10
84.26050454773728
 20
-21.47822184912775
 30
0.0
 10
84.12098199718532
 20
-22.83418215775287
 30
0.0
 10
83.99661500752886
 20
-24.19374096010781
 30
0.0
 10
83.97399046418279
 20
-24.44109048491707
 30
0.0
 10
84.14145234020332
 20
-24.70093817955996
 30
0.0
 10
84.19112406544878
 20
-24.96075867470395
 30
0.0
 10
84.31581744909458
 20
-25.61297818342383
 30
0.0
 10
84.52458448443929
 20
-26.29641999715523
 30
0.0
 10
83.96603189074756
 20
-26.84698137801189
 30
0.0
 10
83.80666458565742
 20
-27.00406664512894
 30
0.0
 10
83.49877713571455
 20
-27.10604844703105
 30
0.0
 10
83.27610027653367
 20
-27.08102762781472
 30
0.0
 10
82.93847289428179
 20
-27.04308976647875
 30
0.0
 10
82.61016950032001
 20
-26.86899665257839
 30
0.0
 10
82.61326480331668
 20
-26.4346832108981
 30
0.0
 10
82.6198035628986
 20
-25.5179567333401
 30
0.0
 10
82.5927074219017
 20
-24.59814583258475
 30
0.0
 10
82.65893276229481
 20
-23.68537144224419
 30
0.0
 10
82.75445196321333
 20
-22.36896464520222
 30
0.0
 10
82.71934828968242
 20
-21.08091876586462
 30
0.0
 10
82.29383388595917
 20
-19.81371586268268
 30
0.0
 10
82.17330746557474
 20
-19.45480895231495
 30
0.0
 10
82.01911350521164
 20
-19.38734195478821
 30
0.0
 10
81.68448894765977
 20
-19.48371521997703
 30
0.0
 10
80.75828072471728
 20
-19.75047294736492
 30
0.0
 10
79.82830809110048
 20
-20.00488346213869
 30
0.0
 10
78.89565902677238
 20
-20.2482129009823
 30
0.0
 10
78.54371382819762
 20
-20.34003704994802
 30
0.0
 10
78.16620654037516
 20
-20.46100818214276
 30
0.0
 10
77.90067959032159
 20
-20.05604299998439
 30
0.0
 10
77.86966672145435
 20
-20.00874443103535
 30
0.0
 10
77.81374999121778
 20
-19.96947107429324
 30
0.0
 10
77.80232076169774
 20
-19.9190119235498
 30
0.0
 10
77.7359267844103
 20
-19.62596588028763
 30
0.0
 10
78.3198238713566
 20
-18.63597891189568
 30
0.0
 10
78.62075368943154
 20
-18.56490934071277
 30
0.0
 10
80.82920069865465
 20
-18.04336302551378
 30
0.0
 10
83.03559142574662
 20
-17.5115040202332
 30
0.0
 10
85.25303058937017
 20
-17.03090383096985
 30
0.0
 10
85.71710844290854
 20
-16.93032280327099
 30
0.0
 10
86.22436822120925
 20
-17.03074199395041
 30
0.0
 10
86.7117614853706
 20
-17.03517279235257
 30
0.0
 10
86.91746585711785
 20
-17.03704411789043
 30
0.0
 10
87.12787030230768
 20
-17.05728734509124
 30
0.0
 10
87.32828165153104
 20
-17.02312749417872
 30
0.0
 10
89.29129670063108
 20
-16.68854373587553
 30
0.0
 10
91.2503406228636
 20
-16.61495549107763
 30
0.0
 10
93.21043444576095
 20
-17.05067242691099
 30
0.0
 10
93.70078701542447
 20
-17.15967441952957
 30
0.0
 10
93.96457863743596
 20
-17.40302561797244
 30
0.0
 10
93.93885879109324
 20
-17.79307459482766
 30
0.0
 10
93.89824449904596
 20
-18.40887397426118
 30
0.0
 10
93.62638006570336
 20
-18.76848671163018
 30
0.0
 10
93.09649030415757
 20
-18.73974228098819
 30
0.0
 10
92.38874845793674
 20
-18.70135018801721
 30
0.0
 10
91.68822535877545
 20
-18.5245507239581
 30
0.0
 10
90.98060319035018
 20
-18.49069958736011
 30
0.0
 10
90.22872199699948
 20
-18.4547296097837
 30
0.0
 10
89.47187417511492
 20
-18.50902796982456
 30
0.0
 10
88.71783878143678
 20
-18.53982868259834
 30
0.0
 10
88.48682799573318
 20
-18.54926554880974
 30
0.0
 10
88.34058716890502
 20
-18.63492901123022
 30
0.0
 10
88.41111003015563
 20
-18.94045962457625
 30
0.0
 10
88.54411558072428
 20
-19.51673133195221
 30
0.0
 10
88.638922154766
 20
-20.10265478158157
 30
0.0
 10
88.7291428932597
 20
-20.68772280696412
 30
0.0
 10
88.81440244311919
 20
-21.24064238439349
 30
0.0
 10
88.82806203156434
 20
-21.25265232321768
 30
0.0
 10
89.36579068874919
 20
-21.20746307542363
 30
0.0
 10
90.70987569607001
 20
-21.09451307551139
 30
0.0
 10
92.05471140956521
 20
-20.99023155596071
 30
0.0
 10
93.39963416145804
 20
-20.88757248653082
 30
0.0
 10
93.96623236698134
 20
-20.84432528297202
 30
0.0
 10
94.32282867990057
 20
-21.14402296373741
 30
0.0
 10
94.54817108999345
 20
-21.63095791633933
 30
0.0
 10
94.58979720340605
 20
-21.72089849999329
 30
0.0
 10
94.64848284265122
 20
-21.86163142825429
 30
0.0
 10
94.60997923173417
 20
-21.92040410589645
 30
0.0
 10
94.36517286008961
 20
-22.29415786284388
 30
0.0
 10
94.5920166825325
 20
-22.57347767888856
 30
0.0
 10
94.73851318465199
 20
-22.89769570808695
 30
0.0
 10
95.23810270420734
 20
-24.00333630660134
 30
0.0
 10
94.99962837595217
 20
-24.80518569973685
 30
0.0
 10
93.69100607555016
 20
-25.57636221774424
 30
0.0
 10
92.6807405206084
 20
-26.17172117360913
 30
0.0
 10
91.57794770964945
 20
-26.5641854659834
 30
0.0
 10
90.34614767448761
 20
-26.45284703639328
 30
0.0
 10
88.62687821656674
 20
-26.29744269832051
 30
0.0
 10
87.76258149346157
 20
-25.5332156523322
 30
0.0
 10
87.48700704844308
 20
-23.8366496163049
 30
0.0
 10
87.38727736506533
 20
-23.22268620305959
 30
0.0
 10
87.3910798550385
 20
-23.25634558318748
 30
0.0
 10
86.75573219560614
 20
-23.32823113934314
 30
0.0
 10
86.3617637709314
 20
-23.37280567845796
 30
0.0
 10
85.95343945063557
 20
-23.30392294700296
 30
0.0
 10
85.55323690076837
 20
-23.26747833816689
 30
0.0
 10
85.4807937548824
 20
-23.2608824596367
 30
0.0
 10
85.38932727932935
 20
-23.17848973698209
 30
0.0
 10
85.3532498637313
 20
-23.10742560569948
 30
0.0
 10
85.21107264206792
 20
-22.82736596327974
 30
0.0
 10
85.7646422875249
 20
-21.84500437445814
 30
0.0
 10
86.08454103626782
 20
-21.78433317177986
 30
0.0
 10
86.37572799376602
 20
-21.72910458886972
 30
0.0
 10
86.67238749048302
 20
-21.68687736652638
 30
0.0
 10
86.95205818006484
 20
-21.59469826409718
 30
0.0
 10
87.06218351199675
 20
-21.558397812607
 30
0.0
 10
87.22380837551157
 20
-21.3829719232516
 30
0.0
 10
87.20704260427044
 20
-21.30365274399441
 30
0.0
 10
87.07018016473017
 20
-20.65609250946846
 30
0.0
 10
86.91785209000464
 20
-20.0098500906732
 30
0.0
 10
86.72576378750472
 20
-19.37669335089254
 30
0.0
 10
86.62243289044733
 20
-19.03608762348972
 30
0.0
 10
86.34194077599183
 20
-18.9306419653777
 30
0.0
 10
86.01749427100167
 20
-19.10944467254602
 30
0.0
 10
85.56885485314838
 20
-19.35668403938381
 30
0.0
 10
85.13644265645404
 20
-19.63329070539357
 30
0.0
 10
84.68877698066916
 20
-19.88240275774445
 30
0.0
 10
84.49779297783185
 20
-19.98868616042847
 30
0.0
 10
84.2858436010935
 20
-20.05728601709261
 30
0.0
 10
83.98970089485944
 20
-20.1827001874647
 30
0.0
  0
SPLINE
  5
51
330
41
100
AcDbEntity
  8
Layer 1
370
     0
100
AcDbSpline
210
0.0
220
0.0
230
1.0
 70
    11
 71
     3
 72
    23
 73
    19
 74
     0
 42
0.0000000001
 43
0.0000000001
 12
1.0
 22
0.0
 32
0.0
 13
1.0
 23
0.0
 33
0.0
 40
0.0
 40
0.0
 40
0.0
 40
0.0
 40
1.0
 40
1.0
 40
1.0
 40
2.0
 40
2.0
 40
2.0
 40
3.0
 40
3.0
 40
3.0
 40
4.0
 40
4.0
 40
4.0
 40
5.0
 40
5.0
 40
5.0
 40
6.0
 40
6.0
 40
6.0
 40
6.0
 10
93.70240810557067
 20
-22.87443197651194
 30
0.0
 10
93.32470498135434
 20
-22.75430538876343
 30
0.0
 10
92.95784901737673
 20
-22.52372707509558
 30
0.0
 10
92.60835721361987
 20
-22.54755927620149
 30
0.0
 10
91.5011145646087
 20
-22.62305420588692
 30
0.0
 10
90.39927917601794
 20
-22.78585952766268
 30
0.0
 10
89.29859704618794
 20
-22.93832631983317
 30
0.0
 10
89.17706424433717
 20
-22.95516008982186
 30
0.0
 10
88.99857569138366
 20
-23.10983548131887
 30
0.0
 10
88.9794000445225
 20
-23.22307787584604
 30
0.0
 10
88.88905418833232
 20
-23.7566885288683
 30
0.0
 10
89.458143867973
 20
-24.55833120581127
 30
0.0
 10
89.98805538911805
 20
-24.6327163959325
 30
0.0
 10
90.4412153637203
 20
-24.69632514451369
 30
0.0
 10
90.90629415882599
 20
-24.73624856928341
 30
0.0
 10
91.36176609085136
 20
-24.71036824589583
 30
0.0
 10
92.62715750739352
 20
-24.63847180994087
 30
0.0
 10
93.33492111321424
 20
-24.08942816113317
 30
0.0
 10
93.70240810557067
 20
-22.87443197651194
 30
0.0
  0
HATCH
  5
52
330
41
100
AcDbEntity
  8
Layer 1
 62
     7
420
 16777215
100
AcDbHatch
 10
0.0
 20
0.0
 30
0.0
210
0.0
220
0.0
230
1.0
  2
SOLID
 70
     1
 71
     0
 91
        2
 92
        1
 93
        1
 72
     4
 94
        3
 73
     0
 74
     1
 95
      125
 96
      121
 40
0.0
 40
0.0
 40
0.0
 40
0.0
 40
1.0
 40
1.0
 40
1.0
 40
2.0
 40
2.0
 40
2.0
 40
3.0
 40
3.0
 40
3.0
 40
4.0
 40
4.0
 40
4.0
 40
5.0
 40
5.0
 40
5.0
 40
6.0
 40
6.0
 40
6.0
 40
7.0
 40
7.0
 40
7.0
 40
8.0
 40
8.0
 40
8.0
 40
9.0
 40
9.0
 40
9.0
 40
10.0
 40
10.0
 40
10.0
 40
11.0
 40
11.0
 40
11.0
 40
12.0
 40
12.0
 40
12.0
 40
13.0
 40
13.0
 40
13.0
 40
14.0
 40
14.0
 40
14.0
 40
15.0
 40
15.0
 40
15.0
 40
16.0
 40
16.0
 40
16.0
 40
17.0
 40
17.0
 40
17.0
 40
18.0
 40
18.0
 40
18.0
 40
19.0
 40
19.0
 40
19.0
 40
20.0
 40
20.0
 40
20.0
 40
21.0
 40
21.0
 40
21.0
 40
22.0
 40
22.0
 40
22.0
 40
23.0
 40
23.0
 40
23.0
 40
24.0
 40
24.0
 40
24.0
 40
25.0
 40
25.0
 40
25.0
 40
26.0
 40
26.0
 40
26.0
 40
27.0
 40
27.0
 40
27.0
 40
28.0
 40
28.0
 40
28.0
 40
29.0
 40
29.0
 40
29.0
 40
30.0
 40
30.0
 40
30.0
 40
31.0
 40
31.0
 40
31.0
 40
32.0
 40
32.0
 40
32.0
 40
33.0
 40
33.0
 40
33.0
 40
34.0
 40
34.0
 40
34.0
 40
35.0
 40
35.0
 40
35.0
 40
36.0
 40
36.0
 40
36.0
 40
37.0
 40
37.0
 40
37.0
 40
38.0
 40
38.0
 40
38.0
 40
39.0
 40
39.0
 40
39.0
 40
40.0
 40
40.0
 40
40.0
 40
40.0
 10
83.98970089485944
 20
-20.1827001874647
 10
84.26050454773728
 20
-21.47822184912775
 10
84.12098199718532
 20
-22.83418215775287
 10
83.99661500752886
 20
-24.19374096010781
 10
83.97399046418279
 20
-24.44109048491707
 10
84.14145234020332
 20
-24.70093817955996
 10
84.19112406544878
 20
-24.96075867470395
 10
84.31581744909458
 20
-25.61297818342383
 10
84.52458448443929
 20
-26.29641999715523
 10
83.96603189074756
 20
-26.84698137801189
 10
83.80666458565742
 20
-27.00406664512894
 10
83.49877713571455
 20
-27.10604844703105
 10
83.27610027653367
 20
-27.08102762781472
 10
82.93847289428179
 20
-27.04308976647875
 10
82.61016950032001
 20
-26.86899665257839
 10
82.61326480331668
 20
-26.4346832108981
 10
82.6198035628986
 20
-25.5179567333401
 10
82.5927074219017
 20
-24.59814583258475
 10
82.65893276229481
 20
-23.68537144224419
 10
82.75445196321333
 20
-22.36896464520222
 10
82.71934828968242
 20
-21.08091876586462
 10
82.29383388595917
 20
-19.81371586268268
 10
82.17330746557474
 20
-19.45480895231495
 10
82.01911350521164
 20
-19.38734195478821
 10
81.68448894765977
 20
-19.48371521997703
 10
80.75828072471728
 20
-19.75047294736492
 10
79.82830809110048
 20
-20.00488346213869
 10
78.89565902677238
 20
-20.2482129009823
 10
78.54371382819762
 20
-20.34003704994802
 10
78.16620654037516
 20
-20.46100818214276
 10
77.90067959032159
 20
-20.05604299998439
 10
77.86966672145435
 20
-20.00874443103535
 10
77.81374999121778
 20
-19.96947107429324
 10
77.80232076169774
 20
-19.9190119235498
 10
77.7359267844103
 20
-19.62596588028763
 10
78.3198238713566
 20
-18.63597891189568
 10
78.62075368943154
 20
-18.56490934071277
 10
80.82920069865465
 20
-18.04336302551378
 10
83.03559142574662
 20
-17.5115040202332
 10
85.25303058937017
 20
-17.03090383096985
 10
85.71710844290854
 20
-16.93032280327099
 10
86.22436822120925
 20
-17.03074199395041
 10
86.7117614853706
 20
-17.03517279235257
 10
86.91746585711785
 20
-17.03704411789043
 10
87.12787030230768
 20
-17.05728734509124
 10
87.32828165153104
 20
-17.02312749417872
 10
89.29129670063108
 20
-16.68854373587553
 10
91.2503406228636
 20
-16.61495549107763
 10
93.21043444576095
 20
-17.05067242691099
 10
93.70078701542447
 20
-17.15967441952957
 10
93.96457863743596
 20
-17.40302561797244
 10
93.93885879109324
 20
-17.79307459482766
 10
93.89824449904596
 20
-18.40887397426118
 10
93.62638006570336
 20
-18.76848671163018
 10
93.09649030415757
 20
-18.73974228098819
 10
92.38874845793674
 20
-18.70135018801721
 10
91.68822535877545
 20
-18.5245507239581
 10
90.98060319035018
 20
-18.49069958736011
 10
90.22872199699948
 20
-18.4547296097837
 10
89.47187417511492
 20
-18.50902796982456
 10
88.71783878143678
 20
-18.53982868259834
 10
88.48682799573318
 20
-18.54926554880974
 10
88.34058716890502
 20
-18.63492901123022
 10
88.41111003015563
 20
-18.94045962457625
 10
88.54411558072428
 20
-19.51673133195221
 10
88.638922154766
 20
-20.10265478158157
 10
88.7291428932597
 20
-20.68772280696412
 10
88.81440244311919
 20
-21.24064238439349
 10
88.82806203156434
 20
-21.25265232321768
 10
89.36579068874919
 20
-21.20746307542363
 10
90.70987569607001
 20
-21.09451307551139
 10
92.05471140956521
 20
-20.99023155596071
 10
93.39963416145804
 20
-20.88757248653082
 10
93.96623236698134
 20
-20.84432528297202
 10
94.32282867990057
 20
-21.14402296373741
 10
94.54817108999345
 20
-21.63095791633933
 10
94.58979720340605
 20
-21.72089849999329
 10
94.64848284265122
 20
-21.86163142825429
 10
94.60997923173417
 20
-21.92040410589645
 10
94.36517286008961
 20
-22.29415786284388
 10
94.5920166825325
 20
-22.57347767888856
 10
94.73851318465199
 20
-22.89769570808695
 10
95.23810270420734
 20
-24.00333630660134
 10
94.99962837595217
 20
-24.80518569973685
 10
93.69100607555016
 20
-25.57636221774424
 10
92.6807405206084
 20
-26.17172117360913
 10
91.57794770964945
 20
-26.5641854659834
 10
90.34614767448761
 20
-26.45284703639328
 10
88.62687821656674
 20
-26.29744269832051
 10
87.76258149346157
 20
-25.5332156523322
 10
87.48700704844308
 20
-23.8366496163049
 10
87.38727736506533
 20
-23.22268620305959
 10
87.3910798550385
 20
-23.25634558318748
 10
86.75573219560614
 20
-23.32823113934314
 10
86.3617637709314
 20
-23.37280567845796
 10
85.95343945063557
 20
-23.30392294700296
 10
85.55323690076837
 20
-23.26747833816689
 10
85.4807937548824
 20
-23.2608824596367
 10
85.38932727932935
 20
-23.17848973698209
 10
85.3532498637313
 20
-23.10742560569948
 10
85.21107264206792
 20
-22.82736596327974
 10
85.7646422875249
 20
-21.84500437445814
 10
86.08454103626782
 20
-21.78433317177986
 10
86.37572799376602
 20
-21.72910458886972
 10
86.67238749048302
 20
-21.68687736652638
 10
86.95205818006484
 20
-21.59469826409718
 10
87.06218351199675
 20
-21.558397812607
 10
87.22380837551157
 20
-21.3829719232516
 10
87.20704260427044
 20
-21.30365274399441
 10
87.07018016473017
 20
-20.65609250946846
 10
86.91785209000464
 20
-20.0098500906732
 10
86.72576378750472
 20
-19.37669335089254
 10
86.62243289044733
 20
-19.03608762348972
 10
86.34194077599183
 20
-18.9306419653777
 10
86.01749427100167
 20
-19.10944467254602
 10
85.56885485314838
 20
-19.35668403938381
 10
85.13644265645404
 20
-19.63329070539357
 10
84.68877698066916
 20
-19.88240275774445
 10
84.49779297783185
 20
-19.98868616042847
 10
84.2858436010935
 20
-20.05728601709261
 10
83.98970089485944
 20
-20.1827001874647
 97
        0
 97
        0
 92
        1
 93
        1
 72
     4
 94
        3
 73
     0
 74
     1
 95
       23
 96
       19
 40
0.0
 40
0.0
 40
0.0
 40
0.0
 40
1.0
 40
1.0
 40
1.0
 40
2.0
 40
2.0
 40
2.0
 40
3.0
 40
3.0
 40
3.0
 40
4.0
 40
4.0
 40
4.0
 40
5.0
 40
5.0
 40
5.0
 40
6.0
 40
6.0
 40
6.0
 40
6.0
 10
93.70240810557067
 20
-22.87443197651194
 10
93.32470498135434
 20
-22.75430538876343
 10
92.95784901737673
 20
-22.52372707509558
 10
92.60835721361987
 20
-22.54755927620149
 10
91.5011145646087
 20
-22.62305420588692
 10
90.39927917601794
 20
-22.78585952766268
 10
89.29859704618794
 20
-22.93832631983317
 10
89.17706424433717
 20
-22.95516008982186
 10
88.99857569138366
 20
-23.10983548131887
 10
88.9794000445225
 20
-23.22307787584604
 10
88.88905418833232
 20
-23.7566885288683
 10
89.458143867973
 20
-24.55833120581127
 10
89.98805538911805
 20
-24.6327163959325
 10
90.4412153637203
 20
-24.69632514451369
 10
90.90629415882599
 20
-24.73624856928341
 10
91.36176609085136
 20
-24.71036824589583
 10
92.62715750739352
 20
-24.63847180994087
 10
93.33492111321424
 20
-24.08942816113317
 10
93.70240810557067
 20
-22.87443197651194
 97
        0
 97
        0
 75
     2
 76
     1
 98
        0
  0
SPLINE
  5
53
330
41
100
AcDbEntity
  8
Layer 1
370
     0
100
AcDbSpline
210
0.0
220
0.0
230
1.0
 70
    11
 71
     3
 72
   125
 73
   121
 74
     0
 42
0.0000000001
 43
0.0000000001
 12
1.0
 22
0.0
 32
0.0
 13
1.0
 23
0.0
 33
0.0
 40
0.0
 40
0.0
 40
0.0
 40
0.0
 40
1.0
 40
1.0
 40
1.0
 40
2.0
 40
2.0
 40
2.0
 40
3.0
 40
3.0
 40
3.0
 40
4.0
 40
4.0
 40
4.0
 40
5.0
 40
5.0
 40
5.0
 40
6.0
 40
6.0
 40
6.0
 40
7.0
 40
7.0
 40
7.0
 40
8.0
 40
8.0
 40
8.0
 40
9.0
 40
9.0
 40
9.0
 40
10.0
 40
10.0
 40
10.0
 40
11.0
 40
11.0
 40
11.0
 40
12.0
 40
12.0
 40
12.0
 40
13.0
 40
13.0
 40
13.0
 40
14.0
 40
14.0
 40
14.0
 40
15.0
 40
15.0
 40
15.0
 40
16.0
 40
16.0
 40
16.0
 40
17.0
 40
17.0
 40
17.0
 40
18.0
 40
18.0
 40
18.0
 40
19.0
 40
19.0
 40
19.0
 40
20.0
 40
20.0
 40
20.0
 40
21.0
 40
21.0
 40
21.0
 40
22.0
 40
22.0
 40
22.0
 40
23.0
 40
23.0
 40
23.0
 40
24.0
 40
24.0
 40
24.0
 40
25.0
 40
25.0
 40
25.0
 40
26.0
 40
26.0
 40
26.0
 40
27.0
 40
27.0
 40
27.0
 40
28.0
 40
28.0
 40
28.0
 40
29.0
 40
29.0
 40
29.0
 40
30.0
 40
30.0
 40
30.0
 40
31.0
 40
31.0
 40
31.0
 40
32.0
 40
32.0
 40
32.0
 40
33.0
 40
33.0
 40
33.0
 40
34.0
 40
34.0
 40
34.0
 40
35.0
 40
35.0
 40
35.0
 40
36.0
 40
36.0
 40
36.0
 40
37.0
 40
37.0
 40
37.0
 40
38.0
 40
38.0
 40
38.0
 40
39.0
 40
39.0
 40
39.0
 40
40.0
 40
40.0
 40
40.0
 40
40.0
 10
60.3371959995662
 20
-24.10847597034867
 30
0.0
 10
60.5248888630133
 20
-24.03688416878382
 30
0.0
 10
60.71956655782787
 20
-23.9795557845434
 30
0.0
 10
60.89921924934176
 20
-23.89154364537557
 30
0.0
 10
63.20554093610498
 20
-22.76169005276746
 30
0.0
 10
65.6081053304609
 20
-21.92158728410722
 30
0.0
 10
68.14066157088615
 20
-21.46798123771942
 30
0.0
 10
68.40364264782455
 20
-21.4208798651382
 30
0.0
 10
68.66519303111097
 20
-21.36398123298373
 30
0.0
 10
68.92511688435091
 20
-21.30203029387298
 30
0.0
 10
69.27295495856238
 20
-21.2191248606605
 30
0.0
 10
69.7276326652149
 20
-21.16319589064874
 30
0.0
 10
69.82599693373776
 20
-21.51726945002726
 30
0.0
 10
69.91171887508175
 20
-21.82586680689582
 30
0.0
 10
69.74448547485301
 20
-22.26833465840457
 30
0.0
 10
69.5561507032281
 20
-22.56818465636469
 30
0.0
 10
69.41945690058152
 20
-22.78579968876458
 30
0.0
 10
69.0812909682481
 20
-22.92239829316405
 30
0.0
 10
68.80615715511422
 20
-22.9995333526438
 30
0.0
 10
67.69269126071055
 20
-23.31170472369375
 30
0.0
 10
66.54413801247586
 20
-23.51565744769866
 30
0.0
 10
65.45497759046286
 20
-23.89342857066255
 30
0.0
 10
64.0429319147065
 20
-24.3831881912461
 30
0.0
 10
62.67490590828352
 20
-24.99994499304843
 30
0.0
 10
61.28871607636535
 20
-25.56397012595702
 30
0.0
 10
61.16513243228341
 20
-25.61425655988171
 30
0.0
 10
61.03702279155092
 20
-25.66403708312341
 30
0.0
 10
60.92896462155139
 20
-25.7396870499534
 30
0.0
 10
60.68234132336774
 20
-25.91234131035102
 30
0.0
 10
60.20330918522737
 20
-25.8230997538241
 30
0.0
 10
60.21199670523804
 20
-26.27784817917336
 30
0.0
 10
60.22295810337232
 20
-26.85101778367777
 30
0.0
 10
60.31588791197685
 20
-27.42836795119268
 30
0.0
 10
60.89072756572529
 20
-27.73739506014718
 30
0.0
 10
61.65855854534402
 20
-28.15017465839553
 30
0.0
 10
62.49207087537469
 20
-28.30504588628577
 30
0.0
 10
63.35072098246773
 20
-28.16076886329211
 30
0.0
 10
65.37558769250731
 20
-27.82053304907714
 30
0.0
 10
67.16431923121404
 20
-26.94781808100272
 30
0.0
 10
68.71905347921641
 20
-25.62021597013342
 30
0.0
 10
69.0702969307143
 20
-25.32028437367596
 30
0.0
 10
69.2829099752313
 20
-24.86287583731436
 30
0.0
 10
69.58969856540992
 20
-24.50391044802377
 30
0.0
 10
69.73965484381363
 20
-24.32844919931935
 30
0.0
 10
69.95934519799472
 20
-24.21259021297961
 30
0.0
 10
70.14747325342711
 20
-24.06975476343851
 30
0.0
 10
70.23924436336961
 20
-24.28569158674459
 30
0.0
 10
70.39305753074491
 20
-24.49619939003102
 30
0.0
 10
70.41250517259763
 20
-24.71846553677602
 30
0.0
 10
70.52114541187784
 20
-25.95987787491719
 30
0.0
 10
69.77213648563232
 20
-26.78353854637585
 30
0.0
 10
68.86683923759243
 20
-27.39586454977538
 30
0.0
 10
67.3387387391031
 20
-28.4294482352906
 30
0.0
 10
65.69614466912763
 20
-29.27237159200805
 30
0.0
 10
63.86787049863835
 20
-29.66802366567626
 30
0.0
 10
62.89834979333932
 20
-29.87783516178613
 30
0.0
 10
61.92784990607224
 20
-29.93080346632177
 30
0.0
 10
60.96992162728633
 20
-29.57634775398086
 30
0.0
 10
59.58930225278324
 20
-29.06548404205068
 30
0.0
 10
58.98102353484889
 20
-27.95233638178624
 30
0.0
 10
58.94030044480571
 20
-26.60828673381443
 30
0.0
 10
58.8978311469205
 20
-25.20672102505909
 30
0.0
 10
59.06296474581895
 20
-23.79439247451284
 30
0.0
 10
59.20388535062402
 20
-22.39346323403597
 30
0.0
 10
59.28503777612055
 20
-21.58674513056224
 30
0.0
 10
59.49902167539111
 20
-20.79347717939067
 30
0.0
 10
59.65020737115455
 20
-19.99358479021542
 30
0.0
 10
59.66562404724103
 20
-19.91203797198229
 30
0.0
 10
59.66031470501724
 20
-19.82657306590422
 30
0.0
 10
59.6706069954745
 20
-19.62677642536073
 30
0.0
 10
58.9350128621818
 20
-19.92705889535661
 30
0.0
 10
58.26541015359015
 20
-20.18809792805975
 30
0.0
 10
57.6069483598277
 20
-20.4747561689595
 30
0.0
 10
57.30914104424895
 20
-20.60440802129035
 30
0.0
 10
57.04713370937833
 20
-20.82436357058684
 30
0.0
 10
56.74332618429952
 20
-20.9295168340833
 30
0.0
 10
56.51627564566442
 20
-21.00810298684032
 30
0.0
 10
56.2084861139185
 20
-21.0538239848423
 30
0.0
 10
56.00817812279236
 20
-20.96055554247421
 30
0.0
 10
55.73334350414829
 20
-20.83258189923781
 30
0.0
 10
55.75476582963481
 20
-20.52882741318317
 30
0.0
 10
55.83478131606888
 20
-20.23095753875715
 30
0.0
 10
56.00075265953966
 20
-19.61307739764213
 30
0.0
 10
56.33379964614382
 20
-19.20454636115313
 30
0.0
 10
56.94014175974289
 20
-18.92753850253156
 30
0.0
 10
59.18292541662232
 20
-17.902912972043
 30
0.0
 10
61.52002605655942
 20
-17.27448758512955
 30
0.0
 10
63.98417555676394
 20
-17.20054710681799
 30
0.0
 10
64.60905140904508
 20
-17.18179985206754
 30
0.0
 10
65.24860411103796
 20
-17.34973907929755
 30
0.0
 10
65.86688136483973
 20
-17.49412490028745
 30
0.0
 10
66.55717201244185
 20
-17.65532817156644
 30
0.0
 10
67.23197526526009
 20
-17.88388828240199
 30
0.0
 10
67.91139155312428
 20
-18.09015840372966
 30
0.0
 10
68.2360393344086
 20
-18.18872258857081
 30
0.0
 10
68.47611843311036
 20
-18.37000453008134
 30
0.0
 10
68.43584685475204
 20
-18.75702620268683
 30
0.0
 10
68.39676661445397
 20
-19.13270160424679
 30
0.0
 10
68.35325285580328
 20
-19.48864784913776
 30
0.0
 10
67.88273960077892
 20
-19.61278908295162
 30
0.0
 10
67.17745658927596
 20
-19.79887037607757
 30
0.0
 10
66.51000264111306
 20
-19.6439705887132
 30
0.0
 10
65.8837396143778
 20
-19.37408763887927
 30
0.0
 10
64.59123573713882
 20
-18.81709765641088
 30
0.0
 10
63.278223437583
 20
-18.87077858782269
 30
0.0
 10
61.94875000117585
 20
-19.13591930498945
 30
0.0
 10
61.80182374697139
 20
-19.16521996538846
 30
0.0
 10
61.66000555869559
 20
-19.3106856064919
 30
0.0
 10
61.55395471172906
 20
-19.43484859990501
 30
0.0
 10
61.35641018971057
 20
-19.6661300206243
 30
0.0
 10
61.18773521603024
 20
-19.92198754875028
 30
0.0
 10
61.00544961300321
 20
-20.1664267271568
 30
0.0
 10
60.90900562911635
 20
-20.29575354547289
 30
0.0
 10
60.74516672637441
 20
-20.41162069166275
 30
0.0
 10
60.72106797017723
 20
-20.55228970110124
 30
0.0
 10
60.52415447653757
 20
-21.70193500922496
 30
0.0
 10
60.35302066813937
 20
-22.85599887597631
 30
0.0
 10
60.1740479641018
 20
-24.00871636752221
 30
0.0
 10
60.22843064259015
 20
-24.04197047511387
 30
0.0
 10
60.28281332107849
 20
-24.07522186275636
 30
0.0
 10
60.3371959995662
 20
-24.10847597034867
 30
0.0
  0
HATCH
  5
54
330
41
100
AcDbEntity
  8
Layer 1
 62
     7
420
 16777215
100
AcDbHatch
 10
0.0
 20
0.0
 30
0.0
210
0.0
220
0.0
230
1.0
  2
SOLID
 70
     1
 71
     0
 91
        1
 92
        1
 93
        1
 72
     4
 94
        3
 73
     0
 74
     1
 95
      125
 96
      121
 40
0.0
 40
0.0
 40
0.0
 40
0.0
 40
1.0
 40
1.0
 40
1.0
 40
2.0
 40
2.0
 40
2.0
 40
3.0
 40
3.0
 40
3.0
 40
4.0
 40
4.0
 40
4.0
 40
5.0
 40
5.0
 40
5.0
 40
6.0
 40
6.0
 40
6.0
 40
7.0
 40
7.0
 40
7.0
 40
8.0
 40
8.0
 40
8.0
 40
9.0
 40
9.0
 40
9.0
 40
10.0
 40
10.0
 40
10.0
 40
11.0
 40
11.0
 40
11.0
 40
12.0
 40
12.0
 40
12.0
 40
13.0
 40
13.0
 40
13.0
 40
14.0
 40
14.0
 40
14.0
 40
15.0
 40
15.0
 40
15.0
 40
16.0
 40
16.0
 40
16.0
 40
17.0
 40
17.0
 40
17.0
 40
18.0
 40
18.0
 40
18.0
 40
19.0
 40
19.0
 40
19.0
 40
20.0
 40
20.0
 40
20.0
 40
21.0
 40
21.0
 40
21.0
 40
22.0
 40
22.0
 40
22.0
 40
23.0
 40
23.0
 40
23.0
 40
24.0
 40
24.0
 40
24.0
 40
25.0
 40
25.0
 40
25.0
 40
26.0
 40
26.0
 40
26.0
 40
27.0
 40
27.0
 40
27.0
 40
28.0
 40
28.0
 40
28.0
 40
29.0
 40
29.0
 40
29.0
 40
30.0
 40
30.0
 40
30.0
 40
31.0
 40
31.0
 40
31.0
 40
32.0
 40
32.0
 40
32.0
 40
33.0
 40
33.0
 40
33.0
 40
34.0
 40
34.0
 40
34.0
 40
35.0
 40
35.0
 40
35.0
 40
36.0
 40
36.0
 40
36.0
 40
37.0
 40
37.0
 40
37.0
 40
38.0
 40
38.0
 40
38.0
 40
39.0
 40
39.0
 40
39.0
 40
40.0
 40
40.0
 40
40.0
 40
40.0
 10
60.3371959995662
 20
-24.10847597034867
 10
60.5248888630133
 20
-24.03688416878382
 10
60.71956655782787
 20
-23.9795557845434
 10
60.89921924934176
 20
-23.89154364537557
 10
63.20554093610498
 20
-22.76169005276746
 10
65.6081053304609
 20
-21.92158728410722
 10
68.14066157088615
 20
-21.46798123771942
 10
68.40364264782455
 20
-21.4208798651382
 10
68.66519303111097
 20
-21.36398123298373
 10
68.92511688435091
 20
-21.30203029387298
 10
69.27295495856238
 20
-21.2191248606605
 10
69.7276326652149
 20
-21.16319589064874
 10
69.82599693373776
 20
-21.51726945002726
 10
69.91171887508175
 20
-21.82586680689582
 10
69.74448547485301
 20
-22.26833465840457
 10
69.5561507032281
 20
-22.56818465636469
 10
69.41945690058152
 20
-22.78579968876458
 10
69.0812909682481
 20
-22.92239829316405
 10
68.80615715511422
 20
-22.9995333526438
 10
67.69269126071055
 20
-23.31170472369375
 10
66.54413801247586
 20
-23.51565744769866
 10
65.45497759046286
 20
-23.89342857066255
 10
64.0429319147065
 20
-24.3831881912461
 10
62.67490590828352
 20
-24.99994499304843
 10
61.28871607636535
 20
-25.56397012595702
 10
61.16513243228341
 20
-25.61425655988171
 10
61.03702279155092
 20
-25.66403708312341
 10
60.92896462155139
 20
-25.7396870499534
 10
60.68234132336774
 20
-25.91234131035102
 10
60.20330918522737
 20
-25.8230997538241
 10
60.21199670523804
 20
-26.27784817917336
 10
60.22295810337232
 20
-26.85101778367777
 10
60.31588791197685
 20
-27.42836795119268
 10
60.89072756572529
 20
-27.73739506014718
 10
61.65855854534402
 20
-28.15017465839553
 10
62.49207087537469
 20
-28.30504588628577
 10
63.35072098246773
 20
-28.16076886329211
 10
65.37558769250731
 20
-27.82053304907714
 10
67.16431923121404
 20
-26.94781808100272
 10
68.71905347921641
 20
-25.62021597013342
 10
69.0702969307143
 20
-25.32028437367596
 10
69.2829099752313
 20
-24.86287583731436
 10
69.58969856540992
 20
-24.50391044802377
 10
69.73965484381363
 20
-24.32844919931935
 10
69.95934519799472
 20
-24.21259021297961
 10
70.14747325342711
 20
-24.06975476343851
 10
70.23924436336961
 20
-24.28569158674459
 10
70.39305753074491
 20
-24.49619939003102
 10
70.41250517259763
 20
-24.71846553677602
 10
70.52114541187784
 20
-25.95987787491719
 10
69.77213648563232
 20
-26.78353854637585
 10
68.86683923759243
 20
-27.39586454977538
 10
67.3387387391031
 20
-28.4294482352906
 10
65.69614466912763
 20
-29.27237159200805
 10
63.86787049863835
 20
-29.66802366567626
 10
62.89834979333932
 20
-29.87783516178613
 10
61.92784990607224
 20
-29.93080346632177
 10
60.96992162728633
 20
-29.57634775398086
 10
59.58930225278324
 20
-29.06548404205068
 10
58.98102353484889
 20
-27.95233638178624
 10
58.94030044480571
 20
-26.60828673381443
 10
58.8978311469205
 20
-25.20672102505909
 10
59.06296474581895
 20
-23.79439247451284
 10
59.20388535062402
 20
-22.39346323403597
 10
59.28503777612055
 20
-21.58674513056224
 10
59.49902167539111
 20
-20.79347717939067
 10
59.65020737115455
 20
-19.99358479021542
 10
59.66562404724103
 20
-19.91203797198229
 10
59.66031470501724
 20
-19.82657306590422
 10
59.6706069954745
 20
-19.62677642536073
 10
58.9350128621818
 20
-19.92705889535661
 10
58.26541015359015
 20
-20.18809792805975
 10
57.6069483598277
 20
-20.4747561689595
 10
57.30914104424895
 20
-20.60440802129035
 10
57.04713370937833
 20
-20.82436357058684
 10
56.74332618429952
 20
-20.9295168340833
 10
56.51627564566442
 20
-21.00810298684032
 10
56.2084861139185
 20
-21.0538239848423
 10
56.00817812279236
 20
-20.96055554247421
 10
55.73334350414829
 20
-20.83258189923781
 10
55.75476582963481
 20
-20.52882741318317
 10
55.83478131606888
 20
-20.23095753875715
 10
56.00075265953966
 20
-19.61307739764213
 10
56.33379964614382
 20
-19.20454636115313
 10
56.94014175974289
 20
-18.92753850253156
 10
59.18292541662232
 20
-17.902912972043
 10
61.52002605655942
 20
-17.27448758512955
 10
63.98417555676394
 20
-17.20054710681799
 10
64.60905140904508
 20
-17.18179985206754
 10
65.24860411103796
 20
-17.34973907929755
 10
65.86688136483973
 20
-17.49412490028745
 10
66.55717201244185
 20
-17.65532817156644
 10
67.23197526526009
 20
-17.88388828240199
 10
67.91139155312428
 20
-18.09015840372966
 10
68.2360393344086
 20
-18.18872258857081
 10
68.47611843311036
 20
-18.37000453008134
 10
68.43584685475204
 20
-18.75702620268683
 10
68.39676661445397
 20
-19.13270160424679
 10
68.35325285580328
 20
-19.48864784913776
 10
67.88273960077892
 20
-19.61278908295162
 10
67.17745658927596
 20
-19.79887037607757
 10
66.51000264111306
 20
-19.6439705887132
 10
65.8837396143778
 20
-19.37408763887927
 10
64.59123573713882
 20
-18.81709765641088
 10
63.278223437583
 20
-18.87077858782269
 10
61.94875000117585
 20
-19.13591930498945
 10
61.80182374697139
 20
-19.16521996538846
 10
61.66000555869559
 20
-19.3106856064919
 10
61.55395471172906
 20
-19.43484859990501
 10
61.35641018971057
 20
-19.6661300206243
 10
61.18773521603024
 20
-19.92198754875028
 10
61.00544961300321
 20
-20.1664267271568
 10
60.90900562911635
 20
-20.29575354547289
 10
60.74516672637441
 20
-20.41162069166275
 10
60.72106797017723
 20
-20.55228970110124
 10
60.52415447653757
 20
-21.70193500922496
 10
60.35302066813937
 20
-22.85599887597631
 10
60.1740479641018
 20
-24.00871636752221
 10
60.22843064259015
 20
-24.04197047511387
 10
60.28281332107849
 20
-24.07522186275636
 10
60.3371959995662
 20
-24.10847597034867
 97
        0
 97
        0
 75
     2
 76
     1
 98
        0
  0
SPLINE
  5
55
330
41
100
AcDbEntity
  8
Layer 1
370
     0
100
AcDbSpline
210
0.0
220
0.0
230
1.0
 70
    11
 71
     3
 72
   104
 73
   100
 74
     0
 42
0.0000000001
 43
0.0000000001
 12
1.0
 22
0.0
 32
0.0
 13
1.0
 23
0.0
 33
0.0
 40
0.0
 40
0.0
 40
0.0
 40
0.0
 40
1.0
 40
1.0
 40
1.0
 40
2.0
 40
2.0
 40
2.0
 40
3.0
 40
3.0
 40
3.0
 40
4.0
 40
4.0
 40
4.0
 40
5.0
 40
5.0
 40
5.0
 40
6.0
 40
6.0
 40
6.0
 40
7.0
 40
7.0
 40
7.0
 40
8.0
 40
8.0
 40
8.0
 40
9.0
 40
9.0
 40
9.0
 40
10.0
 40
10.0
 40
10.0
 40
11.0
 40
11.0
 40
11.0
 40
12.0
 40
12.0
 40
12.0
 40
13.0
 40
13.0
 40
13.0
 40
14.0
 40
14.0
 40
14.0
 40
15.0
 40
15.0
 40
15.0
 40
16.0
 40
16.0
 40
16.0
 40
17.0
 40
17.0
 40
17.0
 40
18.0
 40
18.0
 40
18.0
 40
19.0
 40
19.0
 40
19.0
 40
20.0
 40
20.0
 40
20.0
 40
21.0
 40
21.0
 40
21.0
 40
22.0
 40
22.0
 40
22.0
 40
23.0
 40
23.0
 40
23.0
 40
24.0
 40
24.0
 40
24.0
 40
25.0
 40
25.0
 40
25.0
 40
26.0
 40
26.0
 40
26.0
 40
27.0
 40
27.0
 40
27.0
 40
28.0
 40
28.0
 40
28.0
 40
29.0
 40
29.0
 40
29.0
 40
30.0
 40
30.0
 40
30.0
 40
31.0
 40
31.0
 40
31.0
 40
32.0
 40
32.0
 40
32.0
 40
33.0
 40
33.0
 40
33.0
 40
33.0
 10
69.17385630356411
 20
-48.70541819287636
 30
0.0
 10
69.29727131075268
 20
-47.84238896642913
 30
0.0
 10
69.38910225959263
 20
-47.05050818971103
 30
0.0
 10
69.52939727591885
 20
-46.26732037290358
 30
0.0
 10
69.63885894007211
 20
-45.65625642626233
 30
0.0
 10
69.79485350727504
 20
-45.05216643118796
 30
0.0
 10
69.96147763872355
 20
-44.45369585262681
 30
0.0
 10
70.00118890740109
 20
-44.31107255917853
 30
0.0
 10
70.17993313564591
 20
-44.09115100925519
 30
0.0
 10
70.27014299434032
 20
-44.10247960062782
 30
0.0
 10
70.46462485276069
 20
-44.126910190714
 30
0.0
 10
70.73264327693164
 20
-44.23446245003055
 30
0.0
 10
70.80794781012284
 20
-44.38783498552125
 30
0.0
 10
70.93131929811292
 20
-44.63913115764829
 30
0.0
 10
70.98860144320373
 20
-44.96010156665529
 30
0.0
 10
70.96163585980295
 20
-45.24090919529956
 30
0.0
 10
70.88506382995318
 20
-46.03811563394008
 30
0.0
 10
70.70031395230832
 20
-46.82718398245174
 30
0.0
 10
70.65854096160064
 20
-47.62471137518131
 30
0.0
 10
70.62978021125905
 20
-48.17380942298745
 30
0.0
 10
70.6836352194642
 20
-48.75909368438788
 30
0.0
 10
70.85223403454715
 20
-49.27901754946672
 30
0.0
 10
71.09031125011556
 20
-50.01319186890642
 30
0.0
 10
71.5636858924445
 20
-50.25905358111545
 30
0.0
 10
72.3356185565272
 20
-50.22596811041747
 30
0.0
 10
74.26130501307082
 20
-50.14345570996668
 30
0.0
 10
75.86524315493355
 20
-49.39381031544205
 30
0.0
 10
76.9530000827938
 20
-47.78171776375021
 30
0.0
 10
77.4992911422938
 20
-46.97209747372322
 30
0.0
 10
77.63867225545033
 20
-45.99055458982483
 30
0.0
 10
77.61078188907929
 20
-45.00714582028824
 30
0.0
 10
77.60840465285908
 20
-44.92318096658559
 30
0.0
 10
77.57989957780818
 20
-44.82047021810708
 30
0.0
 10
77.52581609380996
 20
-44.76044636350722
 30
0.0
 10
76.95481156943421
 20
-44.12663275582343
 30
0.0
 10
77.27162589497851
 20
-43.50786319108845
 30
0.0
 10
77.5683397906933
 20
-42.90487205577768
 30
0.0
 10
77.70629565009752
 20
-42.62451321886813
 30
0.0
 10
78.25427851844044
 20
-42.65885258647364
 30
0.0
 10
78.47721649281358
 20
-43.00139763816124
 30
0.0
 10
78.69874553313335
 20
-43.34177760972147
 30
0.0
 10
78.92073696493698
 20
-43.73602346928614
 30
0.0
 10
78.96680747650215
 20
-44.12733450289965
 30
0.0
 10
79.20401430809937
 20
-46.14211563867513
 30
0.0
 10
78.79531463471541
 20
-48.04526459027032
 30
0.0
 10
77.44933110235846
 20
-49.57930545936161
 30
0.0
 10
76.17179782942074
 20
-51.03533272515313
 30
0.0
 10
74.4254811896011
 20
-51.75502059137563
 30
0.0
 10
72.51150139746743
 20
-51.98300679277999
 30
0.0
 10
71.13619136518653
 20
-52.14682393592236
 30
0.0
 10
70.00370758101673
 20
-51.38673393374541
 30
0.0
 10
69.52769458727597
 20
-50.08813192880943
 30
0.0
 10
69.4481795716249
 20
-49.87121592353657
 30
0.0
 10
69.36770713360566
 20
-49.65465351175131
 30
0.0
 10
69.27820990178742
 20
-49.412289655126
 30
0.0
 10
68.1430224874074
 20
-50.76847843954354
 30
0.0
 10
66.83549360686936
 20
-51.84887518294882
 30
0.0
 10
65.30720271188582
 20
-52.63197596135865
 30
0.0
 10
64.1149561883068
 20
-53.24289303070545
 30
0.0
 10
62.85308438694695
 20
-53.59594252894347
 30
0.0
 10
61.48180532043292
 20
-53.34507610890109
 30
0.0
 10
60.03333407548991
 20
-53.08007682912975
 30
0.0
 10
59.51115809188669
 20
-52.36628581431105
 30
0.0
 10
59.34072603056471
 20
-51.00719756329007
 30
0.0
 10
59.18752213196898
 20
-49.78558102058958
 30
0.0
 10
59.55793579042838
 20
-48.62333010461122
 30
0.0
 10
59.81764204767617
 20
-47.45132000835781
 30
0.0
 10
59.84007075462836
 20
-47.35011067222931
 30
0.0
 10
59.87699679459867
 20
-47.25215983609343
 30
0.0
 10
59.90593706163454
 20
-47.1523376744184
 30
0.0
 10
60.44414986990343
 20
-45.29589570266815
 30
0.0
 10
61.70257821467739
 20
-44.27040930803312
 30
0.0
 10
63.64243561024914
 20
-44.10773998375313
 30
0.0
 10
64.41959601805732
 20
-44.04256998392385
 30
0.0
 10
65.00446684707171
 20
-44.41019841367571
 30
0.0
 10
65.19133284574613
 20
-45.06923683681918
 30
0.0
 10
65.28149374534239
 20
-45.38723162062506
 30
0.0
 10
65.25367409766939
 20
-45.70533520242654
 30
0.0
 10
64.96199210928685
 20
-45.85520988233354
 30
0.0
 10
64.75974751382448
 20
-45.95913916837119
 30
0.0
 10
64.43949517159426
 20
-45.98572395878546
 30
0.0
 10
64.23136460452835
 20
-45.9009866393092
 30
0.0
 10
62.96393866545429
 20
-45.3849849419997
 30
0.0
 10
61.15289265769061
 20
-46.356605448629
 30
0.0
 10
60.96010260811382
 20
-47.7012888449301
 30
0.0
 10
60.84883489722078
 20
-48.47730687377618
 30
0.0
 10
60.70306734167737
 20
-49.25858528574693
 30
0.0
 10
60.70129393433612
 20
-50.03779109588694
 30
0.0
 10
60.69835094853452
 20
-51.33163318848158
 30
0.0
 10
61.09323327637863
 20
-51.66007257993913
 30
0.0
 10
62.37588549504559
 20
-51.65743422852731
 30
0.0
 10
63.77978220087346
 20
-51.65454564172319
 30
0.0
 10
64.97407956668397
 20
-51.06945721671599
 30
0.0
 10
66.06644408969083
 20
-50.27581935235656
 30
0.0
 10
66.72132642937257
 20
-49.80002939450858
 30
0.0
 10
67.32466027837228
 20
-49.23829989932286
 30
0.0
 10
67.88556834868496
 20
-48.65239548934291
 30
0.0
 10
68.44035109180207
 20
-48.07289384144975
 30
0.0
 10
68.63209124071403
 20
-48.03401487744456
 30
0.0
 10
69.17385630356411
 20
-48.70541819287636
 30
0.0
  0
HATCH
  5
56
330
41
100
AcDbEntity
  8
Layer 1
 62
     7
420
 16777215
100
AcDbHatch
 10
0.0
 20
0.0
 30
0.0
210
0.0
220
0.0
230
1.0
  2
SOLID
 70
     1
 71
     0
 91
        1
 92
        1
 93
        1
 72
     4
 94
        3
 73
     0
 74
     1
 95
      104
 96
      100
 40
0.0
 40
0.0
 40
0.0
 40
0.0
 40
1.0
 40
1.0
 40
1.0
 40
2.0
 40
2.0
 40
2.0
 40
3.0
 40
3.0
 40
3.0
 40
4.0
 40
4.0
 40
4.0
 40
5.0
 40
5.0
 40
5.0
 40
6.0
 40
6.0
 40
6.0
 40
7.0
 40
7.0
 40
7.0
 40
8.0
 40
8.0
 40
8.0
 40
9.0
 40
9.0
 40
9.0
 40
10.0
 40
10.0
 40
10.0
 40
11.0
 40
11.0
 40
11.0
 40
12.0
 40
12.0
 40
12.0
 40
13.0
 40
13.0
 40
13.0
 40
14.0
 40
14.0
 40
14.0
 40
15.0
 40
15.0
 40
15.0
 40
16.0
 40
16.0
 40
16.0
 40
17.0
 40
17.0
 40
17.0
 40
18.0
 40
18.0
 40
18.0
 40
19.0
 40
19.0
 40
19.0
 40
20.0
 40
20.0
 40
20.0
 40
21.0
 40
21.0
 40
21.0
 40
22.0
 40
22.0
 40
22.0
 40
23.0
 40
23.0
 40
23.0
 40
24.0
 40
24.0
 40
24.0
 40
25.0
 40
25.0
 40
25.0
 40
26.0
 40
26.0
 40
26.0
 40
27.0
 40
27.0
 40
27.0
 40
28.0
 40
28.0
 40
28.0
 40
29.0
 40
29.0
 40
29.0
 40
30.0
 40
30.0
 40
30.0
 40
31.0
 40
31.0
 40
31.0
 40
32.0
 40
32.0
 40
32.0
 40
33.0
 40
33.0
 40
33.0
 40
33.0
 10
69.17385630356411
 20
-48.70541819287636
 10
69.29727131075268
 20
-47.84238896642913
 10
69.38910225959263
 20
-47.05050818971103
 10
69.52939727591885
 20
-46.26732037290358
 10
69.63885894007211
 20
-45.65625642626233
 10
69.79485350727504
 20
-45.05216643118796
 10
69.96147763872355
 20
-44.45369585262681
 10
70.00118890740109
 20
-44.31107255917853
 10
70.17993313564591
 20
-44.09115100925519
 10
70.27014299434032
 20
-44.10247960062782
 10
70.46462485276069
 20
-44.126910190714
 10
70.73264327693164
 20
-44.23446245003055
 10
70.80794781012284
 20
-44.38783498552125
 10
70.93131929811292
 20
-44.63913115764829
 10
70.98860144320373
 20
-44.96010156665529
 10
70.96163585980295
 20
-45.24090919529956
 10
70.88506382995318
 20
-46.03811563394008
 10
70.70031395230832
 20
-46.82718398245174
 10
70.65854096160064
 20
-47.62471137518131
 10
70.62978021125905
 20
-48.17380942298745
 10
70.6836352194642
 20
-48.75909368438788
 10
70.85223403454715
 20
-49.27901754946672
 10
71.09031125011556
 20
-50.01319186890642
 10
71.5636858924445
 20
-50.25905358111545
 10
72.3356185565272
 20
-50.22596811041747
 10
74.26130501307082
 20
-50.14345570996668
 10
75.86524315493355
 20
-49.39381031544205
 10
76.9530000827938
 20
-47.78171776375021
 10
77.4992911422938
 20
-46.97209747372322
 10
77.63867225545033
 20
-45.99055458982483
 10
77.61078188907929
 20
-45.00714582028824
 10
77.60840465285908
 20
-44.92318096658559
 10
77.57989957780818
 20
-44.82047021810708
 10
77.52581609380996
 20
-44.76044636350722
 10
76.95481156943421
 20
-44.12663275582343
 10
77.27162589497851
 20
-43.50786319108845
 10
77.5683397906933
 20
-42.90487205577768
 10
77.70629565009752
 20
-42.62451321886813
 10
78.25427851844044
 20
-42.65885258647364
 10
78.47721649281358
 20
-43.00139763816124
 10
78.69874553313335
 20
-43.34177760972147
 10
78.92073696493698
 20
-43.73602346928614
 10
78.96680747650215
 20
-44.12733450289965
 10
79.20401430809937
 20
-46.14211563867513
 10
78.79531463471541
 20
-48.04526459027032
 10
77.44933110235846
 20
-49.57930545936161
 10
76.17179782942074
 20
-51.03533272515313
 10
74.4254811896011
 20
-51.75502059137563
 10
72.51150139746743
 20
-51.98300679277999
 10
71.13619136518653
 20
-52.14682393592236
 10
70.00370758101673
 20
-51.38673393374541
 10
69.52769458727597
 20
-50.08813192880943
 10
69.4481795716249
 20
-49.87121592353657
 10
69.36770713360566
 20
-49.65465351175131
 10
69.27820990178742
 20
-49.412289655126
 10
68.1430224874074
 20
-50.76847843954354
 10
66.83549360686936
 20
-51.84887518294882
 10
65.30720271188582
 20
-52.63197596135865
 10
64.1149561883068
 20
-53.24289303070545
 10
62.85308438694695
 20
-53.59594252894347
 10
61.48180532043292
 20
-53.34507610890109
 10
60.03333407548991
 20
-53.08007682912975
 10
59.51115809188669
 20
-52.36628581431105
 10
59.34072603056471
 20
-51.00719756329007
 10
59.18752213196898
 20
-49.78558102058958
 10
59.55793579042838
 20
-48.62333010461122
 10
59.81764204767617
 20
-47.45132000835781
 10
59.84007075462836
 20
-47.35011067222931
 10
59.87699679459867
 20
-47.25215983609343
 10
59.90593706163454
 20
-47.1523376744184
 10
60.44414986990343
 20
-45.29589570266815
 10
61.70257821467739
 20
-44.27040930803312
 10
63.64243561024914
 20
-44.10773998375313
 10
64.41959601805732
 20
-44.04256998392385
 10
65.00446684707171
 20
-44.41019841367571
 10
65.19133284574613
 20
-45.06923683681918
 10
65.28149374534239
 20
-45.38723162062506
 10
65.25367409766939
 20
-45.70533520242654
 10
64.96199210928685
 20
-45.85520988233354
 10
64.75974751382448
 20
-45.95913916837119
 10
64.43949517159426
 20
-45.98572395878546
 10
64.23136460452835
 20
-45.9009866393092
 10
62.96393866545429
 20
-45.3849849419997
 10
61.15289265769061
 20
-46.356605448629
 10
60.96010260811382
 20
-47.7012888449301
 10
60.84883489722078
 20
-48.47730687377618
 10
60.70306734167737
 20
-49.25858528574693
 10
60.70129393433612
 20
-50.03779109588694
 10
60.69835094853452
 20
-51.33163318848158
 10
61.09323327637863
 20
-51.66007257993913
 10
62.37588549504559
 20
-51.65743422852731
 10
63.77978220087346
 20
-51.65454564172319
 10
64.97407956668397
 20
-51.06945721671599
 10
66.06644408969083
 20
-50.27581935235656
 10
66.72132642937257
 20
-49.80002939450858
 10
67.32466027837228
 20
-49.23829989932286
 10
67.88556834868496
 20
-48.65239548934291
 10
68.44035109180207
 20
-48.07289384144975
 10
68.63209124071403
 20
-48.03401487744456
 10
69.17385630356411
 20
-48.70541819287636
 97
        0
 97
        0
 75
     2
 76
     1
 98
        0
  0
SPLINE
  5
57
330
41
100
AcDbEntity
  8
Layer 1
370
     0
100
AcDbSpline
210
0.0
220
0.0
230
1.0
 70
    11
 71
     3
 72
    59
 73
    55
 74
     0
 42
0.0000000001
 43
0.0000000001
 12
1.0
 22
0.0
 32
0.0
 13
1.0
 23
0.0
 33
0.0
 40
0.0
 40
0.0
 40
0.0
 40
0.0
 40
1.0
 40
1.0
 40
1.0
 40
2.0
 40
2.0
 40
2.0
 40
3.0
 40
3.0
 40
3.0
 40
4.0
 40
4.0
 40
4.0
 40
5.0
 40
5.0
 40
5.0
 40
6.0
 40
6.0
 40
6.0
 40
7.0
 40
7.0
 40
7.0
 40
8.0
 40
8.0
 40
8.0
 40
9.0
 40
9.0
 40
9.0
 40
10.0
 40
10.0
 40
10.0
 40
11.0
 40
11.0
 40
11.0
 40
12.0
 40
12.0
 40
12.0
 40
13.0
 40
13.0
 40
13.0
 40
14.0
 40
14.0
 40
14.0
 40
15.0
 40
15.0
 40
15.0
 40
16.0
 40
16.0
 40
16.0
 40
17.0
 40
17.0
 40
17.0
 40
18.0
 40
18.0
 40
18.0
 40
18.0
 10
85.67175055822017
 20
-45.45268993514422
 30
0.0
 10
86.29053916260457
 20
-45.76556577322085
 30
0.0
 10
86.93694613836911
 20
-46.05539819566413
 30
0.0
 10
87.54362008585686
 20
-46.4127016955605
 30
0.0
 10
87.92205215664895
 20
-46.63557439113525
 30
0.0
 10
88.2652554362149
 20
-46.93506807565729
 30
0.0
 10
88.58067170750641
 20
-47.2446038152446
 30
0.0
 10
89.22302051800646
 20
-47.87495764664418
 30
0.0
 10
89.40198778214342
 20
-48.67341526224239
 30
0.0
 10
89.2711418718025
 20
-49.53831581422749
 30
0.0
 10
89.20054285195484
 20
-50.00498306008017
 30
0.0
 10
88.9080394386999
 20
-50.32564339479676
 30
0.0
 10
88.47241770111302
 20
-50.53167960043236
 30
0.0
 10
87.37517902786891
 20
-51.05064604314239
 30
0.0
 10
86.2193145542771
 20
-51.22429852515751
 30
0.0
 10
85.01469769851045
 20
-51.22338462198783
 30
0.0
 10
84.55214845682097
 20
-51.22303646839922
 30
0.0
 10
84.09136718257214
 20
-51.40740011315663
 30
0.0
 10
83.62619590916981
 20
-51.42848516485449
 30
0.0
 10
83.34104724047019
 20
-51.44140492692395
 30
0.0
 10
82.95793141593381
 20
-51.39455106978522
 30
0.0
 10
82.77986717516595
 20
-51.21490925806966
 30
0.0
 10
82.44691266685908
 20
-50.87899544426126
 30
0.0
 10
82.11205963351479
 20
-50.45975324502868
 30
0.0
 10
81.9899665219826
 20
-50.01675500328787
 30
0.0
 10
81.67996839091015
 20
-48.89188707886435
 30
0.0
 10
81.4684487662571
 20
-47.73817136570096
 30
0.0
 10
81.25672242541152
 20
-46.58878037289396
 30
0.0
 10
81.17460169774719
 20
-46.14296970294671
 30
0.0
 10
81.0712544809902
 20
-45.838128596903
 30
0.0
 10
80.54584719689456
 20
-45.73407419317016
 30
0.0
 10
79.97299310657955
 20
-45.62061964254952
 30
0.0
 10
79.79410744093994
 20
-45.28286170270216
 30
0.0
 10
79.92023151823773
 20
-44.70462211156728
 30
0.0
 10
80.03773879422319
 20
-44.16589523276496
 30
0.0
 10
80.25102638631752
 20
-43.66893046487166
 30
0.0
 10
80.78854288740888
 20
-43.38393139341694
 30
0.0
 10
80.97823219408936
 20
-43.28335580561774
 30
0.0
 10
81.13017403592745
 20
-43.11234167501572
 30
0.0
 10
81.30194431260476
 20
-42.97676305183235
 30
0.0
 10
81.35865526821549
 20
-42.93200627607343
 30
0.0
 10
81.42700760943842
 20
-42.85891034220874
 30
0.0
 10
81.4840830383367
 20
-42.86411088643533
 30
0.0
 10
82.47736522604424
 20
-42.95463897926962
 30
0.0
 10
83.33814233396647
 20
-42.36790498456715
 30
0.0
 10
84.29636980724251
 20
-42.31661760907579
 30
0.0
 10
84.75919648382255
 20
-42.2918443053013
 30
0.0
 10
85.26232737816073
 20
-42.28199808662925
 30
0.0
 10
85.68553526436116
 20
-42.43546038046676
 30
0.0
 10
86.25964053163386
 20
-42.64363718668067
 30
0.0
 10
86.50486033566412
 20
-43.3438338918526
 30
0.0
 10
86.29516851735043
 20
-44.01680117848233
 30
0.0
 10
86.13911955114907
 20
-44.51760379569718
 30
0.0
 10
85.8786517079273
 20
-44.98586493219715
 30
0.0
 10
85.67175055822017
 20
-45.45268993514422
 30
0.0
  0
SPLINE
  5
58
330
41
100
AcDbEntity
  8
Layer 1
370
     0
100
AcDbSpline
210
0.0
220
0.0
230
1.0
 70
    11
 71
     3
 72
    26
 73
    22
 74
     0
 42
0.0000000001
 43
0.0000000001
 12
1.0
 22
0.0
 32
0.0
 13
1.0
 23
0.0
 33
0.0
 40
0.0
 40
0.0
 40
0.0
 40
0.0
 40
1.0
 40
1.0
 40
1.0
 40
2.0
 40
2.0
 40
2.0
 40
3.0
 40
3.0
 40
3.0
 40
4.0
 40
4.0
 40
4.0
 40
5.0
 40
5.0
 40
5.0
 40
6.0
 40
6.0
 40
6.0
 40
7.0
 40
7.0
 40
7.0
 40
7.0
 10
83.17884030767407
 20
-48.59276874742917
 30
0.0
 10
83.71200488891078
 20
-48.23975188859035
 30
0.0
 10
83.89304475487975
 20
-48.30673881495841
 30
0.0
 10
84.15383899209088
 20
-48.91714997362223
 30
0.0
 10
84.21657735670024
 20
-49.06401094902927
 30
0.0
 10
84.35289580625867
 20
-49.29604443589945
 30
0.0
 10
84.44999801802389
 20
-49.29337344508779
 30
0.0
 10
85.31795035380715
 20
-49.26948684498409
 30
0.0
 10
86.18540765870736
 20
-49.21012121826131
 30
0.0
 10
87.05100451786902
 20
-49.13741695718372
 30
0.0
 10
87.17174853424595
 20
-49.12727698392151
 30
0.0
 10
87.37984646191298
 20
-48.9822166153543
 30
0.0
 10
87.37545646275949
 20
-48.91007266395813
 30
0.0
 10
87.36716605543589
 20
-48.77372157500115
 30
0.0
 10
87.2615232009554
 20
-48.61121544771457
 30
0.0
 10
87.14818832813158
 20
-48.5183019588106
 30
0.0
 10
86.05438767157246
 20
-47.62156167318557
 30
0.0
 10
84.84421123819067
 20
-47.29279588773866
 30
0.0
 10
83.46865097051874
 20
-47.79052496155674
 30
0.0
 10
83.02283486067184
 20
-47.95182887098249
 30
0.0
 10
82.9549013917349
 20
-48.11320349910628
 30
0.0
 10
83.17884030767407
 20
-48.59276874742917
 30
0.0
  0
SPLINE
  5
59
330
41
100
AcDbEntity
  8
Layer 1
370
     0
100
AcDbSpline
210
0.0
220
0.0
230
1.0
 70
    11
 71
     3
 72
    20
 73
    16
 74
     0
 42
0.0000000001
 43
0.0000000001
 12
1.0
 22
0.0
 32
0.0
 13
1.0
 23
0.0
 33
0.0
 40
0.0
 40
0.0
 40
0.0
 40
0.0
 40
1.0
 40
1.0
 40
1.0
 40
2.0
 40
2.0
 40
2.0
 40
3.0
 40
3.0
 40
3.0
 40
4.0
 40
4.0
 40
4.0
 40
5.0
 40
5.0
 40
5.0
 40
5.0
 10
82.63752131660888
 20
-45.52498620373576
 30
0.0
 10
82.6885040577095
 20
-45.54566870284658
 30
0.0
 10
82.7394867988114
 20
-45.56635120195739
 30
0.0
 10
82.79046953991265
 20
-45.58703370106821
 30
0.0
 10
83.19286980930643
 20
-45.23636143905168
 30
0.0
 10
83.5952700787002
 20
-44.88568917703451
 30
0.0
 10
83.99767034809398
 20
-44.535022354917
 30
0.0
 10
83.96724498840706
 20
-44.4902682991079
 30
0.0
 10
83.93681962872142
 20
-44.44551424329945
 30
0.0
 10
83.90639426903451
 20
-44.40076018749036
 30
0.0
 10
83.44034717176135
 20
-44.28817058094126
 30
0.0
 10
82.99049465624921
 20
-44.43407413398012
 30
0.0
 10
82.6601077806561
 20
-44.72646330933916
 30
0.0
 10
82.52378933109767
 20
-44.84710940751978
 30
0.0
 10
82.63752131660888
 20
-45.25030390228706
 30
0.0
 10
82.63752131660888
 20
-45.52498620373576
 30
0.0
  0
HATCH
  5
5A
330
41
100
AcDbEntity
  8
Layer 1
 62
     7
420
 16777215
100
AcDbHatch
 10
0.0
 20
0.0
 30
0.0
210
0.0
220
0.0
230
1.0
  2
SOLID
 70
     1
 71
     0
 91
        3
 92
        1
 93
        1
 72
     4
 94
        3
 73
     0
 74
     1
 95
       59
 96
       55
 40
0.0
 40
0.0
 40
0.0
 40
0.0
 40
1.0
 40
1.0
 40
1.0
 40
2.0
 40
2.0
 40
2.0
 40
3.0
 40
3.0
 40
3.0
 40
4.0
 40
4.0
 40
4.0
 40
5.0
 40
5.0
 40
5.0
 40
6.0
 40
6.0
 40
6.0
 40
7.0
 40
7.0
 40
7.0
 40
8.0
 40
8.0
 40
8.0
 40
9.0
 40
9.0
 40
9.0
 40
10.0
 40
10.0
 40
10.0
 40
11.0
 40
11.0
 40
11.0
 40
12.0
 40
12.0
 40
12.0
 40
13.0
 40
13.0
 40
13.0
 40
14.0
 40
14.0
 40
14.0
 40
15.0
 40
15.0
 40
15.0
 40
16.0
 40
16.0
 40
16.0
 40
17.0
 40
17.0
 40
17.0
 40
18.0
 40
18.0
 40
18.0
 40
18.0
 10
85.67175055822017
 20
-45.45268993514422
 10
86.29053916260457
 20
-45.76556577322085
 10
86.93694613836911
 20
-46.05539819566413
 10
87.54362008585686
 20
-46.4127016955605
 10
87.92205215664895
 20
-46.63557439113525
 10
88.2652554362149
 20
-46.93506807565729
 10
88.58067170750641
 20
-47.2446038152446
 10
89.22302051800646
 20
-47.87495764664418
 10
89.40198778214342
 20
-48.67341526224239
 10
89.2711418718025
 20
-49.53831581422749
 10
89.20054285195484
 20
-50.00498306008017
 10
88.9080394386999
 20
-50.32564339479676
 10
88.47241770111302
 20
-50.53167960043236
 10
87.37517902786891
 20
-51.05064604314239
 10
86.2193145542771
 20
-51.22429852515751
 10
85.01469769851045
 20
-51.22338462198783
 10
84.55214845682097
 20
-51.22303646839922
 10
84.09136718257214
 20
-51.40740011315663
 10
83.62619590916981
 20
-51.42848516485449
 10
83.34104724047019
 20
-51.44140492692395
 10
82.95793141593381
 20
-51.39455106978522
 10
82.77986717516595
 20
-51.21490925806966
 10
82.44691266685908
 20
-50.87899544426126
 10
82.11205963351479
 20
-50.45975324502868
 10
81.9899665219826
 20
-50.01675500328787
 10
81.67996839091015
 20
-48.89188707886435
 10
81.4684487662571
 20
-47.73817136570096
 10
81.25672242541152
 20
-46.58878037289396
 10
81.17460169774719
 20
-46.14296970294671
 10
81.0712544809902
 20
-45.838128596903
 10
80.54584719689456
 20
-45.73407419317016
 10
79.97299310657955
 20
-45.62061964254952
 10
79.79410744093994
 20
-45.28286170270216
 10
79.92023151823773
 20
-44.70462211156728
 10
80.03773879422319
 20
-44.16589523276496
 10
80.25102638631752
 20
-43.66893046487166
 10
80.78854288740888
 20
-43.38393139341694
 10
80.97823219408936
 20
-43.28335580561774
 10
81.13017403592745
 20
-43.11234167501572
 10
81.30194431260476
 20
-42.97676305183235
 10
81.35865526821549
 20
-42.93200627607343
 10
81.42700760943842
 20
-42.85891034220874
 10
81.4840830383367
 20
-42.86411088643533
 10
82.47736522604424
 20
-42.95463897926962
 10
83.33814233396647
 20
-42.36790498456715
 10
84.29636980724251
 20
-42.31661760907579
 10
84.75919648382255
 20
-42.2918443053013
 10
85.26232737816073
 20
-42.28199808662925
 10
85.68553526436116
 20
-42.43546038046676
 10
86.25964053163386
 20
-42.64363718668067
 10
86.50486033566412
 20
-43.3438338918526
 10
86.29516851735043
 20
-44.01680117848233
 10
86.13911955114907
 20
-44.51760379569718
 10
85.8786517079273
 20
-44.98586493219715
 10
85.67175055822017
 20
-45.45268993514422
 97
        0
 97
        0
 92
        1
 93
        1
 72
     4
 94
        3
 73
     0
 74
     1
 95
       26
 96
       22
 40
0.0
 40
0.0
 40
0.0
 40
0.0
 40
1.0
 40
1.0
 40
1.0
 40
2.0
 40
2.0
 40
2.0
 40
3.0
 40
3.0
 40
3.0
 40
4.0
 40
4.0
 40
4.0
 40
5.0
 40
5.0
 40
5.0
 40
6.0
 40
6.0
 40
6.0
 40
7.0
 40
7.0
 40
7.0
 40
7.0
 10
83.17884030767407
 20
-48.59276874742917
 10
83.71200488891078
 20
-48.23975188859035
 10
83.89304475487975
 20
-48.30673881495841
 10
84.15383899209088
 20
-48.91714997362223
 10
84.21657735670024
 20
-49.06401094902927
 10
84.35289580625867
 20
-49.29604443589945
 10
84.44999801802389
 20
-49.29337344508779
 10
85.31795035380715
 20
-49.26948684498409
 10
86.18540765870736
 20
-49.21012121826131
 10
87.05100451786902
 20
-49.13741695718372
 10
87.17174853424595
 20
-49.12727698392151
 10
87.37984646191298
 20
-48.9822166153543
 10
87.37545646275949
 20
-48.91007266395813
 10
87.36716605543589
 20
-48.77372157500115
 10
87.2615232009554
 20
-48.61121544771457
 10
87.14818832813158
 20
-48.5183019588106
 10
86.05438767157246
 20
-47.62156167318557
 10
84.84421123819067
 20
-47.29279588773866
 10
83.46865097051874
 20
-47.79052496155674
 10
83.02283486067184
 20
-47.95182887098249
 10
82.9549013917349
 20
-48.11320349910628
 10
83.17884030767407
 20
-48.59276874742917
 97
        0
 97
        0
 92
        1
 93
        1
 72
     4
 94
        3
 73
     0
 74
     1
 95
       20
 96
       16
 40
0.0
 40
0.0
 40
0.0
 40
0.0
 40
1.0
 40
1.0
 40
1.0
 40
2.0
 40
2.0
 40
2.0
 40
3.0
 40
3.0
 40
3.0
 40
4.0
 40
4.0
 40
4.0
 40
5.0
 40
5.0
 40
5.0
 40
5.0
 10
82.63752131660888
 20
-45.52498620373576
 10
82.6885040577095
 20
-45.54566870284658
 10
82.7394867988114
 20
-45.56635120195739
 10
82.79046953991265
 20
-45.58703370106821
 10
83.19286980930643
 20
-45.23636143905168
 10
83.5952700787002
 20
-44.88568917703451
 10
83.99767034809398
 20
-44.535022354917
 10
83.96724498840706
 20
-44.4902682991079
 10
83.93681962872142
 20
-44.44551424329945
 10
83.90639426903451
 20
-44.40076018749036
 10
83.44034717176135
 20
-44.28817058094126
 10
82.99049465624921
 20
-44.43407413398012
 10
82.6601077806561
 20
-44.72646330933916
 10
82.52378933109767
 20
-44.84710940751978
 10
82.63752131660888
 20
-45.25030390228706
 10
82.63752131660888
 20
-45.52498620373576
 97
        0
 97
        0
 75
     2
 76
     1
 98
        0
  0
SPLINE
  5
5B
330
41
100
AcDbEntity
  8
Layer 1
370
     0
100
AcDbSpline
210
0.0
220
0.0
230
1.0
 70
    11
 71
     3
 72
    83
 73
    79
 74
     0
 42
0.0000000001
 43
0.0000000001
 12
1.0
 22
0.0
 32
0.0
 13
1.0
 23
0.0
 33
0.0
 40
0.0
 40
0.0
 40
0.0
 40
0.0
 40
1.0
 40
1.0
 40
1.0
 40
2.0
 40
2.0
 40
2.0
 40
3.0
 40
3.0
 40
3.0
 40
4.0
 40
4.0
 40
4.0
 40
5.0
 40
5.0
 40
5.0
 40
6.0
 40
6.0
 40
6.0
 40
7.0
 40
7.0
 40
7.0
 40
8.0
 40
8.0
 40
8.0
 40
9.0
 40
9.0
 40
9.0
 40
10.0
 40
10.0
 40
10.0
 40
11.0
 40
11.0
 40
11.0
 40
12.0
 40
12.0
 40
12.0
 40
13.0
 40
13.0
 40
13.0
 40
14.0
 40
14.0
 40
14.0
 40
15.0
 40
15.0
 40
15.0
 40
16.0
 40
16.0
 40
16.0
 40
17.0
 40
17.0
 40
17.0
 40
18.0
 40
18.0
 40
18.0
 40
19.0
 40
19.0
 40
19.0
 40
20.0
 40
20.0
 40
20.0
 40
21.0
 40
21.0
 40
21.0
 40
22.0
 40
22.0
 40
22.0
 40
23.0
 40
23.0
 40
23.0
 40
24.0
 40
24.0
 40
24.0
 40
25.0
 40
25.0
 40
25.0
 40
26.0
 40
26.0
 40
26.0
 40
26.0
 10
90.90336749272302
 20
-11.34153020651679
 30
0.0
 10
91.00719342066473
 20
-11.36631303011664
 30
0.0
 10
91.14359346871986
 20
-11.41578619901841
 30
0.0
 10
91.28352945165817
 20
-11.42970962260436
 30
0.0
 10
93.08791702204311
 20
-11.60925215614775
 30
0.0
 10
94.69137101282274
 20
-11.11466870440035
 30
0.0
 10
96.08079758513236
 20
-9.955609649640353
 30
0.0
 10
96.59405213303252
 20
-9.52744533471806
 30
0.0
 10
96.59014628496276
 20
-9.192602501185785
 30
0.0
 10
96.11016216435387
 20
-8.727942578366738
 30
0.0
 10
95.58236132433778
 20
-8.216980948239623
 30
0.0
 10
94.95205101213733
 20
-7.867016553186905
 30
0.0
 10
94.21925298735115
 20
-7.819733623949525
 30
0.0
 10
92.88849029468747
 20
-7.733866165285057
 30
0.0
 10
91.55325600437166
 20
-7.719519789488047
 30
0.0
 10
90.22126933424852
 20
-7.649192764631304
 30
0.0
 10
89.70510443994499
 20
-7.621940226513968
 30
0.0
 10
89.18760133028613
 20
-7.549941792437655
 30
0.0
 10
88.67983020140278
 20
-7.45133884831036
 30
0.0
 10
88.01720144437897
 20
-7.322662778009813
 30
0.0
 10
87.53339851409731
 20
-6.900482352887663
 30
0.0
 10
87.16714637899963
 20
-6.357795227017787
 30
0.0
 10
87.05178786344258
 20
-6.186862014925173
 30
0.0
 10
86.940987983934
 20
-5.906820732167561
 30
0.0
 10
87.00256220998266
 20
-5.741819730827118
 30
0.0
 10
87.21185691560959
 20
-5.180943619925691
 30
0.0
 10
87.38104867977317
 20
-4.530620596279719
 30
0.0
 10
87.78177346002296
 20
-4.131553965493382
 30
0.0
 10
88.55588208403233
 20
-3.360617823059623
 30
0.0
 10
89.48023530113655
 20
-2.739123208508838
 30
0.0
 10
90.54034665811777
 20
-2.380575671523304
 30
0.0
 10
91.57608182401125
 20
-2.030270942737491
 30
0.0
 10
92.53303636072907
 20
-2.45568980822029
 30
0.0
 10
92.93564334631601
 20
-3.409203608303315
 30
0.0
 10
93.09992832084254
 20
-3.798281563040592
 30
0.0
 10
92.88521547499589
 20
-4.079911976532819
 30
0.0
 10
92.63339163258597
 20
-4.24931793675176
 30
0.0
 10
92.46114264472457
 20
-4.365198002703132
 30
0.0
 10
92.05518468084965
 20
-4.382736239718822
 30
0.0
 10
91.92053628053556
 20
-4.260490810991895
 30
0.0
 10
91.44545350966344
 20
-3.829176454080213
 30
0.0
 10
90.92541540668935
 20
-3.833892167235766
 30
0.0
 10
90.42882871183338
 20
-4.061963707068546
 30
0.0
 10
89.86887262398858
 20
-4.319139050925514
 30
0.0
 10
89.34822525223427
 20
-4.67308069273364
 30
0.0
 10
88.83976325607465
 20
-5.027009414779612
 30
0.0
 10
88.53628212498552
 20
-5.238259764390929
 30
0.0
 10
88.57083092873403
 20
-5.469188271609909
 30
0.0
 10
88.91215200296283
 20
-5.633568444384179
 30
0.0
 10
89.1474766292229
 20
-5.746901277245462
 30
0.0
 10
89.41641439646317
 20
-5.834999774822991
 30
0.0
 10
89.6748041979539
 20
-5.848437687349971
 30
0.0
 10
91.05243162755757
 20
-5.920090007800211
 30
0.0
 10
92.43203918069403
 20
-5.953274756669719
 30
0.0
 10
93.80985700679062
 20
-6.021865093509789
 30
0.0
 10
95.13219873453524
 20
-6.087694681191391
 30
0.0
 10
96.32042517214829
 20
-6.507561788915845
 30
0.0
 10
97.2298349844511
 20
-7.510034007379597
 30
0.0
 10
98.34847422358246
 20
-8.74315661818511
 30
0.0
 10
98.38643384451704
 20
-10.08690571169123
 30
0.0
 10
96.92268736088394
 20
-11.2597848319406
 30
0.0
 10
95.73298127051949
 20
-12.21306879625597
 30
0.0
 10
94.4120103975294
 20
-12.87403158395987
 30
0.0
 10
92.90126317946184
 20
-13.15708045132985
 30
0.0
 10
91.80144599370338
 20
-13.36313977654058
 30
0.0
 10
90.73903355909836
 20
-13.23141804232881
 30
0.0
 10
89.70193297835064
 20
-12.87473741096179
 30
0.0
 10
88.93616916066267
 20
-12.61137282108642
 30
0.0
 10
88.83219091552687
 20
-12.17682002381376
 30
0.0
 10
89.07206329803546
 20
-11.41049725641959
 30
0.0
 10
89.31765301525292
 20
-10.62592226515802
 30
0.0
 10
89.84444203390304
 20
-10.20946801458345
 30
0.0
 10
90.55629644438679
 20
-9.963925896488256
 30
0.0
 10
91.00245526792199
 20
-9.81003385056544
 30
0.0
 10
91.08949366502205
 20
-9.913715621161252
 30
0.0
 10
91.01703963933677
 20
-10.37626622282595
 30
0.0
 10
90.96972339071226
 20
-10.67834249978678
 30
0.0
 10
90.94461281314975
 20
-10.98389759268188
 30
0.0
 10
90.90336749272302
 20
-11.34153020651679
 30
0.0
  0
HATCH
  5
5C
330
41
100
AcDbEntity
  8
Layer 1
 62
     7
420
 16777215
100
AcDbHatch
 10
0.0
 20
0.0
 30
0.0
210
0.0
220
0.0
230
1.0
  2
SOLID
 70
     1
 71
     0
 91
        1
 92
        1
 93
        1
 72
     4
 94
        3
 73
     0
 74
     1
 95
       83
 96
       79
 40
0.0
 40
0.0
 40
0.0
 40
0.0
 40
1.0
 40
1.0
 40
1.0
 40
2.0
 40
2.0
 40
2.0
 40
3.0
 40
3.0
 40
3.0
 40
4.0
 40
4.0
 40
4.0
 40
5.0
 40
5.0
 40
5.0
 40
6.0
 40
6.0
 40
6.0
 40
7.0
 40
7.0
 40
7.0
 40
8.0
 40
8.0
 40
8.0
 40
9.0
 40
9.0
 40
9.0
 40
10.0
 40
10.0
 40
10.0
 40
11.0
 40
11.0
 40
11.0
 40
12.0
 40
12.0
 40
12.0
 40
13.0
 40
13.0
 40
13.0
 40
14.0
 40
14.0
 40
14.0
 40
15.0
 40
15.0
 40
15.0
 40
16.0
 40
16.0
 40
16.0
 40
17.0
 40
17.0
 40
17.0
 40
18.0
 40
18.0
 40
18.0
 40
19.0
 40
19.0
 40
19.0
 40
20.0
 40
20.0
 40
20.0
 40
21.0
 40
21.0
 40
21.0
 40
22.0
 40
22.0
 40
22.0
 40
23.0
 40
23.0
 40
23.0
 40
24.0
 40
24.0
 40
24.0
 40
25.0
 40
25.0
 40
25.0
 40
26.0
 40
26.0
 40
26.0
 40
26.0
 10
90.90336749272302
 20
-11.34153020651679
 10
91.00719342066473
 20
-11.36631303011664
 10
91.14359346871986
 20
-11.41578619901841
 10
91.28352945165817
 20
-11.42970962260436
 10
93.08791702204311
 20
-11.60925215614775
 10
94.69137101282274
 20
-11.11466870440035
 10
96.08079758513236
 20
-9.955609649640353
 10
96.59405213303252
 20
-9.52744533471806
 10
96.59014628496276
 20
-9.192602501185785
 10
96.11016216435387
 20
-8.727942578366738
 10
95.58236132433778
 20
-8.216980948239623
 10
94.95205101213733
 20
-7.867016553186905
 10
94.21925298735115
 20
-7.819733623949525
 10
92.88849029468747
 20
-7.733866165285057
 10
91.55325600437166
 20
-7.719519789488047
 10
90.22126933424852
 20
-7.649192764631304
 10
89.70510443994499
 20
-7.621940226513968
 10
89.18760133028613
 20
-7.549941792437655
 10
88.67983020140278
 20
-7.45133884831036
 10
88.01720144437897
 20
-7.322662778009813
 10
87.53339851409731
 20
-6.900482352887663
 10
87.16714637899963
 20
-6.357795227017787
 10
87.05178786344258
 20
-6.186862014925173
 10
86.940987983934
 20
-5.906820732167561
 10
87.00256220998266
 20
-5.741819730827118
 10
87.21185691560959
 20
-5.180943619925691
 10
87.38104867977317
 20
-4.530620596279719
 10
87.78177346002296
 20
-4.131553965493382
 10
88.55588208403233
 20
-3.360617823059623
 10
89.48023530113655
 20
-2.739123208508838
 10
90.54034665811777
 20
-2.380575671523304
 10
91.57608182401125
 20
-2.030270942737491
 10
92.53303636072907
 20
-2.45568980822029
 10
92.93564334631601
 20
-3.409203608303315
 10
93.09992832084254
 20
-3.798281563040592
 10
92.88521547499589
 20
-4.079911976532819
 10
92.63339163258597
 20
-4.24931793675176
 10
92.46114264472457
 20
-4.365198002703132
 10
92.05518468084965
 20
-4.382736239718822
 10
91.92053628053556
 20
-4.260490810991895
 10
91.44545350966344
 20
-3.829176454080213
 10
90.92541540668935
 20
-3.833892167235766
 10
90.42882871183338
 20
-4.061963707068546
 10
89.86887262398858
 20
-4.319139050925514
 10
89.34822525223427
 20
-4.67308069273364
 10
88.83976325607465
 20
-5.027009414779612
 10
88.53628212498552
 20
-5.238259764390929
 10
88.57083092873403
 20
-5.469188271609909
 10
88.91215200296283
 20
-5.633568444384179
 10
89.1474766292229
 20
-5.746901277245462
 10
89.41641439646317
 20
-5.834999774822991
 10
89.6748041979539
 20
-5.848437687349971
 10
91.05243162755757
 20
-5.920090007800211
 10
92.43203918069403
 20
-5.953274756669719
 10
93.80985700679062
 20
-6.021865093509789
 10
95.13219873453524
 20
-6.087694681191391
 10
96.32042517214829
 20
-6.507561788915845
 10
97.2298349844511
 20
-7.510034007379597
 10
98.34847422358246
 20
-8.74315661818511
 10
98.38643384451704
 20
-10.08690571169123
 10
96.92268736088394
 20
-11.2597848319406
 10
95.73298127051949
 20
-12.21306879625597
 10
94.4120103975294
 20
-12.87403158395987
 10
92.90126317946184
 20
-13.15708045132985
 10
91.80144599370338
 20
-13.36313977654058
 10
90.73903355909836
 20
-13.23141804232881
 10
89.70193297835064
 20
-12.87473741096179
 10
88.93616916066267
 20
-12.61137282108642
 10
88.83219091552687
 20
-12.17682002381376
 10
89.07206329803546
 20
-11.41049725641959
 10
89.31765301525292
 20
-10.62592226515802
 10
89.84444203390304
 20
-10.20946801458345
 10
90.55629644438679
 20
-9.963925896488256
 10
91.00245526792199
 20
-9.81003385056544
 10
91.08949366502205
 20
-9.913715621161252
 10
91.01703963933677
 20
-10.37626622282595
 10
90.96972339071226
 20
-10.67834249978678
 10
90.94461281314975
 20
-10.98389759268188
 10
90.90336749272302
 20
-11.34153020651679
 97
        0
 97
        0
 75
     2
 76
     1
 98
        0
  0
SPLINE
  5
5D
330
41
100
AcDbEntity
  8
Layer 1
370
     0
100
AcDbSpline
210
0.0
220
0.0
230
1.0
 70
    11
 71
     3
 72
    86
 73
    82
 74
     0
 42
0.0000000001
 43
0.0000000001
 12
1.0
 22
0.0
 32
0.0
 13
1.0
 23
0.0
 33
0.0
 40
0.0
 40
0.0
 40
0.0
 40
0.0
 40
1.0
 40
1.0
 40
1.0
 40
2.0
 40
2.0
 40
2.0
 40
3.0
 40
3.0
 40
3.0
 40
4.0
 40
4.0
 40
4.0
 40
5.0
 40
5.0
 40
5.0
 40
6.0
 40
6.0
 40
6.0
 40
7.0
 40
7.0
 40
7.0
 40
8.0
 40
8.0
 40
8.0
 40
9.0
 40
9.0
 40
9.0
 40
10.0
 40
10.0
 40
10.0
 40
11.0
 40
11.0
 40
11.0
 40
12.0
 40
12.0
 40
12.0
 40
13.0
 40
13.0
 40
13.0
 40
14.0
 40
14.0
 40
14.0
 40
15.0
 40
15.0
 40
15.0
 40
16.0
 40
16.0
 40
16.0
 40
17.0
 40
17.0
 40
17.0
 40
18.0
 40
18.0
 40
18.0
 40
19.0
 40
19.0
 40
19.0
 40
20.0
 40
20.0
 40
20.0
 40
21.0
 40
21.0
 40
21.0
 40
22.0
 40
22.0
 40
22.0
 40
23.0
 40
23.0
 40
23.0
 40
24.0
 40
24.0
 40
24.0
 40
25.0
 40
25.0
 40
25.0
 40
26.0
 40
26.0
 40
26.0
 40
27.0
 40
27.0
 40
27.0
 40
27.0
 10
74.03660451115671
 20
-20.2841991982583
 30
0.0
 10
74.38450242426627
 20
-20.3077757240729
 30
0.0
 10
74.7138611587938
 20
-20.33650383501594
 30
0.0
 10
75.04385636159917
 20
-20.35128948272296
 30
0.0
 10
76.13981665838602
 20
-20.40038729853659
 30
0.0
 10
77.24029207202284
 20
-20.39982154895615
 30
0.0
 10
78.33077982959155
 20
-20.50438458332245
 30
0.0
 10
79.22857545578105
 20
-20.59047371790381
 30
0.0
 10
80.02287698791784
 20
-20.93474457780943
 30
0.0
 10
80.70526890098378
 20
-21.5996104936339
 30
0.0
 10
81.39343254775706
 20
-22.27009990589537
 30
0.0
 10
81.48955557755421
 20
-23.61119024836567
 30
0.0
 10
80.90675735037023
 20
-24.46035317017521
 30
0.0
 10
80.17192480305279
 20
-25.53103969240424
 30
0.0
 10
79.17167954357704
 20
-26.07111838631038
 30
0.0
 10
77.9406900534883
 20
-26.31160003759918
 30
0.0
 10
76.60100048522125
 20
-26.57331361787963
 30
0.0
 10
75.26619050709174
 20
-26.63151782599089
 30
0.0
 10
73.91444068092711
 20
-26.40125502651245
 30
0.0
 10
72.05648641702626
 20
-26.08476981490606
 30
0.0
 10
72.36357964159562
 20
-24.69463605561993
 30
0.0
 10
73.09637766638116
 20
-23.70137834746147
 30
0.0
 10
73.17428791158564
 20
-23.59576813237953
 30
0.0
 10
73.27471390213994
 20
-23.47465148286494
 30
0.0
 10
73.38980586260571
 20
-23.43652322503539
 30
0.0
 10
73.54123091396087
 20
-23.38637006865601
 30
0.0
 10
73.75758116965265
 20
-23.34878852075812
 30
0.0
 10
73.87172114764992
 20
-23.42185181522426
 30
0.0
 10
73.9825319069578
 20
-23.49278810886057
 30
0.0
 10
74.0344067916295
 20
-23.70746287540837
 30
0.0
 10
74.04770734668739
 20
-23.86447470387756
 30
0.0
 10
74.06086646434856
 20
-24.01986544220057
 30
0.0
 10
73.9449204396112
 20
-24.19216066921028
 30
0.0
 10
73.97528596039938
 20
-24.3384232556377
 30
0.0
 10
74.0048518159144
 20
-24.48084799274228
 30
0.0
 10
74.13029590573522
 20
-24.69322440161674
 30
0.0
 10
74.24399525184724
 20
-24.71478544454822
 30
0.0
 10
75.82945949392631
 20
-25.01539974843312
 30
0.0
 10
77.40282539880769
 20
-25.03964266197555
 30
0.0
 10
78.90811639735733
 20
-24.34491849602112
 30
0.0
 10
79.15742156615161
 20
-24.22986189490436
 30
0.0
 10
79.39388313147349
 20
-24.04909946382659
 30
0.0
 10
79.58234302079488
 20
-23.84812780492244
 30
0.0
 10
79.95400241631296
 20
-23.45179030387633
 30
0.0
 10
79.90269328122235
 20
-23.02983359463424
 30
0.0
 10
79.46096253613884
 20
-22.71244263970893
 30
0.0
 10
78.72766948046898
 20
-22.18555026296286
 30
0.0
 10
77.87173932328508
 20
-22.07943957709823
 30
0.0
 10
77.0035639516097
 20
-22.05591745028143
 30
0.0
 10
75.69795535570702
 20
-22.02053906180977
 30
0.0
 10
74.39169397182691
 20
-22.00971910107059
 30
0.0
 10
73.08597113802833
 20
-21.97774880983582
 30
0.0
 10
72.74530285177823
 20
-21.96940672346361
 30
0.0
 10
72.40450400793202
 20
-21.93060119810692
 30
0.0
 10
72.06569072751954
 20
-21.88977203001636
 30
0.0
 10
71.30208655005994
 20
-21.7977588445323
 30
0.0
 10
71.07901257819167
 20
-21.36383707563911
 30
0.0
 10
71.30885922533393
 20
-20.63447026766366
 30
0.0
 10
71.47187670320315
 20
-20.11718883392233
 30
0.0
 10
71.73312245209947
 20
-19.7466663774667
 30
0.0
 10
72.21699066117885
 20
-19.50321998077737
 30
0.0
 10
73.58154057161804
 20
-18.81667334422524
 30
0.0
 10
74.93414446205425
 20
-18.10630674634173
 30
0.0
 10
76.30148504109997
 20
-17.42547200459946
 30
0.0
 10
76.54768402709765
 20
-17.30288250220835
 30
0.0
 10
76.85614266652124
 20
-17.18680047997584
 30
0.0
 10
77.10979431527052
 20
-17.22803220065216
 30
0.0
 10
77.41967276854614
 20
-17.27840431299925
 30
0.0
 10
77.78855237525698
 20
-17.42938329256887
 30
0.0
 10
77.97330225290185
 20
-17.66253875877649
 30
0.0
 10
78.18033396020446
 20
-17.92380490729746
 30
0.0
 10
78.18362509959499
 20
-18.30562059577671
 30
0.0
 10
77.8963766295651
 20
-18.62522830987802
 30
0.0
 10
77.52961314388348
 20
-19.03332687433189
 30
0.0
 10
77.1249063569669
 20
-19.52396775868593
 30
0.0
 10
76.56906827328532
 20
-19.37477442623113
 30
0.0
 10
75.541063205034
 20
-19.09884366777391
 30
0.0
 10
74.89888303142894
 20
-19.83307918608759
 30
0.0
 10
74.09110686744091
 20
-20.12910085455023
 30
0.0
 10
74.07447165379529
 20
-20.13520034222214
 30
0.0
 10
74.0720019392778
 20
-20.17996663780578
 30
0.0
 10
74.03660451115671
 20
-20.2841991982583
 30
0.0
  0
HATCH
  5
5E
330
41
100
AcDbEntity
  8
Layer 1
 62
     7
420
 16777215
100
AcDbHatch
 10
0.0
 20
0.0
 30
0.0
210
0.0
220
0.0
230
1.0
  2
SOLID
 70
     1
 71
     0
 91
        1
 92
        1
 93
        1
 72
     4
 94
        3
 73
     0
 74
     1
 95
       86
 96
       82
 40
0.0
 40
0.0
 40
0.0
 40
0.0
 40
1.0
 40
1.0
 40
1.0
 40
2.0
 40
2.0
 40
2.0
 40
3.0
 40
3.0
 40
3.0
 40
4.0
 40
4.0
 40
4.0
 40
5.0
 40
5.0
 40
5.0
 40
6.0
 40
6.0
 40
6.0
 40
7.0
 40
7.0
 40
7.0
 40
8.0
 40
8.0
 40
8.0
 40
9.0
 40
9.0
 40
9.0
 40
10.0
 40
10.0
 40
10.0
 40
11.0
 40
11.0
 40
11.0
 40
12.0
 40
12.0
 40
12.0
 40
13.0
 40
13.0
 40
13.0
 40
14.0
 40
14.0
 40
14.0
 40
15.0
 40
15.0
 40
15.0
 40
16.0
 40
16.0
 40
16.0
 40
17.0
 40
17.0
 40
17.0
 40
18.0
 40
18.0
 40
18.0
 40
19.0
 40
19.0
 40
19.0
 40
20.0
 40
20.0
 40
20.0
 40
21.0
 40
21.0
 40
21.0
 40
22.0
 40
22.0
 40
22.0
 40
23.0
 40
23.0
 40
23.0
 40
24.0
 40
24.0
 40
24.0
 40
25.0
 40
25.0
 40
25.0
 40
26.0
 40
26.0
 40
26.0
 40
27.0
 40
27.0
 40
27.0
 40
27.0
 10
74.03660451115671
 20
-20.2841991982583
 10
74.38450242426627
 20
-20.3077757240729
 10
74.7138611587938
 20
-20.33650383501594
 10
75.04385636159917
 20
-20.35128948272296
 10
76.13981665838602
 20
-20.40038729853659
 10
77.24029207202284
 20
-20.39982154895615
 10
78.33077982959155
 20
-20.50438458332245
 10
79.22857545578105
 20
-20.59047371790381
 10
80.02287698791784
 20
-20.93474457780943
 10
80.70526890098378
 20
-21.5996104936339
 10
81.39343254775706
 20
-22.27009990589537
 10
81.48955557755421
 20
-23.61119024836567
 10
80.90675735037023
 20
-24.46035317017521
 10
80.17192480305279
 20
-25.53103969240424
 10
79.17167954357704
 20
-26.07111838631038
 10
77.9406900534883
 20
-26.31160003759918
 10
76.60100048522125
 20
-26.57331361787963
 10
75.26619050709174
 20
-26.63151782599089
 10
73.91444068092711
 20
-26.40125502651245
 10
72.05648641702626
 20
-26.08476981490606
 10
72.36357964159562
 20
-24.69463605561993
 10
73.09637766638116
 20
-23.70137834746147
 10
73.17428791158564
 20
-23.59576813237953
 10
73.27471390213994
 20
-23.47465148286494
 10
73.38980586260571
 20
-23.43652322503539
 10
73.54123091396087
 20
-23.38637006865601
 10
73.75758116965265
 20
-23.34878852075812
 10
73.87172114764992
 20
-23.42185181522426
 10
73.9825319069578
 20
-23.49278810886057
 10
74.0344067916295
 20
-23.70746287540837
 10
74.04770734668739
 20
-23.86447470387756
 10
74.06086646434856
 20
-24.01986544220057
 10
73.9449204396112
 20
-24.19216066921028
 10
73.97528596039938
 20
-24.3384232556377
 10
74.0048518159144
 20
-24.48084799274228
 10
74.13029590573522
 20
-24.69322440161674
 10
74.24399525184724
 20
-24.71478544454822
 10
75.82945949392631
 20
-25.01539974843312
 10
77.40282539880769
 20
-25.03964266197555
 10
78.90811639735733
 20
-24.34491849602112
 10
79.15742156615161
 20
-24.22986189490436
 10
79.39388313147349
 20
-24.04909946382659
 10
79.58234302079488
 20
-23.84812780492244
 10
79.95400241631296
 20
-23.45179030387633
 10
79.90269328122235
 20
-23.02983359463424
 10
79.46096253613884
 20
-22.71244263970893
 10
78.72766948046898
 20
-22.18555026296286
 10
77.87173932328508
 20
-22.07943957709823
 10
77.0035639516097
 20
-22.05591745028143
 10
75.69795535570702
 20
-22.02053906180977
 10
74.39169397182691
 20
-22.00971910107059
 10
73.08597113802833
 20
-21.97774880983582
 10
72.74530285177823
 20
-21.96940672346361
 10
72.40450400793202
 20
-21.93060119810692
 10
72.06569072751954
 20
-21.88977203001636
 10
71.30208655005994
 20
-21.7977588445323
 10
71.07901257819167
 20
-21.36383707563911
 10
71.30885922533393
 20
-20.63447026766366
 10
71.47187670320315
 20
-20.11718883392233
 10
71.73312245209947
 20
-19.7466663774667
 10
72.21699066117885
 20
-19.50321998077737
 10
73.58154057161804
 20
-18.81667334422524
 10
74.93414446205425
 20
-18.10630674634173
 10
76.30148504109997
 20
-17.42547200459946
 10
76.54768402709765
 20
-17.30288250220835
 10
76.85614266652124
 20
-17.18680047997584
 10
77.10979431527052
 20
-17.22803220065216
 10
77.41967276854614
 20
-17.27840431299925
 10
77.78855237525698
 20
-17.42938329256887
 10
77.97330225290185
 20
-17.66253875877649
 10
78.18033396020446
 20
-17.92380490729746
 10
78.18362509959499
 20
-18.30562059577671
 10
77.8963766295651
 20
-18.62522830987802
 10
77.52961314388348
 20
-19.03332687433189
 10
77.1249063569669
 20
-19.52396775868593
 10
76.56906827328532
 20
-19.37477442623113
 10
75.541063205034
 20
-19.09884366777391
 10
74.89888303142894
 20
-19.83307918608759
 10
74.09110686744091
 20
-20.12910085455023
 10
74.07447165379529
 20
-20.13520034222214
 10
74.0720019392778
 20
-20.17996663780578
 10
74.03660451115671
 20
-20.2841991982583
 97
        0
 97
        0
 75
     2
 76
     1
 98
        0
  0
SPLINE
  5
5F
330
41
100
AcDbEntity
  8
Layer 1
370
     0
100
AcDbSpline
210
0.0
220
0.0
230
1.0
 70
    11
 71
     3
 72
    68
 73
    64
 74
     0
 42
0.0000000001
 43
0.0000000001
 12
1.0
 22
0.0
 32
0.0
 13
1.0
 23
0.0
 33
0.0
 40
0.0
 40
0.0
 40
0.0
 40
0.0
 40
1.0
 40
1.0
 40
1.0
 40
2.0
 40
2.0
 40
2.0
 40
3.0
 40
3.0
 40
3.0
 40
4.0
 40
4.0
 40
4.0
 40
5.0
 40
5.0
 40
5.0
 40
6.0
 40
6.0
 40
6.0
 40
7.0
 40
7.0
 40
7.0
 40
8.0
 40
8.0
 40
8.0
 40
9.0
 40
9.0
 40
9.0
 40
10.0
 40
10.0
 40
10.0
 40
11.0
 40
11.0
 40
11.0
 40
12.0
 40
12.0
 40
12.0
 40
13.0
 40
13.0
 40
13.0
 40
14.0
 40
14.0
 40
14.0
 40
15.0
 40
15.0
 40
15.0
 40
16.0
 40
16.0
 40
16.0
 40
17.0
 40
17.0
 40
17.0
 40
18.0
 40
18.0
 40
18.0
 40
19.0
 40
19.0
 40
19.0
 40
20.0
 40
20.0
 40
20.0
 40
21.0
 40
21.0
 40
21.0
 40
21.0
 10
76.50956120916776
 20
-41.03592375434303
 30
0.0
 10
76.3239735869509
 20
-39.3057935364343
 30
0.0
 10
76.13588361081736
 20
-37.57910677511019
 30
0.0
 10
75.95507766054111
 20
-35.85165570786195
 30
0.0
 10
75.89486884934668
 20
-35.27640806162715
 30
0.0
 10
75.79694521270906
 20
-34.69726272717207
 30
0.0
 10
75.81668116925164
 20
-34.12335329629259
 30
0.0
 10
75.84526240289959
 20
-33.29191084814251
 30
0.0
 10
75.93772982001931
 20
-32.45965241502033
 30
0.0
 10
76.05691802504842
 20
-31.63554295182631
 30
0.0
 10
76.12197922688019
 20
-31.185693156264
 30
0.0
 10
76.49266488033051
 20
-30.91844175796701
 30
0.0
 10
76.83089609146231
 20
-31.00541487626997
 30
0.0
 10
77.220953228167
 20
-31.10571030922879
 30
0.0
 10
77.33741060348767
 20
-31.39770781180073
 30
0.0
 10
77.33970080131088
 20
-31.78551282997978
 30
0.0
 10
77.34762129544727
 20
-33.12094839658847
 30
0.0
 10
77.39010691303176
 20
-33.03960285464886
 30
0.0
 10
78.60500517945542
 20
-33.55699172641182
 30
0.0
 10
79.74330965643196
 20
-34.04176023891049
 30
0.0
 10
80.80136473128205
 20
-34.71703948296332
 30
0.0
 10
81.88737001140062
 20
-35.32169522761813
 30
0.0
 10
82.43103903918775
 20
-35.62439573308353
 30
0.0
 10
82.93995254703255
 20
-35.99436875965769
 30
0.0
 10
83.49791763154332
 20
-36.26524857113322
 30
0.0
 10
84.11191368418717
 20
-36.56333332160253
 30
0.0
 10
84.52738603284578
 20
-36.22102490555618
 30
0.0
 10
84.42815682025203
 20
-35.5392259415715
 30
0.0
 10
84.24665456279855
 20
-34.29207450912157
 30
0.0
 10
84.05649742473393
 20
-33.04616337383002
 30
0.0
 10
83.86465391772538
 20
-31.80055143302958
 30
0.0
 10
83.78784253228451
 20
-31.30183501739396
 30
0.0
 10
83.94001284991502
 20
-31.06432899130692
 30
0.0
 10
84.44255623507223
 20
-30.9197038147253
 30
0.0
 10
84.86740697101746
 20
-30.79743662639848
 30
0.0
 10
85.05569278354487
 20
-31.06444322920345
 30
0.0
 10
85.16704209293493
 20
-31.39051898418928
 30
0.0
 10
85.25163253511676
 20
-31.63822210248744
 30
0.0
 10
85.2724292721241
 20
-31.90846000578356
 30
0.0
 10
85.31445249822345
 20
-32.16981999257641
 30
0.0
 10
85.49797295850986
 20
-33.31149176754054
 30
0.0
 10
85.67281677858459
 20
-34.45459151620681
 30
0.0
 10
85.86269104185834
 20
-35.59519707080653
 30
0.0
 10
86.00922018337702
 20
-36.47539462108193
 30
0.0
 10
85.73651800546241
 20
-37.19092096394335
 30
0.0
 10
85.00498747733353
 20
-37.68963737957833
 30
0.0
 10
84.3624210708423
 20
-38.12770707208346
 30
0.0
 10
83.6679471402789
 20
-38.0481104579357
 30
0.0
 10
83.0189072530022
 20
-37.69586334492066
 30
0.0
 10
82.09441259850254
 20
-37.19412506493689
 30
0.0
 10
81.20214935042928
 20
-36.63284980138619
 30
0.0
 10
80.27616960327985
 20
-36.13404090745456
 30
0.0
 10
79.60363478868527
 20
-35.77175717927391
 30
0.0
 10
78.9361590809231
 20
-35.38825512185073
 30
0.0
 10
78.12552696953016
 20
-35.3665580814241
 30
0.0
 10
77.7841297367043
 20
-35.35741904972857
 30
0.0
 10
77.71791527610984
 20
-35.47145566962924
 30
0.0
 10
77.7107454881491
 20
-35.7612581726238
 30
0.0
 10
77.6762075641999
 20
-37.15615456420173
 30
0.0
 10
77.63299300003966
 20
-38.55084967948614
 30
0.0
 10
77.58863061701702
 20
-39.94547951597217
 30
0.0
 10
77.56862266548352
 20
-40.57422857692515
 30
0.0
 10
77.23861114297856
 20
-40.92357078343647
 30
0.0
 10
76.50956120916776
 20
-41.03592375434303
 30
0.0
  0
HATCH
  5
60
330
41
100
AcDbEntity
  8
Layer 1
 62
     7
420
 16777215
100
AcDbHatch
 10
0.0
 20
0.0
 30
0.0
210
0.0
220
0.0
230
1.0
  2
SOLID
 70
     1
 71
     0
 91
        1
 92
        1
 93
        1
 72
     4
 94
        3
 73
     0
 74
     1
 95
       68
 96
       64
 40
0.0
 40
0.0
 40
0.0
 40
0.0
 40
1.0
 40
1.0
 40
1.0
 40
2.0
 40
2.0
 40
2.0
 40
3.0
 40
3.0
 40
3.0
 40
4.0
 40
4.0
 40
4.0
 40
5.0
 40
5.0
 40
5.0
 40
6.0
 40
6.0
 40
6.0
 40
7.0
 40
7.0
 40
7.0
 40
8.0
 40
8.0
 40
8.0
 40
9.0
 40
9.0
 40
9.0
 40
10.0
 40
10.0
 40
10.0
 40
11.0
 40
11.0
 40
11.0
 40
12.0
 40
12.0
 40
12.0
 40
13.0
 40
13.0
 40
13.0
 40
14.0
 40
14.0
 40
14.0
 40
15.0
 40
15.0
 40
15.0
 40
16.0
 40
16.0
 40
16.0
 40
17.0
 40
17.0
 40
17.0
 40
18.0
 40
18.0
 40
18.0
 40
19.0
 40
19.0
 40
19.0
 40
20.0
 40
20.0
 40
20.0
 40
21.0
 40
21.0
 40
21.0
 40
21.0
 10
76.50956120916776
 20
-41.03592375434303
 10
76.3239735869509
 20
-39.3057935364343
 10
76.13588361081736
 20
-37.57910677511019
 10
75.95507766054111
 20
-35.85165570786195
 10
75.89486884934668
 20
-35.27640806162715
 10
75.79694521270906
 20
-34.69726272717207
 10
75.81668116925164
 20
-34.12335329629259
 10
75.84526240289959
 20
-33.29191084814251
 10
75.93772982001931
 20
-32.45965241502033
 10
76.05691802504842
 20
-31.63554295182631
 10
76.12197922688019
 20
-31.185693156264
 10
76.49266488033051
 20
-30.91844175796701
 10
76.83089609146231
 20
-31.00541487626997
 10
77.220953228167
 20
-31.10571030922879
 10
77.33741060348767
 20
-31.39770781180073
 10
77.33970080131088
 20
-31.78551282997978
 10
77.34762129544727
 20
-33.12094839658847
 10
77.39010691303176
 20
-33.03960285464886
 10
78.60500517945542
 20
-33.55699172641182
 10
79.74330965643196
 20
-34.04176023891049
 10
80.80136473128205
 20
-34.71703948296332
 10
81.88737001140062
 20
-35.32169522761813
 10
82.43103903918775
 20
-35.62439573308353
 10
82.93995254703255
 20
-35.99436875965769
 10
83.49791763154332
 20
-36.26524857113322
 10
84.11191368418717
 20
-36.56333332160253
 10
84.52738603284578
 20
-36.22102490555618
 10
84.42815682025203
 20
-35.5392259415715
 10
84.24665456279855
 20
-34.29207450912157
 10
84.05649742473393
 20
-33.04616337383002
 10
83.86465391772538
 20
-31.80055143302958
 10
83.78784253228451
 20
-31.30183501739396
 10
83.94001284991502
 20
-31.06432899130692
 10
84.44255623507223
 20
-30.9197038147253
 10
84.86740697101746
 20
-30.79743662639848
 10
85.05569278354487
 20
-31.06444322920345
 10
85.16704209293493
 20
-31.39051898418928
 10
85.25163253511676
 20
-31.63822210248744
 10
85.2724292721241
 20
-31.90846000578356
 10
85.31445249822345
 20
-32.16981999257641
 10
85.49797295850986
 20
-33.31149176754054
 10
85.67281677858459
 20
-34.45459151620681
 10
85.86269104185834
 20
-35.59519707080653
 10
86.00922018337702
 20
-36.47539462108193
 10
85.73651800546241
 20
-37.19092096394335
 10
85.00498747733353
 20
-37.68963737957833
 10
84.3624210708423
 20
-38.12770707208346
 10
83.6679471402789
 20
-38.0481104579357
 10
83.0189072530022
 20
-37.69586334492066
 10
82.09441259850254
 20
-37.19412506493689
 10
81.20214935042928
 20
-36.63284980138619
 10
80.27616960327985
 20
-36.13404090745456
 10
79.60363478868527
 20
-35.77175717927391
 10
78.9361590809231
 20
-35.38825512185073
 10
78.12552696953016
 20
-35.3665580814241
 10
77.7841297367043
 20
-35.35741904972857
 10
77.71791527610984
 20
-35.47145566962924
 10
77.7107454881491
 20
-35.7612581726238
 10
77.6762075641999
 20
-37.15615456420173
 10
77.63299300003966
 20
-38.55084967948614
 10
77.58863061701702
 20
-39.94547951597217
 10
77.56862266548352
 20
-40.57422857692515
 10
77.23861114297856
 20
-40.92357078343647
 10
76.50956120916776
 20
-41.03592375434303
 97
        0
 97
        0
 75
     2
 76
     1
 98
        0
  0
SPLINE
  5
61
330
41
100
AcDbEntity
  8
Layer 1
370
     0
100
AcDbSpline
210
0.0
220
0.0
230
1.0
 70
    11
 71
     3
 72
    74
 73
    70
 74
     0
 42
0.0000000001
 43
0.0000000001
 12
1.0
 22
0.0
 32
0.0
 13
1.0
 23
0.0
 33
0.0
 40
0.0
 40
0.0
 40
0.0
 40
0.0
 40
1.0
 40
1.0
 40
1.0
 40
2.0
 40
2.0
 40
2.0
 40
3.0
 40
3.0
 40
3.0
 40
4.0
 40
4.0
 40
4.0
 40
5.0
 40
5.0
 40
5.0
 40
6.0
 40
6.0
 40
6.0
 40
7.0
 40
7.0
 40
7.0
 40
8.0
 40
8.0
 40
8.0
 40
9.0
 40
9.0
 40
9.0
 40
10.0
 40
10.0
 40
10.0
 40
11.0
 40
11.0
 40
11.0
 40
12.0
 40
12.0
 40
12.0
 40
13.0
 40
13.0
 40
13.0
 40
14.0
 40
14.0
 40
14.0
 40
15.0
 40
15.0
 40
15.0
 40
16.0
 40
16.0
 40
16.0
 40
17.0
 40
17.0
 40
17.0
 40
18.0
 40
18.0
 40
18.0
 40
19.0
 40
19.0
 40
19.0
 40
20.0
 40
20.0
 40
20.0
 40
21.0
 40
21.0
 40
21.0
 40
22.0
 40
22.0
 40
22.0
 40
23.0
 40
23.0
 40
23.0
 40
23.0
 10
65.07954834437015
 20
-37.20231755406355
 30
0.0
 10
65.1593516747114
 20
-36.13708181145343
 30
0.0
 10
65.23360630723779
 20
-35.07138095740834
 30
0.0
 10
65.32286962336364
 20
-34.00693944017107
 30
0.0
 10
65.34508073432369
 20
-33.74206255814575
 30
0.0
 10
65.39699369829422
 20
-33.47591545951266
 30
0.0
 10
65.46955652197671
 20
-33.22008241093576
 30
0.0
 10
65.5423750209505
 20
-32.96337625843849
 30
0.0
 10
65.54193982896524
 20
-32.6207713678528
 30
0.0
 10
65.93137681709074
 20
-32.60596124059606
 30
0.0
 10
66.2353747386628
 20
-32.59440417343101
 30
0.0
 10
66.63786748635322
 20
-32.98086825630554
 30
0.0
 10
66.63835707733661
 20
-33.34622008798396
 30
0.0
 10
66.63927098050661
 20
-34.02709426899965
 30
0.0
 10
66.57382898568704
 20
-34.70775901387236
 30
0.0
 10
66.55711761344372
 20
-35.38902758762562
 30
0.0
 10
66.52911844907645
 20
-36.53043280749848
 30
0.0
 10
66.47833154436842
 20
-37.67345911751689
 30
0.0
 10
66.51356033559453
 20
-38.81344452353773
 30
0.0
 10
66.53587480465148
 20
-39.53540354793467
 30
0.0
 10
66.78990724638791
 20
-40.12412310607088
 30
0.0
 10
67.62056906891362
 20
-40.3909964313299
 30
0.0
 10
68.44998515438064
 20
-40.65747264390217
 30
0.0
 10
68.72207806351568
 20
-40.65737472570459
 30
0.0
 10
69.24198016899463
 20
-39.97264365571728
 30
0.0
 10
69.34557218124299
 20
-39.83620824831314
 30
0.0
 10
69.50830134442234
 20
-39.73832541092418
 30
0.0
 10
69.65702276556729
 20
-39.64346443788467
 30
0.0
 10
71.45773840357391
 20
-38.49488943005043
 30
0.0
 10
72.35819414077447
 20
-36.78236272795545
 30
0.0
 10
72.72413076168338
 20
-34.73971026545771
 30
0.0
 10
72.75380541519466
 20
-34.57405715612649
 30
0.0
 10
72.691061610685
 20
-34.39274257521742
 30
0.0
 10
72.6773965823402
 20
-34.21822786908123
 30
0.0
 10
72.65450548390287
 20
-33.92592845206965
 30
0.0
 10
72.58233977290745
 20
-33.62383449543464
 30
0.0
 10
72.63100511668532
 20
-33.34322542313342
 30
0.0
 10
72.68507228098457
 20
-33.03153548321739
 30
0.0
 10
72.79787948352615
 20
-32.69032592693529
 30
0.0
 10
73.22867602997395
 20
-32.67917141235728
 30
0.0
 10
73.60038982448984
 20
-32.66954550962753
 30
0.0
 10
73.9820314361751
 20
-32.95960640786387
 30
0.0
 10
74.06080662545047
 20
-33.35064000658618
 30
0.0
 10
74.1131275819077
 20
-33.61037074338335
 30
0.0
 10
74.17324935470386
 20
-33.88994079481841
 30
0.0
 10
74.13054070122723
 20
-34.14392699740717
 30
0.0
 10
73.85428626873113
 20
-35.78697801896716
 30
0.0
 10
73.56059695731561
 20
-37.43120133893799
 30
0.0
 10
72.49339741087034
 20
-38.79452727191772
 30
0.0
 10
72.1923152756013
 20
-39.17914994870376
 30
0.0
 10
71.852958005207
 20
-39.53411157172766
 30
0.0
 10
71.52643889838545
 20
-39.89845702193911
 30
0.0
 10
70.96684184392856
 20
-40.52287864258587
 30
0.0
 10
70.31453137856656
 20
-40.95610167115877
 30
0.0
 10
69.61230015086208
 20
-41.27577194410864
 30
0.0
 10
68.71066395540122
 20
-41.68621510538417
 30
0.0
 10
66.71502936991965
 20
-41.51583514744841
 30
0.0
 10
66.64877584487297
 20
-41.36361107958746
 30
0.0
 10
66.64877584487297
 20
-41.36361107958746
 30
0.0
 10
66.19600618367421
 20
-41.15505212047405
 30
0.0
 10
66.02784800047682
 20
-41.00498432412365
 30
0.0
 10
65.20861540747018
 20
-40.2738781081817
 30
0.0
 10
65.1649003725266
 20
-39.27166632492098
 30
0.0
 10
65.13105331585399
 20
-38.27500595942592
 30
0.0
 10
65.11896585845687
 20
-37.91899987563685
 30
0.0
 10
65.1291167115187
 20
-37.56223764577313
 30
0.0
 10
65.1291167115187
 20
-37.2058208495469
 30
0.0
 10
65.11259573576896
 20
-37.2046512710859
 30
0.0
 10
65.09607476001987
 20
-37.20348441257472
 30
0.0
 10
65.07954834437015
 20
-37.20231755406355
 30
0.0
  0
HATCH
  5
62
330
41
100
AcDbEntity
  8
Layer 1
 62
     7
420
 16777215
100
AcDbHatch
 10
0.0
 20
0.0
 30
0.0
210
0.0
220
0.0
230
1.0
  2
SOLID
 70
     1
 71
     0
 91
        1
 92
        1
 93
        1
 72
     4
 94
        3
 73
     0
 74
     1
 95
       74
 96
       70
 40
0.0
 40
0.0
 40
0.0
 40
0.0
 40
1.0
 40
1.0
 40
1.0
 40
2.0
 40
2.0
 40
2.0
 40
3.0
 40
3.0
 40
3.0
 40
4.0
 40
4.0
 40
4.0
 40
5.0
 40
5.0
 40
5.0
 40
6.0
 40
6.0
 40
6.0
 40
7.0
 40
7.0
 40
7.0
 40
8.0
 40
8.0
 40
8.0
 40
9.0
 40
9.0
 40
9.0
 40
10.0
 40
10.0
 40
10.0
 40
11.0
 40
11.0
 40
11.0
 40
12.0
 40
12.0
 40
12.0
 40
13.0
 40
13.0
 40
13.0
 40
14.0
 40
14.0
 40
14.0
 40
15.0
 40
15.0
 40
15.0
 40
16.0
 40
16.0
 40
16.0
 40
17.0
 40
17.0
 40
17.0
 40
18.0
 40
18.0
 40
18.0
 40
19.0
 40
19.0
 40
19.0
 40
20.0
 40
20.0
 40
20.0
 40
21.0
 40
21.0
 40
21.0
 40
22.0
 40
22.0
 40
22.0
 40
23.0
 40
23.0
 40
23.0
 40
23.0
 10
65.07954834437015
 20
-37.20231755406355
 10
65.1593516747114
 20
-36.13708181145343
 10
65.23360630723779
 20
-35.07138095740834
 10
65.32286962336364
 20
-34.00693944017107
 10
65.34508073432369
 20
-33.74206255814575
 10
65.39699369829422
 20
-33.47591545951266
 10
65.46955652197671
 20
-33.22008241093576
 10
65.5423750209505
 20
-32.96337625843849
 10
65.54193982896524
 20
-32.6207713678528
 10
65.93137681709074
 20
-32.60596124059606
 10
66.2353747386628
 20
-32.59440417343101
 10
66.63786748635322
 20
-32.98086825630554
 10
66.63835707733661
 20
-33.34622008798396
 10
66.63927098050661
 20
-34.02709426899965
 10
66.57382898568704
 20
-34.70775901387236
 10
66.55711761344372
 20
-35.38902758762562
 10
66.52911844907645
 20
-36.53043280749848
 10
66.47833154436842
 20
-37.67345911751689
 10
66.51356033559453
 20
-38.81344452353773
 10
66.53587480465148
 20
-39.53540354793467
 10
66.78990724638791
 20
-40.12412310607088
 10
67.62056906891362
 20
-40.3909964313299
 10
68.44998515438064
 20
-40.65747264390217
 10
68.72207806351568
 20
-40.65737472570459
 10
69.24198016899463
 20
-39.97264365571728
 10
69.34557218124299
 20
-39.83620824831314
 10
69.50830134442234
 20
-39.73832541092418
 10
69.65702276556729
 20
-39.64346443788467
 10
71.45773840357391
 20
-38.49488943005043
 10
72.35819414077447
 20
-36.78236272795545
 10
72.72413076168338
 20
-34.73971026545771
 10
72.75380541519466
 20
-34.57405715612649
 10
72.691061610685
 20
-34.39274257521742
 10
72.6773965823402
 20
-34.21822786908123
 10
72.65450548390287
 20
-33.92592845206965
 10
72.58233977290745
 20
-33.62383449543464
 10
72.63100511668532
 20
-33.34322542313342
 10
72.68507228098457
 20
-33.03153548321739
 10
72.79787948352615
 20
-32.69032592693529
 10
73.22867602997395
 20
-32.67917141235728
 10
73.60038982448984
 20
-32.66954550962753
 10
73.9820314361751
 20
-32.95960640786387
 10
74.06080662545047
 20
-33.35064000658618
 10
74.1131275819077
 20
-33.61037074338335
 10
74.17324935470386
 20
-33.88994079481841
 10
74.13054070122723
 20
-34.14392699740717
 10
73.85428626873113
 20
-35.78697801896716
 10
73.56059695731561
 20
-37.43120133893799
 10
72.49339741087034
 20
-38.79452727191772
 10
72.1923152756013
 20
-39.17914994870376
 10
71.852958005207
 20
-39.53411157172766
 10
71.52643889838545
 20
-39.89845702193911
 10
70.96684184392856
 20
-40.52287864258587
 10
70.31453137856656
 20
-40.95610167115877
 10
69.61230015086208
 20
-41.27577194410864
 10
68.71066395540122
 20
-41.68621510538417
 10
66.71502936991965
 20
-41.51583514744841
 10
66.64877584487297
 20
-41.36361107958746
 10
66.64877584487297
 20
-41.36361107958746
 10
66.19600618367421
 20
-41.15505212047405
 10
66.02784800047682
 20
-41.00498432412365
 10
65.20861540747018
 20
-40.2738781081817
 10
65.1649003725266
 20
-39.27166632492098
 10
65.13105331585399
 20
-38.27500595942592
 10
65.11896585845687
 20
-37.91899987563685
 10
65.1291167115187
 20
-37.56223764577313
 10
65.1291167115187
 20
-37.2058208495469
 10
65.11259573576896
 20
-37.2046512710859
 10
65.09607476001987
 20
-37.20348441257472
 10
65.07954834437015
 20
-37.20231755406355
 97
        0
 97
        0
 75
     2
 76
     1
 98
        0
  0
SPLINE
  5
63
330
41
100
AcDbEntity
  8
Layer 1
370
     0
100
AcDbSpline
210
0.0
220
0.0
230
1.0
 70
    11
 71
     3
 72
    17
 73
    13
 74
     0
 42
0.0000000001
 43
0.0000000001
 12
1.0
 22
0.0
 32
0.0
 13
1.0
 23
0.0
 33
0.0
 40
0.0
 40
0.0
 40
0.0
 40
0.0
 40
1.0
 40
1.0
 40
1.0
 40
2.0
 40
2.0
 40
2.0
 40
3.0
 40
3.0
 40
3.0
 40
4.0
 40
4.0
 40
4.0
 40
4.0
 10
92.58374710684005
 20
-49.3726654248461
 30
0.0
 10
92.58066812354235
 20
-49.88935798943186
 30
0.0
 10
92.13383475242918
 20
-50.36127473860992
 30
0.0
 10
91.64726291313958
 20
-50.36170993059552
 30
0.0
 10
90.94858394001724
 20
-50.36233007917439
 30
0.0
 10
90.66591586563442
 20
-49.97090752761546
 30
0.0
 10
90.65713586732679
 20
-48.99064846007332
 30
0.0
 10
90.65418200172556
 20
-48.66064237746802
 30
0.0
 10
91.19013181166981
 20
-48.26462311056178
 30
0.0
 10
91.64026720197282
 20
-48.26419879837549
 30
0.0
 10
92.19454947430594
 20
-48.26367656799355
 30
0.0
 10
92.58759855591137
 20
-48.72545878380841
 30
0.0
 10
92.58374710684005
 20
-49.3726654248461
 30
0.0
  0
HATCH
  5
64
330
41
100
AcDbEntity
  8
Layer 1
 62
     7
420
 16777215
100
AcDbHatch
 10
0.0
 20
0.0
 30
0.0
210
0.0
220
0.0
230
1.0
  2
SOLID
 70
     1
 71
     0
 91
        1
 92
        1
 93
        1
 72
     4
 94
        3
 73
     0
 74
     1
 95
       17
 96
       13
 40
0.0
 40
0.0
 40
0.0
 40
0.0
 40
1.0
 40
1.0
 40
1.0
 40
2.0
 40
2.0
 40
2.0
 40
3.0
 40
3.0
 40
3.0
 40
4.0
 40
4.0
 40
4.0
 40
4.0
 10
92.58374710684005
 20
-49.3726654248461
 10
92.58066812354235
 20
-49.88935798943186
 10
92.13383475242918
 20
-50.36127473860992
 10
91.64726291313958
 20
-50.36170993059552
 10
90.94858394001724
 20
-50.36233007917439
 10
90.66591586563442
 20
-49.97090752761546
 10
90.65713586732679
 20
-48.99064846007332
 10
90.65418200172556
 20
-48.66064237746802
 10
91.19013181166981
 20
-48.26462311056178
 10
91.64026720197282
 20
-48.26419879837549
 10
92.19454947430594
 20
-48.26367656799355
 10
92.58759855591137
 20
-48.72545878380841
 10
92.58374710684005
 20
-49.3726654248461
 97
        0
 97
        0
 75
     2
 76
     1
 98
        0
  0
SPLINE
  5
65
330
41
100
AcDbEntity
  8
Layer 1
370
     0
100
AcDbSpline
210
0.0
220
0.0
230
1.0
 70
    11
 71
     3
 72
   164
 73
   160
 74
     0
 42
0.0000000001
 43
0.0000000001
 12
1.0
 22
0.0
 32
0.0
 13
1.0
 23
0.0
 33
0.0
 40
0.0
 40
0.0
 40
0.0
 40
0.0
 40
1.0
 40
1.0
 40
1.0
 40
2.0
 40
2.0
 40
2.0
 40
3.0
 40
3.0
 40
3.0
 40
4.0
 40
4.0
 40
4.0
 40
5.0
 40
5.0
 40
5.0
 40
6.0
 40
6.0
 40
6.0
 40
7.0
 40
7.0
 40
7.0
 40
8.0
 40
8.0
 40
8.0
 40
9.0
 40
9.0
 40
9.0
 40
10.0
 40
10.0
 40
10.0
 40
11.0
 40
11.0
 40
11.0
 40
12.0
 40
12.0
 40
12.0
 40
13.0
 40
13.0
 40
13.0
 40
14.0
 40
14.0
 40
14.0
 40
15.0
 40
15.0
 40
15.0
 40
16.0
 40
16.0
 40
16.0
 40
17.0
 40
17.0
 40
17.0
 40
18.0
 40
18.0
 40
18.0
 40
19.0
 40
19.0
 40
19.0
 40
20.0
 40
20.0
 40
20.0
 40
21.0
 40
21.0
 40
21.0
 40
22.0
 40
22.0
 40
22.0
 40
23.0
 40
23.0
 40
23.0
 40
24.0
 40
24.0
 40
24.0
 40
25.0
 40
25.0
 40
25.0
 40
26.0
 40
26.0
 40
26.0
 40
27.0
 40
27.0
 40
27.0
 40
28.0
 40
28.0
 40
28.0
 40
29.0
 40
29.0
 40
29.0
 40
30.0
 40
30.0
 40
30.0
 40
31.0
 40
31.0
 40
31.0
 40
32.0
 40
32.0
 40
32.0
 40
33.0
 40
33.0
 40
33.0
 40
34.0
 40
34.0
 40
34.0
 40
35.0
 40
35.0
 40
35.0
 40
36.0
 40
36.0
 40
36.0
 40
37.0
 40
37.0
 40
37.0
 40
38.0
 40
38.0
 40
38.0
 40
39.0
 40
39.0
 40
39.0
 40
40.0
 40
40.0
 40
40.0
 40
41.0
 40
41.0
 40
41.0
 40
42.0
 40
42.0
 40
42.0
 40
43.0
 40
43.0
 40
43.0
 40
44.0
 40
44.0
 40
44.0
 40
45.0
 40
45.0
 40
45.0
 40
46.0
 40
46.0
 40
46.0
 40
47.0
 40
47.0
 40
47.0
 40
48.0
 40
48.0
 40
48.0
 40
49.0
 40
49.0
 40
49.0
 40
50.0
 40
50.0
 40
50.0
 40
51.0
 40
51.0
 40
51.0
 40
52.0
 40
52.0
 40
52.0
 40
53.0
 40
53.0
 40
53.0
 40
53.0
 10
39.6300650222454
 20
-12.00158861087636
 30
0.0
 10
39.6300650222454
 20
-14.10710999557959
 30
0.0
 10
39.64730950467156
 20
-16.09580953167397
 30
0.0
 10
39.62149718003155
 20
-18.08394875808692
 30
0.0
 10
39.61131096762038
 20
-18.86855502877181
 30
0.0
 10
39.44258975479173
 20
-19.65300490233691
 30
0.0
 10
39.45621398388754
 20
-20.43560792991386
 30
0.0
 10
39.48172711403742
 20
-21.90143789517765
 30
0.0
 10
39.61643807319975
 20
-23.36517349901209
 30
0.0
 10
39.65173758312358
 20
-24.83108234282403
 30
0.0
 10
39.68593823328413
 20
-26.25144562540319
 30
0.0
 10
39.64919442995823
 20
-27.67344903777733
 30
0.0
 10
39.65070400215804
 20
-29.09472350357636
 30
0.0
 10
39.65106575549609
 20
-29.43505995593809
 30
0.0
 10
39.66270986105845
 20
-29.77714805604085
 30
0.0
 10
39.69840104376906
 20
-30.11534390782363
 30
0.0
 10
39.79316681856179
 20
-31.01330001105734
 30
0.0
 10
39.91233054404182
 20
-31.90872928082466
 30
0.0
 10
40.00163465941635
 20
-32.80716681519292
 30
0.0
 10
40.0210007027714
 20
-33.00200226710155
 30
0.0
 10
39.95598574008731
 20
-33.20522332458088
 30
0.0
 10
39.92810625351621
 20
-33.41776293045002
 30
0.0
 10
38.65678262622156
 20
-32.55247070567847
 30
0.0
 10
37.32534538597958
 20
-32.41360638300422
 30
0.0
 10
35.92090469016988
 20
-32.80483853807022
 30
0.0
 10
35.78825273308981
 20
-32.84179177753911
 30
0.0
 10
35.68518567117354
 20
-32.98495090111975
 30
0.0
 10
35.56838286221475
 20
-33.07880005279264
 30
0.0
 10
35.69374535353823
 20
-33.21230607414463
 30
0.0
 10
35.80103377771398
 20
-33.43458310068958
 30
0.0
 10
35.94750308033424
 20
-33.46439919159628
 30
0.0
 10
36.69992010381664
 20
-33.61756773084363
 30
0.0
 10
37.46216702627117
 20
-33.72279171303748
 30
0.0
 10
38.2216096803697
 20
-33.84072330120861
 30
0.0
 10
38.34939836701218
 20
-33.86056805574743
 30
0.0
 10
38.48025787710223
 20
-33.86062517469569
 30
0.0
 10
38.70066629805979
 20
-33.87628120637454
 30
0.0
 10
35.7269287424325
 20
-34.9557858062094
 30
0.0
 10
33.3118607383433
 20
-36.75429012494031
 30
0.0
 10
30.907974448331
 20
-38.7483914815548
 30
0.0
 10
30.84055776987699
 20
-37.22366372095302
 30
0.0
 10
30.77424811103639
 20
-35.72398669901567
 30
0.0
 10
30.70668183533747
 20
-34.19594059952446
 30
0.0
 10
30.925390287601
 20
-34.02974894011107
 30
0.0
 10
31.2042014730119
 20
-33.85640653238571
 30
0.0
 10
31.43540537515892
 20
-33.63364807470749
 30
0.0
 10
31.83557528562693
 20
-33.24810605485212
 30
0.0
 10
31.7909028283155
 20
-32.95336684277177
 30
0.0
 10
31.26427428671055
 20
-32.85415122992778
 30
0.0
 10
30.77055169910931
 20
-32.76113982282624
 30
0.0
 10
30.73725407231883
 20
-32.49510152218939
 30
0.0
 10
30.73839373133078
 20
-32.1076718570972
 30
0.0
 10
30.74271845168686
 20
-30.63745189267864
 30
0.0
 10
30.71870945383649
 20
-29.16707417116569
 30
0.0
 10
30.73116410447163
 20
-27.69697116459413
 30
0.0
 10
30.75064166577275
 20
-25.39858357171707
 30
0.0
 10
30.76343903009619
 20
-23.09950783151291
 30
0.0
 10
30.83542794434812
 20
-20.80248701346531
 30
0.0
 10
30.86742543508211
 20
-19.78151301573043
 30
0.0
 10
31.03989473888582
 20
-18.76515477299163
 30
0.0
 10
31.1418983003875
 20
-17.74602898121947
 30
0.0
 10
31.17125743970935
 20
-17.45271366291686
 30
0.0
 10
31.17724132951014
 20
-17.15705646774241
 30
0.0
 10
31.20111432986472
 20
-16.73597558237052
 30
0.0
 10
30.65222027830161
 20
-16.73597558237052
 30
0.0
 10
30.14239830718677
 20
-16.72430563728481
 30
0.0
 10
29.63426270501587
 20
-16.74834047465884
 30
0.0
 10
29.55647485755773
 20
-16.752020566886
 30
0.0
 10
29.42980679027779
 20
-16.91565003348462
 30
0.0
 10
29.42132870641013
 20
-17.0135791100219
 30
0.0
 10
29.27678784827567
 20
-18.68312652362458
 30
0.0
 10
29.09521487212481
 20
-20.35182939277973
 30
0.0
 10
29.02620702297429
 20
-22.02502425921102
 30
0.0
 10
28.9094232536646
 20
-24.85668251137121
 30
0.0
 10
28.81221496385329
 20
-27.69126470968455
 30
0.0
 10
28.80702257947618
 20
-30.52479972728162
 30
0.0
 10
28.80207227064125
 20
-33.2242738537462
 30
0.0
 10
28.91965842517392
 20
-35.92413965299788
 30
0.0
 10
28.99717699759097
 20
-38.6234397026672
 30
0.0
 10
29.011497533864
 20
-39.12224315669981
 30
0.0
 10
28.97704392836196
 20
-39.21107128083975
 30
0.0
 10
28.49039321052517
 20
-39.23752007375887
 30
0.0
 10
27.17176965430624
 20
-39.30919347382107
 30
0.0
 10
25.85184052213117
 20
-39.35878904046885
 30
0.0
 10
24.5339187129891
 20
-39.4410104062793
 30
0.0
 10
21.60149719648562
 20
-39.62395695713451
 30
0.0
 10
18.66805433879146
 20
-39.78873424259488
 30
0.0
 10
15.78701675600136
 20
-40.44231644621981
 30
0.0
 10
13.88478578750091
 20
-40.87384737914303
 30
0.0
 10
11.95313652076812
 20
-40.80293556505514
 30
0.0
 10
10.02387061014377
 20
-40.66152808921618
 30
0.0
 10
9.969930603503197
 20
-40.65757056209846
 30
0.0
 10
9.917701445355956
 20
-40.63028130465752
 30
0.0
 10
9.853084275346234
 20
-40.61028695287379
 30
0.0
 10
9.877508065557535
 20
-40.54875080612398
 30
0.0
 10
9.88140371381496
 20
-40.49248592229815
 30
0.0
 10
9.90976531150759
 20
-40.47422689855714
 30
0.0
 10
10.80977701688547
 20
-39.89493196685651
 30
0.0
 10
11.22699897332257
 20
-38.97134849557671
 30
0.0
 10
11.64782554337742
 20
-38.04926915659676
 30
0.0
 10
11.85088816377475
 20
-37.60433703046953
 30
0.0
 10
11.78019122572983
 20
-37.19400538714071
 30
0.0
 10
11.46752074387211
 20
-37.03916135874936
 30
0.0
 10
11.19733111968587
 20
-36.90535614290692
 30
0.0
 10
10.65726398556665
 20
-37.17584156164617
 30
0.0
 10
10.47362180752217
 20
-37.5308004647196
 30
0.0
 10
10.30350662036483
 20
-37.85960704941517
 30
0.0
 10
10.16882830060169
 20
-38.21866491700305
 30
0.0
 10
9.941756682354319
 20
-38.50310095882651
 30
0.0
 10
9.652341772221483
 20
-38.86562676254935
 30
0.0
 10
9.285735363647927
 20
-39.16653482102441
 30
0.0
 10
8.95240414227799
 20
-39.49400319036338
 30
0.0
 10
8.90655666660558
 20
-39.47852667538008
 30
0.0
 10
8.86070919093317
 20
-39.46305288034469
 30
0.0
 10
8.814862395248054
 20
-39.44757636536076
 30
0.0
 10
8.698542377398413
 20
-38.7569865232685
 30
0.0
 10
8.501716602143041
 20
-38.06886639569373
 30
0.0
 10
8.480413954453027
 20
-37.37535804734863
 30
0.0
 10
8.404817706633867
 20
-34.91423041149355
 30
0.0
 10
8.391402233693432
 20
-32.4512205703013
 30
0.0
 10
8.348696980153939
 20
-29.98902671408181
 30
0.0
 10
8.340470491652852
 20
-29.51473272868354
 30
0.0
 10
8.309519501646552
 20
-29.04071617817584
 30
0.0
 10
8.283597699022685
 20
-28.56687098451229
 30
0.0
 10
8.192958768229953
 20
-26.90999989746293
 30
0.0
 10
8.13058623688274
 20
-25.25083045273959
 30
0.0
 10
7.999644448307731
 20
-23.59711450758434
 30
0.0
 10
7.853324062945081
 20
-21.74918597905108
 30
0.0
 10
7.648276559101618
 20
-19.90579976686477
 30
0.0
 10
7.455789783939384
 20
-18.06179476607482
 30
0.0
 10
7.435161683826365
 20
-17.86418360528336
 30
0.0
 10
7.327886859400383
 20
-17.67561627794097
 30
0.0
 10
7.241328533459323
 20
-17.42688229862742
 30
0.0
 10
7.710662690197959
 20
-17.42688229862742
 30
0.0
 10
8.23847576998859
 20
-17.43443151960073
 30
0.0
 10
8.76601549481275
 20
-17.42563520159414
 30
0.0
 10
11.76482554870435
 20
-17.37563028248508
 30
0.0
 10
14.76481878080671
 20
-17.35808388561959
 30
0.0
 10
17.76184998745773
 20
-17.2550331434026
 30
0.0
 10
19.46600876365651
 20
-17.19643726250553
 30
0.0
 10
21.16372533849571
 20
-16.9700857509965
 30
0.0
 10
22.86722996674182
 20
-16.86696972998112
 30
0.0
 10
24.34826309202435
 20
-16.77732154094337
 30
0.0
 10
25.83376645498345
 20
-16.76420730245528
 30
0.0
 10
27.31653354833347
 20
-16.69974040967808
 30
0.0
 10
28.76702843600875
 20
-16.63667701105396
 30
0.0
 10
30.21818427151221
 20
-16.57203740145801
 30
0.0
 10
31.66513506445547
 20
-16.45829861607192
 30
0.0
 10
31.94876600110613
 20
-16.43600318666439
 30
0.0
 10
32.21572636476214
 20
-16.188293268492
 30
0.0
 10
32.48816198758516
 20
-16.04046399091748
 30
0.0
 10
32.79866874929074
 20
-15.87197533380534
 30
0.0
 10
33.09378603440841
 20
-15.66788797227988
 30
0.0
 10
33.4179523845585
 20
-15.53302197597331
 30
0.0
 10
35.13182546185893
 20
-14.8199775874039
 30
0.0
 10
36.8236669448939
 20
-14.06532476509608
 30
0.0
 10
38.35255894880689
 20
-12.99595741857297
 30
0.0
 10
38.75176327705725
 20
-12.71673552072587
 30
0.0
 10
39.12333019427806
 20
-12.39799139071958
 30
0.0
 10
39.6300650222454
 20
-12.00158861087636
 30
0.0
  0
SPLINE
  5
66
330
41
100
AcDbEntity
  8
Layer 1
370
     0
100
AcDbSpline
210
0.0
220
0.0
230
1.0
 70
    11
 71
     3
 72
    59
 73
    55
 74
     0
 42
0.0000000001
 43
0.0000000001
 12
1.0
 22
0.0
 32
0.0
 13
1.0
 23
0.0
 33
0.0
 40
0.0
 40
0.0
 40
0.0
 40
0.0
 40
1.0
 40
1.0
 40
1.0
 40
2.0
 40
2.0
 40
2.0
 40
3.0
 40
3.0
 40
3.0
 40
4.0
 40
4.0
 40
4.0
 40
5.0
 40
5.0
 40
5.0
 40
6.0
 40
6.0
 40
6.0
 40
7.0
 40
7.0
 40
7.0
 40
8.0
 40
8.0
 40
8.0
 40
9.0
 40
9.0
 40
9.0
 40
10.0
 40
10.0
 40
10.0
 40
11.0
 40
11.0
 40
11.0
 40
12.0
 40
12.0
 40
12.0
 40
13.0
 40
13.0
 40
13.0
 40
14.0
 40
14.0
 40
14.0
 40
15.0
 40
15.0
 40
15.0
 40
16.0
 40
16.0
 40
16.0
 40
17.0
 40
17.0
 40
17.0
 40
18.0
 40
18.0
 40
18.0
 40
18.0
 10
16.9916227319684
 20
-34.98426368176077
 30
0.0
 10
16.96962241712627
 20
-34.69888381731825
 30
0.0
 10
16.94935743032654
 20
-34.51580670886756
 30
0.0
 10
16.94421536502281
 20
-34.33230800818104
 30
0.0
 10
16.94197548627265
 20
-34.25238500004392
 30
0.0
 10
16.95558067571937
 20
-34.16480533291185
 30
0.0
 10
16.98797391916488
 20
-34.09231594787692
 30
0.0
 10
17.1783568130721
 20
-33.66626027412104
 30
0.0
 10
17.39288606229973
 20
-33.25012969758535
 30
0.0
 10
17.56384579390426
 20
-32.81668119997531
 30
0.0
 10
17.63316643729468
 20
-32.64092619668138
 30
0.0
 10
17.61318432528549
 20
-32.42995056201016
 30
0.0
 10
17.63383690494758
 20
-32.23500359215483
 30
0.0
 10
17.44230211225355
 20
-32.26659309040245
 30
0.0
 10
17.25095363612868
 20
-32.29943104565859
 30
0.0
 10
17.05901221092319
 20
-32.32832507354549
 30
0.0
 10
17.03263005677704
 20
-32.33229892036346
 30
0.0
 10
17.00330219687914
 20
-32.31671360738264
 30
0.0
 10
16.95936412604311
 20
-32.30645123637442
 30
0.0
 10
16.8874010513155
 20
-31.95499834873353
 30
0.0
 10
16.84746402679601
 20
-31.58585762683172
 30
0.0
 10
16.73087609388051
 20
-31.24276314526199
 30
0.0
 10
16.62785799106272
 20
-30.93960296826256
 30
0.0
 10
16.47356883245283
 20
-30.62335711224853
 30
0.0
 10
16.04207461885354
 20
-30.69461435997391
 30
0.0
 10
15.48775834714631
 20
-30.78614883427452
 30
0.0
 10
15.38347274767057
 20
-31.03328892294078
 30
0.0
 10
15.53714719760059
 20
-31.62038739093144
 30
0.0
 10
15.7705896185235
 20
-32.51222632681905
 30
0.0
 10
16.04427369835535
 20
-33.42896640412682
 30
0.0
 10
15.06963540730135
 20
-34.11439378129133
 30
0.0
 10
14.85604454079215
 20
-34.26460301503652
 30
0.0
 10
14.64692799188426
 20
-34.46883317393264
 30
0.0
 10
14.53006398405279
 20
-34.69658001974463
 30
0.0
 10
14.39118606162973
 20
-34.96722591552809
 30
0.0
 10
14.35414442378862
 20
-35.29012476902057
 30
0.0
 10
14.27297295864298
 20
-35.59038275946674
 30
0.0
 10
14.54918795186565
 20
-35.6006886496741
 30
0.0
 10
14.84367012867976
 20
-35.67616453970945
 30
0.0
 10
15.097082421837
 20
-35.60512760792574
 30
0.0
 10
15.42830160210212
 20
-35.51227395791922
 30
0.0
 10
15.72703098069971
 20
-35.30352868217376
 30
0.0
 10
15.9713749608588
 20
-35.17937656855996
 30
0.0
 10
16.24689908680488
 20
-35.43622143850283
 30
0.0
 10
16.45403007227871
 20
-35.69003084434714
 30
0.0
 10
16.71671059475269
 20
-35.85583355092326
 30
0.0
 10
16.94523806618873
 20
-36.00007521456791
 30
0.0
 10
17.4272553493546
 20
-35.72638569483576
 30
0.0
 10
17.5019995728647
 20
-35.45344960122909
 30
0.0
 10
17.59556040984772
 20
-35.11178581331197
 30
0.0
 10
17.3000650516924
 20
-35.12288864884201
 30
0.0
 10
17.1100751905472
 20
-35.04038984814034
 30
0.0
 10
17.04317666255071
 20
-35.01134078310888
 30
0.0
 10
16.97820657904035
 20
-34.97785275982386
 30
0.0
 10
16.9916227319684
 20
-34.98426368176077
 30
0.0
  0
SPLINE
  5
67
330
41
100
AcDbEntity
  8
Layer 1
370
     0
100
AcDbSpline
210
0.0
220
0.0
230
1.0
 70
    11
 71
     3
 72
    20
 73
    16
 74
     0
 42
0.0000000001
 43
0.0000000001
 12
1.0
 22
0.0
 32
0.0
 13
1.0
 23
0.0
 33
0.0
 40
0.0
 40
0.0
 40
0.0
 40
0.0
 40
1.0
 40
1.0
 40
1.0
 40
2.0
 40
2.0
 40
2.0
 40
3.0
 40
3.0
 40
3.0
 40
4.0
 40
4.0
 40
4.0
 40
5.0
 40
5.0
 40
5.0
 40
5.0
 10
25.11416834710744
 20
-34.81451432786622
 30
0.0
 10
25.66118563323304
 20
-34.79815382916133
 30
0.0
 10
26.11783530356952
 20
-34.63695599778135
 30
0.0
 10
26.44539071130644
 20
-34.23026092748055
 30
0.0
 10
26.53883459044343
 20
-34.11423874414613
 30
0.0
 10
26.56515282576675
 20
-33.79047766653258
 30
0.0
 10
26.48095405637171
 20
-33.7102282644061
 30
0.0
 10
25.97009578434118
 20
-33.22333547102745
 30
0.0
 10
24.43459430214823
 20
-33.29750850505649
 30
0.0
 10
23.93157220580692
 20
-33.79677163062313
 30
0.0
 10
23.63656643863531
 20
-34.0895769583177
 30
0.0
 10
23.64629705943623
 20
-34.3094930683414
 30
0.0
 10
24.02745316006253
 20
-34.48119806622032
 30
0.0
 10
24.37018860824404
 20
-34.63559602282677
 30
0.0
 10
24.75045664522496
 20
-34.70667919375817
 30
0.0
 10
25.11416834710744
 20
-34.81451432786622
 30
0.0
  0
SPLINE
  5
68
330
41
100
AcDbEntity
  8
Layer 1
370
     0
100
AcDbSpline
210
0.0
220
0.0
230
1.0
 70
    11
 71
     3
 72
    32
 73
    28
 74
     0
 42
0.0000000001
 43
0.0000000001
 12
1.0
 22
0.0
 32
0.0
 13
1.0
 23
0.0
 33
0.0
 40
0.0
 40
0.0
 40
0.0
 40
0.0
 40
1.0
 40
1.0
 40
1.0
 40
2.0
 40
2.0
 40
2.0
 40
3.0
 40
3.0
 40
3.0
 40
4.0
 40
4.0
 40
4.0
 40
5.0
 40
5.0
 40
5.0
 40
6.0
 40
6.0
 40
6.0
 40
7.0
 40
7.0
 40
7.0
 40
8.0
 40
8.0
 40
8.0
 40
9.0
 40
9.0
 40
9.0
 40
9.0
 10
17.16728797691584
 20
-24.8763912684149
 30
0.0
 10
17.09653663987313
 20
-24.75980061554893
 30
0.0
 10
16.9892672553468
 20
-24.51931896426077
 30
0.0
 10
16.81671363309562
 20
-24.34257933909912
 30
0.0
 10
16.77246412799492
 20
-24.29725681375912
 30
0.0
 10
16.52323919772306
 20
-24.45611820816628
 30
0.0
 10
16.36585609609175
 20
-24.51495344465635
 30
0.0
 10
16.31189636981414
 20
-24.53512187323406
 30
0.0
 10
16.22948460750979
 20
-24.5159897455714
 30
0.0
 10
16.19708728413922
 20
-24.55003807853721
 30
0.0
 10
16.104887782086
 20
-24.64693357410926
 30
0.0
 10
15.97219502575661
 20
-24.75649859635846
 30
0.0
 10
15.9616878592567
 20
-24.87083713070005
 30
0.0
 10
15.92157403799341
 20
-25.30734013205679
 30
0.0
 10
15.89954924360188
 20
-25.74874176320112
 30
0.0
 10
15.9191845619977
 20
-26.18614234802859
 30
0.0
 10
15.92915181844084
 20
-26.40812290003355
 30
0.0
 10
16.00005139275387
 20
-26.65204528795715
 30
0.0
 10
16.11772730563303
 20
-26.83935735841613
 30
0.0
 10
16.35926157753647
 20
-27.22382771800744
 30
0.0
 10
16.65704985346516
 20
-27.20290042340461
 30
0.0
 10
16.88614171450768
 20
-26.80873888228646
 30
0.0
 10
16.95029173312055
 20
-26.69836603491399
 30
0.0
 10
16.98250545987212
 20
-26.56121800063304
 30
0.0
 10
16.99846884589025
 20
-26.43252085072055
 30
0.0
 10
17.05655473618024
 20
-25.96422707482202
 30
0.0
 10
17.10154678760615
 20
-25.49431220877794
 30
0.0
 10
17.16728797691584
 20
-24.8763912684149
 30
0.0
  0
SPLINE
  5
69
330
41
100
AcDbEntity
  8
Layer 1
370
     0
100
AcDbSpline
210
0.0
220
0.0
230
1.0
 70
    11
 71
     3
 72
    20
 73
    16
 74
     0
 42
0.0000000001
 43
0.0000000001
 12
1.0
 22
0.0
 32
0.0
 13
1.0
 23
0.0
 33
0.0
 40
0.0
 40
0.0
 40
0.0
 40
0.0
 40
1.0
 40
1.0
 40
1.0
 40
2.0
 40
2.0
 40
2.0
 40
3.0
 40
3.0
 40
3.0
 40
4.0
 40
4.0
 40
4.0
 40
5.0
 40
5.0
 40
5.0
 40
5.0
 10
18.7864075191984
 20
-34.43218184890339
 30
0.0
 10
18.56579918192288
 20
-34.4972430507358
 30
0.0
 10
18.30020831304648
 20
-34.54164351305664
 30
0.0
 10
18.0726464238281
 20
-34.65948262293048
 30
0.0
 10
17.98238488608508
 20
-34.70622496212379
 30
0.0
 10
17.89683294161034
 20
-34.96377429909271
 30
0.0
 10
17.94489989640889
 20
-35.04385234437503
 30
0.0
 10
18.31134514795062
 20
-35.65435326138567
 30
0.0
 10
19.60073876246826
 20
-35.62104747474538
 30
0.0
 10
19.92902447675585
 20
-34.9943900552732
 30
0.0
 10
19.96828559372278
 20
-34.9194445554699
 30
0.0
 10
19.86438486715926
 20
-34.67472250227316
 30
0.0
 10
19.78126047797907
 20
-34.64740332538349
 30
0.0
 10
19.47654720958038
 20
-34.54726836946953
 30
0.0
 10
19.15258077574889
 20
-34.50571841465332
 30
0.0
 10
18.7864075191984
 20
-34.43218184890339
 30
0.0
  0
SPLINE
  5
6A
330
41
100
AcDbEntity
  8
Layer 1
370
     0
100
AcDbSpline
210
0.0
220
0.0
230
1.0
 70
    11
 71
     3
 72
    23
 73
    19
 74
     0
 42
0.0000000001
 43
0.0000000001
 12
1.0
 22
0.0
 32
0.0
 13
1.0
 23
0.0
 33
0.0
 40
0.0
 40
0.0
 40
0.0
 40
0.0
 40
1.0
 40
1.0
 40
1.0
 40
2.0
 40
2.0
 40
2.0
 40
3.0
 40
3.0
 40
3.0
 40
4.0
 40
4.0
 40
4.0
 40
5.0
 40
5.0
 40
5.0
 40
6.0
 40
6.0
 40
6.0
 40
6.0
 10
21.28176436468815
 20
-34.14902146358735
 30
0.0
 10
21.17207014481743
 20
-34.16605378991973
 30
0.0
 10
20.95808488557163
 20
-34.15179037259529
 30
0.0
 10
20.8024207922828
 20
-34.24021050424982
 30
0.0
 10
20.69936325019124
 20
-34.2987465462488
 30
0.0
 10
20.59199458749339
 20
-34.55345897546284
 30
0.0
 10
20.6379726207616
 20
-34.63607473401086
 30
0.0
 10
20.86180545865436
 20
-35.03826556726163
 30
0.0
 10
21.47953464254891
 20
-35.15265306070074
 30
0.0
 10
21.84857064637955
 20
-34.86276079935808
 30
0.0
 10
22.00778563427464
 20
-34.73769750252506
 30
0.0
 10
22.09997289655364
 20
-34.52730937703417
 30
0.0
 10
22.22260727811784
 20
-34.35568053775229
 30
0.0
 10
22.03939145222186
 20
-34.28679508634746
 30
0.0
 10
21.85936748754456
 20
-34.20656200392059
 30
0.0
 10
21.67163110489896
 20
-34.15374601657967
 30
0.0
 10
21.57582630924104
 20
-34.12678859302837
 30
0.0
 10
21.46618512839384
 20
-34.14902146358735
 30
0.0
 10
21.28176436468815
 20
-34.14902146358735
 30
0.0
  0
SPLINE
  5
6B
330
41
100
AcDbEntity
  8
Layer 1
370
     0
100
AcDbSpline
210
0.0
220
0.0
230
1.0
 70
    11
 71
     3
 72
    20
 73
    16
 74
     0
 42
0.0000000001
 43
0.0000000001
 12
1.0
 22
0.0
 32
0.0
 13
1.0
 23
0.0
 33
0.0
 40
0.0
 40
0.0
 40
0.0
 40
0.0
 40
1.0
 40
1.0
 40
1.0
 40
2.0
 40
2.0
 40
2.0
 40
3.0
 40
3.0
 40
3.0
 40
4.0
 40
4.0
 40
4.0
 40
5.0
 40
5.0
 40
5.0
 40
5.0
 10
16.6145587959807
 20
-19.58618797283841
 30
0.0
 10
15.61606110432156
 20
-20.06768982549626
 30
0.0
 10
15.60295230573344
 20
-20.10453834689333
 30
0.0
 10
16.0173924334011
 20
-20.90002577719136
 30
0.0
 10
16.03793077516666
 20
-20.93944873117774
 30
0.0
 10
16.04841618206732
 20
-20.98715393263824
 30
0.0
 10
16.07712933328568
 20
-21.01865367253905
 30
0.0
 10
16.14057488487187
 20
-21.08825855069492
 30
0.0
 10
16.23135457307274
 20
-21.21481917995353
 30
0.0
 10
16.27738020546418
 20
-21.2015526242707
 30
0.0
 10
16.376072227951
 20
-21.17310874809312
 30
0.0
 10
16.51998749760629
 20
-21.07789554154058
 30
0.0
 10
16.52853358022184
 20
-20.99758630051538
 30
0.0
 10
16.57517664124267
 20
-20.55925141289421
 30
0.0
 10
16.58638283486929
 20
-20.11714531472384
 30
0.0
 10
16.6145587959807
 20
-19.58618797283841
 30
0.0
  0
SPLINE
  5
6C
330
41
100
AcDbEntity
  8
Layer 1
370
     0
100
AcDbSpline
210
0.0
220
0.0
230
1.0
 70
    11
 71
     3
 72
   113
 73
   109
 74
     0
 42
0.0000000001
 43
0.0000000001
 12
1.0
 22
0.0
 32
0.0
 13
1.0
 23
0.0
 33
0.0
 40
0.0
 40
0.0
 40
0.0
 40
0.0
 40
1.0
 40
1.0
 40
1.0
 40
2.0
 40
2.0
 40
2.0
 40
3.0
 40
3.0
 40
3.0
 40
4.0
 40
4.0
 40
4.0
 40
5.0
 40
5.0
 40
5.0
 40
6.0
 40
6.0
 40
6.0
 40
7.0
 40
7.0
 40
7.0
 40
8.0
 40
8.0
 40
8.0
 40
9.0
 40
9.0
 40
9.0
 40
10.0
 40
10.0
 40
10.0
 40
11.0
 40
11.0
 40
11.0
 40
12.0
 40
12.0
 40
12.0
 40
13.0
 40
13.0
 40
13.0
 40
14.0
 40
14.0
 40
14.0
 40
15.0
 40
15.0
 40
15.0
 40
16.0
 40
16.0
 40
16.0
 40
17.0
 40
17.0
 40
17.0
 40
18.0
 40
18.0
 40
18.0
 40
19.0
 40
19.0
 40
19.0
 40
20.0
 40
20.0
 40
20.0
 40
21.0
 40
21.0
 40
21.0
 40
22.0
 40
22.0
 40
22.0
 40
23.0
 40
23.0
 40
23.0
 40
24.0
 40
24.0
 40
24.0
 40
25.0
 40
25.0
 40
25.0
 40
26.0
 40
26.0
 40
26.0
 40
27.0
 40
27.0
 40
27.0
 40
28.0
 40
28.0
 40
28.0
 40
29.0
 40
29.0
 40
29.0
 40
30.0
 40
30.0
 40
30.0
 40
31.0
 40
31.0
 40
31.0
 40
32.0
 40
32.0
 40
32.0
 40
33.0
 40
33.0
 40
33.0
 40
34.0
 40
34.0
 40
34.0
 40
35.0
 40
35.0
 40
35.0
 40
36.0
 40
36.0
 40
36.0
 40
36.0
 10
39.22754235510593
 20
-11.17659924388709
 30
0.0
 10
38.87454181596671
 20
-11.21001110857378
 30
0.0
 10
38.51738247341591
 20
-11.29377604595814
 30
0.0
 10
38.16950903985542
 20
-11.26505609486522
 30
0.0
 10
37.64528493397054
 20
-11.22177897185706
 30
0.0
 10
37.25611722088613
 20
-11.43915328869
 30
0.0
 10
36.81239547246921
 20
-11.68032988717949
 30
0.0
 10
35.49913837742137
 20
-12.39412906184832
 30
0.0
 10
34.14352078248521
 20
-13.03066125946732
 30
0.0
 10
32.79798060196365
 20
-13.68405578654849
 30
0.0
 10
32.25525539679493
 20
-13.94760669299302
 30
0.0
 10
31.69567738198778
 20
-14.17646327836856
 30
0.0
 10
31.05540117331944
 20
-14.4602791716125
 30
0.0
 10
31.03354365584765
 20
-14.1907525352173
 30
0.0
 10
31.02528860787275
 20
-13.9384499816233
 30
0.0
 10
30.9899374189003
 20
-13.69000159705043
 30
0.0
 10
30.94264564982615
 20
-13.35766315739801
 30
0.0
 10
30.91563926717575
 20
-13.0124851941976
 30
0.0
 10
30.79752544236052
 20
-12.70441006771163
 30
0.0
 10
30.73913083775602
 20
-12.55209695271109
 30
0.0
 10
30.43351998588788
 20
-12.34096900084515
 30
0.0
 10
30.3487663467117
 20
-12.38193960632985
 30
0.0
 10
30.11926241325775
 20
-12.49288364318369
 30
0.0
 10
29.86394887511393
 20
-12.69064984111971
 30
0.0
 10
29.77328750473433
 20
-12.91608472950923
 30
0.0
 10
29.63368335568534
 20
-13.26321289679437
 30
0.0
 10
29.62287155479532
 20
-13.6621370702037
 30
0.0
 10
29.54399844732334
 20
-14.11637958486997
 30
0.0
 10
29.48465186025031
 20
-13.88579039140282
 30
0.0
 10
29.444712115781
 20
-13.73060636927299
 30
0.0
 10
29.40477237131169
 20
-13.57542234714252
 30
0.0
 10
29.38247422195465
 20
-13.5795553110301
 30
0.0
 10
29.36017879254744
 20
-13.58368691494245
 30
0.0
 10
29.33788064319041
 20
-13.5878185188548
 30
0.0
 10
29.33788064319041
 20
-14.00843973269138
 30
0.0
 10
29.3088941370059
 20
-14.43172377748949
 30
0.0
 10
29.34719919157957
 20
-14.84882809609295
 30
0.0
 10
29.3769826430874
 20
-15.17314132353845
 30
0.0
 10
29.2761269004478
 20
-15.26536530514074
 30
0.0
 10
28.96341425936585
 20
-15.26854764653503
 30
0.0
 10
26.79601945412479
 20
-15.29060508032478
 30
0.0
 10
24.62770802576455
 20
-15.29491756090664
 30
0.0
 10
22.46180239309896
 20
-15.3677591794546
 30
0.0
 10
20.72663346798277
 20
-15.42611434478471
 30
0.0
 10
18.99473120270803
 20
-15.57808610607217
 30
0.0
 10
17.26077129532627
 20
-15.6779395471705
 30
0.0
 10
16.65338472096236
 20
-15.71291674303036
 30
0.0
 10
16.04427233838044
 20
-15.72734335734947
 30
0.0
 10
15.43579370412748
 20
-15.73235078513266
 30
0.0
 10
12.94197771026149
 20
-15.75287824709892
 30
0.0
 10
10.44810187749741
 20
-15.76625224080274
 30
0.0
 10
7.954245764370364
 20
-15.78190827248159
 30
0.0
 10
7.736093541863521
 20
-15.78327776726088
 30
0.0
 10
7.517924999656761
 20
-15.78209186910029
 30
0.0
 10
7.267561770347862
 20
-15.73232358563312
 30
0.0
 10
9.209593765872345
 20
-14.07882523647162
 30
0.0
 10
11.45178039374641
 20
-12.85330828560038
 30
0.0
 10
13.65501801890584
 20
-11.31685482093923
 30
0.0
 10
13.32300461326689
 20
-11.29035706892196
 30
0.0
 10
13.12055058166216
 20
-11.27419920648582
 30
0.0
 10
12.91809655005711
 20
-11.25804134404904
 30
0.0
 10
12.91823254755257
 20
-11.21040278136088
 30
0.0
 10
12.91836854504802
 20
-11.16276421867271
 30
0.0
 10
12.91850454254348
 20
-11.11512565598455
 30
0.0
 10
13.62139943802597
 20
-11.11512565598455
 30
0.0
 10
14.32430249335793
 20
-11.11722953723989
 30
0.0
 10
15.02718242911573
 20
-11.11400775657216
 30
0.0
 10
15.27994737419455
 20
-11.11284905791111
 30
0.0
 10
15.40852756626069
 20
-11.2291894753854
 30
0.0
 10
15.4340230167367
 20
-11.48116427501482
 30
0.0
 10
15.47583816666829
 20
-11.89443210427197
 30
0.0
 10
15.51628382182091
 20
-12.30843024007882
 30
0.0
 10
15.57898818705681
 20
-12.71880812255661
 30
0.0
 10
15.63156753875518
 20
-13.06292394531702
 30
0.0
 10
15.70488106861235
 20
-13.40493588682274
 30
0.0
 10
15.79149651350199
 20
-13.74210223756472
 30
0.0
 10
15.81576798651824
 20
-13.83658105764249
 30
0.0
 10
15.91955583516047
 20
-13.91063033394965
 30
0.0
 10
15.98686915551757
 20
-13.99405119767111
 30
0.0
 10
16.07307796789543
 20
-13.91943481180635
 30
0.0
 10
16.2132981855992
 20
-13.85838961601581
 30
0.0
 10
16.23605328654076
 20
-13.76782888378297
 30
0.0
 10
16.32956516442563
 20
-13.39567717733102
 30
0.0
 10
16.41061695177509
 20
-13.01704383024606
 30
0.0
 10
16.45146787946425
 20
-12.63599380766554
 30
0.0
 10
16.48930510265378
 20
-12.28306670717353
 30
0.0
 10
16.46919787294875
 20
-11.92400475966189
 30
0.0
 10
16.47627926253759
 20
-11.56767772178247
 30
0.0
 10
16.48193947829917
 20
-11.2829533652685
 30
0.0
 10
16.61634444309616
 20
-11.1473081033128
 30
0.0
 10
16.91321881585548
 20
-11.12336710421064
 30
0.0
 10
18.47077365191409
 20
-10.99776117737038
 30
0.0
 10
20.02009111967199
 20
-11.04695419143112
 30
0.0
 10
21.58169596114561
 20
-11.14177164527214
 30
0.0
 10
23.35340061341929
 20
-11.24934702416381
 30
0.0
 10
25.1515186992634
 20
-11.27741962717767
 30
0.0
 10
26.91335265331596
 20
-11.09738070277601
 30
0.0
 10
28.88885499245
 20
-10.89550874045195
 30
0.0
 10
30.85153004781154
 20
-10.87173093834383
 30
0.0
 10
32.82439947543341
 20
-10.94591349219759
 30
0.0
 10
34.47046692144319
 20
-11.00780731236072
 30
0.0
 10
36.11534846929206
 20
-11.10286956169311
 30
0.0
 10
37.76163351129463
 20
-11.15624313876498
 30
0.0
 10
38.24441646035987
 20
-11.17189373054354
 30
0.0
 10
38.73019135432583
 20
-11.09528634134602
 30
0.0
 10
39.21459539353726
 20
-11.06096329343947
 30
0.0
 10
39.21891195404353
 20
-11.09950906358042
 30
0.0
 10
39.22322579459966
 20
-11.13805483372137
 30
0.0
 10
39.22754235510593
 20
-11.17659924388709
 30
0.0
  0
SPLINE
  5
6D
330
41
100
AcDbEntity
  8
Layer 1
370
     0
100
AcDbSpline
210
0.0
220
0.0
230
1.0
 70
    11
 71
     3
 72
    23
 73
    19
 74
     0
 42
0.0000000001
 43
0.0000000001
 12
1.0
 22
0.0
 32
0.0
 13
1.0
 23
0.0
 33
0.0
 40
0.0
 40
0.0
 40
0.0
 40
0.0
 40
1.0
 40
1.0
 40
1.0
 40
2.0
 40
2.0
 40
2.0
 40
3.0
 40
3.0
 40
3.0
 40
4.0
 40
4.0
 40
4.0
 40
5.0
 40
5.0
 40
5.0
 40
6.0
 40
6.0
 40
6.0
 40
6.0
 10
59.46576212789915
 20
-11.19752245856486
 30
0.0
 10
58.02485778360396
 20
-11.55338846493373
 30
0.0
 10
56.5580540762724
 20
-11.9156490735399
 30
0.0
 10
54.9546436046919
 20
-12.31165066077195
 30
0.0
 10
55.19076789622544
 20
-11.76780075631532
 30
0.0
 10
55.36642770127258
 20
-11.36790964071311
 30
0.0
 10
55.53831765574576
 20
-10.96639743496536
 30
0.0
 10
56.01608229722883
 20
-9.850378867571619
 30
0.0
 10
56.49414613320172
 20
-8.734480657961361
 30
0.0
 10
56.96811372461063
 20
-7.616847800296321
 30
0.0
 10
57.1411950171447
 20
-7.208702996694125
 30
0.0
 10
57.30020328884694
 20
-7.164120297729185
 30
0.0
 10
57.52429452198148
 20
-7.549803754979346
 30
0.0
 10
58.02891594886908
 20
-8.418308240595195
 30
0.0
 10
58.48374597271569
 20
-9.315810792181184
 30
0.0
 10
58.9558041592895
 20
-10.20312373141888
 30
0.0
 10
59.11919155034561
 20
-10.51023327568784
 30
0.0
 10
59.27361398650081
 20
-10.82210681222192
 30
0.0
 10
59.46576212789915
 20
-11.19752245856486
 30
0.0
  0
SPLINE
  5
6E
330
41
100
AcDbEntity
  8
Layer 1
370
     0
100
AcDbSpline
210
0.0
220
0.0
230
1.0
 70
    11
 71
     3
 72
    20
 73
    16
 74
     0
 42
0.0000000001
 43
0.0000000001
 12
1.0
 22
0.0
 32
0.0
 13
1.0
 23
0.0
 33
0.0
 40
0.0
 40
0.0
 40
0.0
 40
0.0
 40
1.0
 40
1.0
 40
1.0
 40
2.0
 40
2.0
 40
2.0
 40
3.0
 40
3.0
 40
3.0
 40
4.0
 40
4.0
 40
4.0
 40
5.0
 40
5.0
 40
5.0
 40
5.0
 10
108.558676592419
 20
-5.166307569463578
 30
0.0
 10
109.6995106228105
 20
-5.985355885863906
 30
0.0
 10
110.4784063586614
 20
-7.172074791239356
 30
0.0
 10
111.3885451175394
 20
-8.277246878381671
 30
0.0
 10
111.3025076620053
 20
-8.33809555779233
 30
0.0
 10
111.2604354768065
 20
-8.392337478872863
 30
0.0
 10
111.2124773200046
 20
-8.398173131402691
 30
0.0
 10
110.1521429271312
 20
-8.52718987542966
 30
0.0
 10
109.0921784474444
 20
-8.660551059449741
 30
0.0
 10
108.0298856906362
 20
-8.77143797735467
 30
0.0
 10
107.4993213815125
 20
-8.826819557447477
 30
0.0
 10
107.4709251044584
 20
-8.749994572256844
 30
0.0
 10
107.6325662876729
 20
-8.239003022681004
 30
0.0
 10
107.9475256073802
 20
-7.243290559729411
 30
0.0
 10
108.236895638339
 20
-6.239488285759164
 30
0.0
 10
108.558676592419
 20
-5.166307569463578
 30
0.0
  0
SPLINE
  5
6F
330
41
100
AcDbEntity
  8
Layer 1
370
     0
100
AcDbSpline
210
0.0
220
0.0
230
1.0
 70
    11
 71
     3
 72
    11
 73
     7
 74
     0
 42
0.0000000001
 43
0.0000000001
 12
1.0
 22
0.0
 32
0.0
 13
1.0
 23
0.0
 33
0.0
 40
0.0
 40
0.0
 40
0.0
 40
0.0
 40
1.0
 40
1.0
 40
1.0
 40
2.0
 40
2.0
 40
2.0
 40
2.0
 10
105.9375696627438
 20
-8.400104295838641
 30
0.0
 10
105.9398870600665
 20
-7.591844660754171
 30
0.0
 10
106.1627815152405
 20
-6.852966867933445
 30
0.0
 10
106.6292311651001
 20
-6.193682969310015
 30
0.0
 10
106.6813562851635
 20
-7.016284220279139
 30
0.0
 10
106.2294094082207
 20
-7.682597829443115
 30
0.0
 10
105.9375696627438
 20
-8.400104295838641
 30
0.0
  0
SPLINE
  5
70
330
41
100
AcDbEntity
  8
Layer 1
370
     0
100
AcDbSpline
210
0.0
220
0.0
230
1.0
 70
    11
 71
     3
 72
    23
 73
    19
 74
     0
 42
0.0000000001
 43
0.0000000001
 12
1.0
 22
0.0
 32
0.0
 13
1.0
 23
0.0
 33
0.0
 40
0.0
 40
0.0
 40
0.0
 40
0.0
 40
1.0
 40
1.0
 40
1.0
 40
2.0
 40
2.0
 40
2.0
 40
3.0
 40
3.0
 40
3.0
 40
4.0
 40
4.0
 40
4.0
 40
5.0
 40
5.0
 40
5.0
 40
6.0
 40
6.0
 40
6.0
 40
6.0
 10
93.70240810557067
 20
-22.87443197651194
 30
0.0
 10
93.33492111321424
 20
-24.08942816113317
 30
0.0
 10
92.62715750739352
 20
-24.63847180994087
 30
0.0
 10
91.36176609085136
 20
-24.71036824589583
 30
0.0
 10
90.90629415882599
 20
-24.73624856928341
 30
0.0
 10
90.4412153637203
 20
-24.69632514451369
 30
0.0
 10
89.98805538911805
 20
-24.6327163959325
 30
0.0
 10
89.458143867973
 20
-24.55833120581127
 30
0.0
 10
88.88905418833232
 20
-23.7566885288683
 30
0.0
 10
88.9794000445225
 20
-23.22307787584604
 30
0.0
 10
88.99857569138366
 20
-23.10983548131887
 30
0.0
 10
89.17706424433717
 20
-22.95516008982186
 30
0.0
 10
89.29859704618794
 20
-22.93832631983317
 30
0.0
 10
90.39927917601794
 20
-22.78585952766268
 30
0.0
 10
91.5011145646087
 20
-22.62305420588692
 30
0.0
 10
92.60835721361987
 20
-22.54755927620149
 30
0.0
 10
92.95784901737673
 20
-22.52372707509558
 30
0.0
 10
93.32470498135434
 20
-22.75430538876343
 30
0.0
 10
93.70240810557067
 20
-22.87443197651194
 30
0.0
  0
SPLINE
  5
71
330
41
100
AcDbEntity
  8
Layer 1
370
     0
100
AcDbSpline
210
0.0
220
0.0
230
1.0
 70
    11
 71
     3
 72
    26
 73
    22
 74
     0
 42
0.0000000001
 43
0.0000000001
 12
1.0
 22
0.0
 32
0.0
 13
1.0
 23
0.0
 33
0.0
 40
0.0
 40
0.0
 40
0.0
 40
0.0
 40
1.0
 40
1.0
 40
1.0
 40
2.0
 40
2.0
 40
2.0
 40
3.0
 40
3.0
 40
3.0
 40
4.0
 40
4.0
 40
4.0
 40
5.0
 40
5.0
 40
5.0
 40
6.0
 40
6.0
 40
6.0
 40
7.0
 40
7.0
 40
7.0
 40
7.0
 10
83.17884030767407
 20
-48.59276874742917
 30
0.0
 10
82.9549013917349
 20
-48.11320349910628
 30
0.0
 10
83.02283486067184
 20
-47.95182887098249
 30
0.0
 10
83.46865097051874
 20
-47.79052496155674
 30
0.0
 10
84.84421123819067
 20
-47.29279588773866
 30
0.0
 10
86.05438767157246
 20
-47.62156167318557
 30
0.0
 10
87.14818832813158
 20
-48.5183019588106
 30
0.0
 10
87.2615232009554
 20
-48.61121544771457
 30
0.0
 10
87.36716605543589
 20
-48.77372157500115
 30
0.0
 10
87.37545646275949
 20
-48.91007266395813
 30
0.0
 10
87.37984646191298
 20
-48.9822166153543
 30
0.0
 10
87.17174853424595
 20
-49.12727698392151
 30
0.0
 10
87.05100451786902
 20
-49.13741695718372
 30
0.0
 10
86.18540765870736
 20
-49.21012121826131
 30
0.0
 10
85.31795035380715
 20
-49.26948684498409
 30
0.0
 10
84.44999801802389
 20
-49.29337344508779
 30
0.0
 10
84.35289580625867
 20
-49.29604443589945
 30
0.0
 10
84.21657735670024
 20
-49.06401094902927
 30
0.0
 10
84.15383899209088
 20
-48.91714997362223
 30
0.0
 10
83.89304475487975
 20
-48.30673881495841
 30
0.0
 10
83.71200488891078
 20
-48.23975188859035
 30
0.0
 10
83.17884030767407
 20
-48.59276874742917
 30
0.0
  0
SPLINE
  5
72
330
41
100
AcDbEntity
  8
Layer 1
370
     0
100
AcDbSpline
210
0.0
220
0.0
230
1.0
 70
    11
 71
     3
 72
    20
 73
    16
 74
     0
 42
0.0000000001
 43
0.0000000001
 12
1.0
 22
0.0
 32
0.0
 13
1.0
 23
0.0
 33
0.0
 40
0.0
 40
0.0
 40
0.0
 40
0.0
 40
1.0
 40
1.0
 40
1.0
 40
2.0
 40
2.0
 40
2.0
 40
3.0
 40
3.0
 40
3.0
 40
4.0
 40
4.0
 40
4.0
 40
5.0
 40
5.0
 40
5.0
 40
5.0
 10
82.63752131660888
 20
-45.52498620373576
 30
0.0
 10
82.63752131660888
 20
-45.25030390228706
 30
0.0
 10
82.52378933109767
 20
-44.84710940751978
 30
0.0
 10
82.6601077806561
 20
-44.72646330933916
 30
0.0
 10
82.99049465624921
 20
-44.43407413398012
 30
0.0
 10
83.44034717176135
 20
-44.28817058094126
 30
0.0
 10
83.90639426903451
 20
-44.40076018749036
 30
0.0
 10
83.93681962872142
 20
-44.44551424329945
 30
0.0
 10
83.96724498840706
 20
-44.4902682991079
 30
0.0
 10
83.99767034809398
 20
-44.535022354917
 30
0.0
 10
83.5952700787002
 20
-44.88568917703451
 30
0.0
 10
83.19286980930643
 20
-45.23636143905168
 30
0.0
 10
82.79046953991265
 20
-45.58703370106821
 30
0.0
 10
82.7394867988114
 20
-45.56635120195739
 30
0.0
 10
82.6885040577095
 20
-45.54566870284658
 30
0.0
 10
82.63752131660888
 20
-45.52498620373576
 30
0.0
  0
SPLINE
  5
73
330
41
100
AcDbEntity
  8
Layer 1
370
     0
100
AcDbSpline
210
0.0
220
0.0
230
1.0
 70
    11
 71
     3
 72
    59
 73
    55
 74
     0
 42
0.0000000001
 43
0.0000000001
 12
1.0
 22
0.0
 32
0.0
 13
1.0
 23
0.0
 33
0.0
 40
0.0
 40
0.0
 40
0.0
 40
0.0
 40
1.0
 40
1.0
 40
1.0
 40
2.0
 40
2.0
 40
2.0
 40
3.0
 40
3.0
 40
3.0
 40
4.0
 40
4.0
 40
4.0
 40
5.0
 40
5.0
 40
5.0
 40
6.0
 40
6.0
 40
6.0
 40
7.0
 40
7.0
 40
7.0
 40
8.0
 40
8.0
 40
8.0
 40
9.0
 40
9.0
 40
9.0
 40
10.0
 40
10.0
 40
10.0
 40
11.0
 40
11.0
 40
11.0
 40
12.0
 40
12.0
 40
12.0
 40
13.0
 40
13.0
 40
13.0
 40
14.0
 40
14.0
 40
14.0
 40
15.0
 40
15.0
 40
15.0
 40
16.0
 40
16.0
 40
16.0
 40
17.0
 40
17.0
 40
17.0
 40
18.0
 40
18.0
 40
18.0
 40
18.0
 10
16.9916227319684
 20
-34.98426368176077
 30
0.0
 10
16.97820657904035
 20
-34.97785275982386
 30
0.0
 10
17.04317666255071
 20
-35.01134078310888
 30
0.0
 10
17.1100751905472
 20
-35.04038984814034
 30
0.0
 10
17.3000650516924
 20
-35.12288864884201
 30
0.0
 10
17.59556040984772
 20
-35.11178581331197
 30
0.0
 10
17.5019995728647
 20
-35.45344960122909
 30
0.0
 10
17.4272553493546
 20
-35.72638569483576
 30
0.0
 10
16.94523806618873
 20
-36.00007521456791
 30
0.0
 10
16.71671059475269
 20
-35.85583355092326
 30
0.0
 10
16.45403007227871
 20
-35.69003084434714
 30
0.0
 10
16.24689908680488
 20
-35.43622143850283
 30
0.0
 10
15.9713749608588
 20
-35.17937656855996
 30
0.0
 10
15.72703098069971
 20
-35.30352868217376
 30
0.0
 10
15.42830160210212
 20
-35.51227395791922
 30
0.0
 10
15.097082421837
 20
-35.60512760792574
 30
0.0
 10
14.84367012867976
 20
-35.67616453970945
 30
0.0
 10
14.54918795186565
 20
-35.6006886496741
 30
0.0
 10
14.27297295864298
 20
-35.59038275946674
 30
0.0
 10
14.35414442378862
 20
-35.29012476902057
 30
0.0
 10
14.39118606162973
 20
-34.96722591552809
 30
0.0
 10
14.53006398405279
 20
-34.69658001974463
 30
0.0
 10
14.64692799188426
 20
-34.46883317393264
 30
0.0
 10
14.85604454079215
 20
-34.26460301503652
 30
0.0
 10
15.06963540730135
 20
-34.11439378129133
 30
0.0
 10
16.04427369835535
 20
-33.42896640412682
 30
0.0
 10
15.7705896185235
 20
-32.51222632681905
 30
0.0
 10
15.53714719760059
 20
-31.62038739093144
 30
0.0
 10
15.38347274767057
 20
-31.03328892294078
 30
0.0
 10
15.48775834714631
 20
-30.78614883427452
 30
0.0
 10
16.04207461885354
 20
-30.69461435997391
 30
0.0
 10
16.47356883245283
 20
-30.62335711224853
 30
0.0
 10
16.62785799106272
 20
-30.93960296826256
 30
0.0
 10
16.73087609388051
 20
-31.24276314526199
 30
0.0
 10
16.84746402679601
 20
-31.58585762683172
 30
0.0
 10
16.8874010513155
 20
-31.95499834873353
 30
0.0
 10
16.95936412604311
 20
-32.30645123637442
 30
0.0
 10
17.00330219687914
 20
-32.31671360738264
 30
0.0
 10
17.03263005677704
 20
-32.33229892036346
 30
0.0
 10
17.05901221092319
 20
-32.32832507354549
 30
0.0
 10
17.25095363612868
 20
-32.29943104565859
 30
0.0
 10
17.44230211225355
 20
-32.26659309040245
 30
0.0
 10
17.63383690494758
 20
-32.235000872205
 30
0.0
 10
17.61318432528549
 20
-32.42995056201016
 30
0.0
 10
17.63316643729468
 20
-32.64092619668138
 30
0.0
 10
17.56384579390426
 20
-32.81668119997531
 30
0.0
 10
17.39288606229973
 20
-33.25012969758535
 30
0.0
 10
17.1783568130721
 20
-33.66626027412104
 30
0.0
 10
16.98797391916488
 20
-34.09231594787692
 30
0.0
 10
16.95558067571937
 20
-34.16480533291185
 30
0.0
 10
16.94197548627265
 20
-34.25238500004392
 30
0.0
 10
16.94421536502281
 20
-34.33230800818104
 30
0.0
 10
16.94935743032654
 20
-34.51580670886756
 30
0.0
 10
16.96962241712627
 20
-34.69888381731825
 30
0.0
 10
16.9916227319684
 20
-34.98426368176077
 30
0.0
  0
HATCH
  5
74
330
41
100
AcDbEntity
  8
Layer 1
 62
     7
420
 16777215
100
AcDbHatch
 10
0.0
 20
0.0
 30
0.0
210
0.0
220
0.0
230
1.0
  2
SOLID
 70
     1
 71
     0
 91
        1
 92
        1
 93
        1
 72
     4
 94
        3
 73
     0
 74
     1
 95
       59
 96
       55
 40
0.0
 40
0.0
 40
0.0
 40
0.0
 40
1.0
 40
1.0
 40
1.0
 40
2.0
 40
2.0
 40
2.0
 40
3.0
 40
3.0
 40
3.0
 40
4.0
 40
4.0
 40
4.0
 40
5.0
 40
5.0
 40
5.0
 40
6.0
 40
6.0
 40
6.0
 40
7.0
 40
7.0
 40
7.0
 40
8.0
 40
8.0
 40
8.0
 40
9.0
 40
9.0
 40
9.0
 40
10.0
 40
10.0
 40
10.0
 40
11.0
 40
11.0
 40
11.0
 40
12.0
 40
12.0
 40
12.0
 40
13.0
 40
13.0
 40
13.0
 40
14.0
 40
14.0
 40
14.0
 40
15.0
 40
15.0
 40
15.0
 40
16.0
 40
16.0
 40
16.0
 40
17.0
 40
17.0
 40
17.0
 40
18.0
 40
18.0
 40
18.0
 40
18.0
 10
16.9916227319684
 20
-34.98426368176077
 10
16.97820657904035
 20
-34.97785275982386
 10
17.04317666255071
 20
-35.01134078310888
 10
17.1100751905472
 20
-35.04038984814034
 10
17.3000650516924
 20
-35.12288864884201
 10
17.59556040984772
 20
-35.11178581331197
 10
17.5019995728647
 20
-35.45344960122909
 10
17.4272553493546
 20
-35.72638569483576
 10
16.94523806618873
 20
-36.00007521456791
 10
16.71671059475269
 20
-35.85583355092326
 10
16.45403007227871
 20
-35.69003084434714
 10
16.24689908680488
 20
-35.43622143850283
 10
15.9713749608588
 20
-35.17937656855996
 10
15.72703098069971
 20
-35.30352868217376
 10
15.42830160210212
 20
-35.51227395791922
 10
15.097082421837
 20
-35.60512760792574
 10
14.84367012867976
 20
-35.67616453970945
 10
14.54918795186565
 20
-35.6006886496741
 10
14.27297295864298
 20
-35.59038275946674
 10
14.35414442378862
 20
-35.29012476902057
 10
14.39118606162973
 20
-34.96722591552809
 10
14.53006398405279
 20
-34.69658001974463
 10
14.64692799188426
 20
-34.46883317393264
 10
14.85604454079215
 20
-34.26460301503652
 10
15.06963540730135
 20
-34.11439378129133
 10
16.04427369835535
 20
-33.42896640412682
 10
15.7705896185235
 20
-32.51222632681905
 10
15.53714719760059
 20
-31.62038739093144
 10
15.38347274767057
 20
-31.03328892294078
 10
15.48775834714631
 20
-30.78614883427452
 10
16.04207461885354
 20
-30.69461435997391
 10
16.47356883245283
 20
-30.62335711224853
 10
16.62785799106272
 20
-30.93960296826256
 10
16.73087609388051
 20
-31.24276314526199
 10
16.84746402679601
 20
-31.58585762683172
 10
16.8874010513155
 20
-31.95499834873353
 10
16.95936412604311
 20
-32.30645123637442
 10
17.00330219687914
 20
-32.31671360738264
 10
17.03263005677704
 20
-32.33229892036346
 10
17.05901221092319
 20
-32.32832507354549
 10
17.25095363612868
 20
-32.29943104565859
 10
17.44230211225355
 20
-32.26659309040245
 10
17.63383690494758
 20
-32.235000872205
 10
17.61318432528549
 20
-32.42995056201016
 10
17.63316643729468
 20
-32.64092619668138
 10
17.56384579390426
 20
-32.81668119997531
 10
17.39288606229973
 20
-33.25012969758535
 10
17.1783568130721
 20
-33.66626027412104
 10
16.98797391916488
 20
-34.09231594787692
 10
16.95558067571937
 20
-34.16480533291185
 10
16.94197548627265
 20
-34.25238500004392
 10
16.94421536502281
 20
-34.33230800818104
 10
16.94935743032654
 20
-34.51580670886756
 10
16.96962241712627
 20
-34.69888381731825
 10
16.9916227319684
 20
-34.98426368176077
 97
        0
 97
        0
 75
     2
 76
     1
 98
        0
  0
SPLINE
  5
75
330
41
100
AcDbEntity
  8
Layer 1
370
     0
100
AcDbSpline
210
0.0
220
0.0
230
1.0
 70
    11
 71
     3
 72
    20
 73
    16
 74
     0
 42
0.0000000001
 43
0.0000000001
 12
1.0
 22
0.0
 32
0.0
 13
1.0
 23
0.0
 33
0.0
 40
0.0
 40
0.0
 40
0.0
 40
0.0
 40
1.0
 40
1.0
 40
1.0
 40
2.0
 40
2.0
 40
2.0
 40
3.0
 40
3.0
 40
3.0
 40
4.0
 40
4.0
 40
4.0
 40
5.0
 40
5.0
 40
5.0
 40
5.0
 10
25.11416834710744
 20
-34.81451432786622
 30
0.0
 10
24.75045664522496
 20
-34.70667919375817
 30
0.0
 10
24.37018860824404
 20
-34.63559602282677
 30
0.0
 10
24.02745316006253
 20
-34.48119806622032
 30
0.0
 10
23.64629705943623
 20
-34.3094930683414
 30
0.0
 10
23.63656643863531
 20
-34.0895769583177
 30
0.0
 10
23.93157220580692
 20
-33.79677163062313
 30
0.0
 10
24.43459430214823
 20
-33.29750850505649
 30
0.0
 10
25.97009578434118
 20
-33.22333547102745
 30
0.0
 10
26.48095405637171
 20
-33.7102282644061
 30
0.0
 10
26.56515282576675
 20
-33.79047766653258
 30
0.0
 10
26.53883459044343
 20
-34.11423874414613
 30
0.0
 10
26.44539071130644
 20
-34.23026092748055
 30
0.0
 10
26.11783530356952
 20
-34.63695599778135
 30
0.0
 10
25.66118563323304
 20
-34.79815382916133
 30
0.0
 10
25.11416834710744
 20
-34.81451432786622
 30
0.0
  0
HATCH
  5
76
330
41
100
AcDbEntity
  8
Layer 1
 62
     7
420
 16777215
100
AcDbHatch
 10
0.0
 20
0.0
 30
0.0
210
0.0
220
0.0
230
1.0
  2
SOLID
 70
     1
 71
     0
 91
        1
 92
        1
 93
        1
 72
     4
 94
        3
 73
     0
 74
     1
 95
       20
 96
       16
 40
0.0
 40
0.0
 40
0.0
 40
0.0
 40
1.0
 40
1.0
 40
1.0
 40
2.0
 40
2.0
 40
2.0
 40
3.0
 40
3.0
 40
3.0
 40
4.0
 40
4.0
 40
4.0
 40
5.0
 40
5.0
 40
5.0
 40
5.0
 10
25.11416834710744
 20
-34.81451432786622
 10
24.75045664522496
 20
-34.70667919375817
 10
24.37018860824404
 20
-34.63559602282677
 10
24.02745316006253
 20
-34.48119806622032
 10
23.64629705943623
 20
-34.3094930683414
 10
23.63656643863531
 20
-34.0895769583177
 10
23.93157220580692
 20
-33.79677163062313
 10
24.43459430214823
 20
-33.29750850505649
 10
25.97009578434118
 20
-33.22333547102745
 10
26.48095405637171
 20
-33.7102282644061
 10
26.56515282576675
 20
-33.79047766653258
 10
26.53883459044343
 20
-34.11423874414613
 10
26.44539071130644
 20
-34.23026092748055
 10
26.11783530356952
 20
-34.63695599778135
 10
25.66118563323304
 20
-34.79815382916133
 10
25.11416834710744
 20
-34.81451432786622
 97
        0
 97
        0
 75
     2
 76
     1
 98
        0
  0
SPLINE
  5
77
330
41
100
AcDbEntity
  8
Layer 1
370
     0
100
AcDbSpline
210
0.0
220
0.0
230
1.0
 70
    11
 71
     3
 72
    32
 73
    28
 74
     0
 42
0.0000000001
 43
0.0000000001
 12
1.0
 22
0.0
 32
0.0
 13
1.0
 23
0.0
 33
0.0
 40
0.0
 40
0.0
 40
0.0
 40
0.0
 40
1.0
 40
1.0
 40
1.0
 40
2.0
 40
2.0
 40
2.0
 40
3.0
 40
3.0
 40
3.0
 40
4.0
 40
4.0
 40
4.0
 40
5.0
 40
5.0
 40
5.0
 40
6.0
 40
6.0
 40
6.0
 40
7.0
 40
7.0
 40
7.0
 40
8.0
 40
8.0
 40
8.0
 40
9.0
 40
9.0
 40
9.0
 40
9.0
 10
17.16728797691584
 20
-24.8763912684149
 30
0.0
 10
17.10154678760615
 20
-25.49431220877794
 30
0.0
 10
17.05655473618024
 20
-25.96422707482202
 30
0.0
 10
16.99846884589025
 20
-26.43252085072055
 30
0.0
 10
16.98250545987212
 20
-26.56121800063304
 30
0.0
 10
16.95029173312055
 20
-26.69836603491399
 30
0.0
 10
16.88614171450768
 20
-26.80873888228646
 30
0.0
 10
16.65704985346516
 20
-27.20290042340461
 30
0.0
 10
16.35926157753647
 20
-27.22382771800744
 30
0.0
 10
16.11772730563303
 20
-26.83935735841613
 30
0.0
 10
16.00005139275387
 20
-26.65204528795715
 30
0.0
 10
15.92915181844084
 20
-26.40812290003355
 30
0.0
 10
15.9191845619977
 20
-26.18614234802859
 30
0.0
 10
15.89954924360188
 20
-25.74874176320112
 30
0.0
 10
15.92157403799341
 20
-25.30734013205679
 30
0.0
 10
15.9616878592567
 20
-24.87083713070005
 30
0.0
 10
15.97219502575661
 20
-24.75649859635846
 30
0.0
 10
16.104887782086
 20
-24.64693357410926
 30
0.0
 10
16.19708728413922
 20
-24.55003807853721
 30
0.0
 10
16.22948460750979
 20
-24.5159897455714
 30
0.0
 10
16.31189636981414
 20
-24.53512187323406
 30
0.0
 10
16.36585609609175
 20
-24.51495344465635
 30
0.0
 10
16.52323919772306
 20
-24.45611820816628
 30
0.0
 10
16.77246412799492
 20
-24.29725681375912
 30
0.0
 10
16.81671363309562
 20
-24.34257933909912
 30
0.0
 10
16.9892672553468
 20
-24.51931896426077
 30
0.0
 10
17.09653663987313
 20
-24.75980061554893
 30
0.0
 10
17.16728797691584
 20
-24.8763912684149
 30
0.0
  0
HATCH
  5
78
330
41
100
AcDbEntity
  8
Layer 1
 62
     7
420
 16777215
100
AcDbHatch
 10
0.0
 20
0.0
 30
0.0
210
0.0
220
0.0
230
1.0
  2
SOLID
 70
     1
 71
     0
 91
        1
 92
        1
 93
        1
 72
     4
 94
        3
 73
     0
 74
     1
 95
       32
 96
       28
 40
0.0
 40
0.0
 40
0.0
 40
0.0
 40
1.0
 40
1.0
 40
1.0
 40
2.0
 40
2.0
 40
2.0
 40
3.0
 40
3.0
 40
3.0
 40
4.0
 40
4.0
 40
4.0
 40
5.0
 40
5.0
 40
5.0
 40
6.0
 40
6.0
 40
6.0
 40
7.0
 40
7.0
 40
7.0
 40
8.0
 40
8.0
 40
8.0
 40
9.0
 40
9.0
 40
9.0
 40
9.0
 10
17.16728797691584
 20
-24.8763912684149
 10
17.10154678760615
 20
-25.49431220877794
 10
17.05655473618024
 20
-25.96422707482202
 10
16.99846884589025
 20
-26.43252085072055
 10
16.98250545987212
 20
-26.56121800063304
 10
16.95029173312055
 20
-26.69836603491399
 10
16.88614171450768
 20
-26.80873888228646
 10
16.65704985346516
 20
-27.20290042340461
 10
16.35926157753647
 20
-27.22382771800744
 10
16.11772730563303
 20
-26.83935735841613
 10
16.00005139275387
 20
-26.65204528795715
 10
15.92915181844084
 20
-26.40812290003355
 10
15.9191845619977
 20
-26.18614234802859
 10
15.89954924360188
 20
-25.74874176320112
 10
15.92157403799341
 20
-25.30734013205679
 10
15.9616878592567
 20
-24.87083713070005
 10
15.97219502575661
 20
-24.75649859635846
 10
16.104887782086
 20
-24.64693357410926
 10
16.19708728413922
 20
-24.55003807853721
 10
16.22948460750979
 20
-24.5159897455714
 10
16.31189636981414
 20
-24.53512187323406
 10
16.36585609609175
 20
-24.51495344465635
 10
16.52323919772306
 20
-24.45611820816628
 10
16.77246412799492
 20
-24.29725681375912
 10
16.81671363309562
 20
-24.34257933909912
 10
16.9892672553468
 20
-24.51931896426077
 10
17.09653663987313
 20
-24.75980061554893
 10
17.16728797691584
 20
-24.8763912684149
 97
        0
 97
        0
 75
     2
 76
     1
 98
        0
  0
SPLINE
  5
79
330
41
100
AcDbEntity
  8
Layer 1
370
     0
100
AcDbSpline
210
0.0
220
0.0
230
1.0
 70
    11
 71
     3
 72
    20
 73
    16
 74
     0
 42
0.0000000001
 43
0.0000000001
 12
1.0
 22
0.0
 32
0.0
 13
1.0
 23
0.0
 33
0.0
 40
0.0
 40
0.0
 40
0.0
 40
0.0
 40
1.0
 40
1.0
 40
1.0
 40
2.0
 40
2.0
 40
2.0
 40
3.0
 40
3.0
 40
3.0
 40
4.0
 40
4.0
 40
4.0
 40
5.0
 40
5.0
 40
5.0
 40
5.0
 10
18.7864075191984
 20
-34.43218184890339
 30
0.0
 10
19.15258077574889
 20
-34.50571841465332
 30
0.0
 10
19.47654720958038
 20
-34.54726836946953
 30
0.0
 10
19.78126047797907
 20
-34.64740332538349
 30
0.0
 10
19.86438486715926
 20
-34.67472250227316
 30
0.0
 10
19.96828559372278
 20
-34.9194445554699
 30
0.0
 10
19.92902447675585
 20
-34.9943900552732
 30
0.0
 10
19.60073876246826
 20
-35.62104747474538
 30
0.0
 10
18.31134514795062
 20
-35.65435326138567
 30
0.0
 10
17.94489989640889
 20
-35.04385234437503
 30
0.0
 10
17.89683294161034
 20
-34.96377429909271
 30
0.0
 10
17.98238488608508
 20
-34.70622496212379
 30
0.0
 10
18.0726464238281
 20
-34.65948262293048
 30
0.0
 10
18.30020831304648
 20
-34.54164351305664
 30
0.0
 10
18.56579918192288
 20
-34.4972430507358
 30
0.0
 10
18.7864075191984
 20
-34.43218184890339
 30
0.0
  0
HATCH
  5
7A
330
41
100
AcDbEntity
  8
Layer 1
 62
     7
420
 16777215
100
AcDbHatch
 10
0.0
 20
0.0
 30
0.0
210
0.0
220
0.0
230
1.0
  2
SOLID
 70
     1
 71
     0
 91
        1
 92
        1
 93
        1
 72
     4
 94
        3
 73
     0
 74
     1
 95
       20
 96
       16
 40
0.0
 40
0.0
 40
0.0
 40
0.0
 40
1.0
 40
1.0
 40
1.0
 40
2.0
 40
2.0
 40
2.0
 40
3.0
 40
3.0
 40
3.0
 40
4.0
 40
4.0
 40
4.0
 40
5.0
 40
5.0
 40
5.0
 40
5.0
 10
18.7864075191984
 20
-34.43218184890339
 10
19.15258077574889
 20
-34.50571841465332
 10
19.47654720958038
 20
-34.54726836946953
 10
19.78126047797907
 20
-34.64740332538349
 10
19.86438486715926
 20
-34.67472250227316
 10
19.96828559372278
 20
-34.9194445554699
 10
19.92902447675585
 20
-34.9943900552732
 10
19.60073876246826
 20
-35.62104747474538
 10
18.31134514795062
 20
-35.65435326138567
 10
17.94489989640889
 20
-35.04385234437503
 10
17.89683294161034
 20
-34.96377429909271
 10
17.98238488608508
 20
-34.70622496212379
 10
18.0726464238281
 20
-34.65948262293048
 10
18.30020831304648
 20
-34.54164351305664
 10
18.56579918192288
 20
-34.4972430507358
 10
18.7864075191984
 20
-34.43218184890339
 97
        0
 97
        0
 75
     2
 76
     1
 98
        0
  0
SPLINE
  5
7B
330
41
100
AcDbEntity
  8
Layer 1
370
     0
100
AcDbSpline
210
0.0
220
0.0
230
1.0
 70
    11
 71
     3
 72
    23
 73
    19
 74
     0
 42
0.0000000001
 43
0.0000000001
 12
1.0
 22
0.0
 32
0.0
 13
1.0
 23
0.0
 33
0.0
 40
0.0
 40
0.0
 40
0.0
 40
0.0
 40
1.0
 40
1.0
 40
1.0
 40
2.0
 40
2.0
 40
2.0
 40
3.0
 40
3.0
 40
3.0
 40
4.0
 40
4.0
 40
4.0
 40
5.0
 40
5.0
 40
5.0
 40
6.0
 40
6.0
 40
6.0
 40
6.0
 10
21.28176436468815
 20
-34.14902146358735
 30
0.0
 10
21.46618512839384
 20
-34.14902146358735
 30
0.0
 10
21.57582630924104
 20
-34.12678859302837
 30
0.0
 10
21.67163110489896
 20
-34.15374601657967
 30
0.0
 10
21.85936748754456
 20
-34.20656200392059
 30
0.0
 10
22.03939145222186
 20
-34.28679508634746
 30
0.0
 10
22.22260863809275
 20
-34.35568053775229
 30
0.0
 10
22.09997289655364
 20
-34.52730937703417
 30
0.0
 10
22.00778563427464
 20
-34.73769750252506
 30
0.0
 10
21.84857064637955
 20
-34.86276079935808
 30
0.0
 10
21.47953464254891
 20
-35.15265306070074
 30
0.0
 10
20.86180545865436
 20
-35.03826556726163
 30
0.0
 10
20.6379726207616
 20
-34.63607473401086
 30
0.0
 10
20.59199458749339
 20
-34.55345897546284
 30
0.0
 10
20.69936325019124
 20
-34.2987465462488
 30
0.0
 10
20.8024207922828
 20
-34.24021050424982
 30
0.0
 10
20.95808488557163
 20
-34.15179037259529
 30
0.0
 10
21.17207014481743
 20
-34.16605378991973
 30
0.0
 10
21.28176436468815
 20
-34.14902146358735
 30
0.0
  0
HATCH
  5
7C
330
41
100
AcDbEntity
  8
Layer 1
 62
     7
420
 16777215
100
AcDbHatch
 10
0.0
 20
0.0
 30
0.0
210
0.0
220
0.0
230
1.0
  2
SOLID
 70
     1
 71
     0
 91
        1
 92
        1
 93
        1
 72
     4
 94
        3
 73
     0
 74
     1
 95
       23
 96
       19
 40
0.0
 40
0.0
 40
0.0
 40
0.0
 40
1.0
 40
1.0
 40
1.0
 40
2.0
 40
2.0
 40
2.0
 40
3.0
 40
3.0
 40
3.0
 40
4.0
 40
4.0
 40
4.0
 40
5.0
 40
5.0
 40
5.0
 40
6.0
 40
6.0
 40
6.0
 40
6.0
 10
21.28176436468815
 20
-34.14902146358735
 10
21.46618512839384
 20
-34.14902146358735
 10
21.57582630924104
 20
-34.12678859302837
 10
21.67163110489896
 20
-34.15374601657967
 10
21.85936748754456
 20
-34.20656200392059
 10
22.03939145222186
 20
-34.28679508634746
 10
22.22260863809275
 20
-34.35568053775229
 10
22.09997289655364
 20
-34.52730937703417
 10
22.00778563427464
 20
-34.73769750252506
 10
21.84857064637955
 20
-34.86276079935808
 10
21.47953464254891
 20
-35.15265306070074
 10
20.86180545865436
 20
-35.03826556726163
 10
20.6379726207616
 20
-34.63607473401086
 10
20.59199458749339
 20
-34.55345897546284
 10
20.69936325019124
 20
-34.2987465462488
 10
20.8024207922828
 20
-34.24021050424982
 10
20.95808488557163
 20
-34.15179037259529
 10
21.17207014481743
 20
-34.16605378991973
 10
21.28176436468815
 20
-34.14902146358735
 97
        0
 97
        0
 75
     2
 76
     1
 98
        0
  0
SPLINE
  5
7D
330
41
100
AcDbEntity
  8
Layer 1
370
     0
100
AcDbSpline
210
0.0
220
0.0
230
1.0
 70
    11
 71
     3
 72
    20
 73
    16
 74
     0
 42
0.0000000001
 43
0.0000000001
 12
1.0
 22
0.0
 32
0.0
 13
1.0
 23
0.0
 33
0.0
 40
0.0
 40
0.0
 40
0.0
 40
0.0
 40
1.0
 40
1.0
 40
1.0
 40
2.0
 40
2.0
 40
2.0
 40
3.0
 40
3.0
 40
3.0
 40
4.0
 40
4.0
 40
4.0
 40
5.0
 40
5.0
 40
5.0
 40
5.0
 10
16.6145587959807
 20
-19.58618797283841
 30
0.0
 10
16.58638283486929
 20
-20.11714531472384
 30
0.0
 10
16.57517664124267
 20
-20.55925141289421
 30
0.0
 10
16.52853358022184
 20
-20.99758630051538
 30
0.0
 10
16.51998749760629
 20
-21.07789554154058
 30
0.0
 10
16.376072227951
 20
-21.17310874809312
 30
0.0
 10
16.27738020546418
 20
-21.2015526242707
 30
0.0
 10
16.23135457307274
 20
-21.21481917995353
 30
0.0
 10
16.14057488487187
 20
-21.08825855069492
 30
0.0
 10
16.07712933328568
 20
-21.01865367253905
 30
0.0
 10
16.04841618206732
 20
-20.98715393263824
 30
0.0
 10
16.03793077516666
 20
-20.93944873117774
 30
0.0
 10
16.0173924334011
 20
-20.90002577719136
 30
0.0
 10
15.60295230573344
 20
-20.10453834689333
 30
0.0
 10
15.61606110432156
 20
-20.06768982549626
 30
0.0
 10
16.6145587959807
 20
-19.58618797283841
 30
0.0
  0
HATCH
  5
7E
330
41
100
AcDbEntity
  8
Layer 1
 62
     7
420
 16777215
100
AcDbHatch
 10
0.0
 20
0.0
 30
0.0
210
0.0
220
0.0
230
1.0
  2
SOLID
 70
     1
 71
     0
 91
        1
 92
        1
 93
        1
 72
     4
 94
        3
 73
     0
 74
     1
 95
       20
 96
       16
 40
0.0
 40
0.0
 40
0.0
 40
0.0
 40
1.0
 40
1.0
 40
1.0
 40
2.0
 40
2.0
 40
2.0
 40
3.0
 40
3.0
 40
3.0
 40
4.0
 40
4.0
 40
4.0
 40
5.0
 40
5.0
 40
5.0
 40
5.0
 10
16.6145587959807
 20
-19.58618797283841
 10
16.58638283486929
 20
-20.11714531472384
 10
16.57517664124267
 20
-20.55925141289421
 10
16.52853358022184
 20
-20.99758630051538
 10
16.51998749760629
 20
-21.07789554154058
 10
16.376072227951
 20
-21.17310874809312
 10
16.27738020546418
 20
-21.2015526242707
 10
16.23135457307274
 20
-21.21481917995353
 10
16.14057488487187
 20
-21.08825855069492
 10
16.07712933328568
 20
-21.01865367253905
 10
16.04841618206732
 20
-20.98715393263824
 10
16.03793077516666
 20
-20.93944873117774
 10
16.0173924334011
 20
-20.90002577719136
 10
15.60295230573344
 20
-20.10453834689333
 10
15.61606110432156
 20
-20.06768982549626
 10
16.6145587959807
 20
-19.58618797283841
 97
        0
 97
        0
 75
     2
 76
     1
 98
        0
  0
ENDBLK
  5
44
330
41
100
AcDbEntity
  8
0
100
AcDbBlockEnd
  0
ENDSEC
  0
SECTION
  2
ENTITIES
  0
INSERT
  5
42
330
1F
100
AcDbEntity
  8
Layer 1
100
AcDbBlockReference
  2
block 2
 10
0.0
 20
0.0
 30
0.0
  0
ENDSEC
  0
SECTION
  2
OBJECTS
  0
DICTIONARY
  5
C
330
0
100
AcDbDictionary
281
     1
  3
ACAD_GROUP
350
D
  3
ACAD_LAYOUT
350
1A
  3
ACAD_MATERIAL
350
3B
  3
ACAD_MLEADERSTYLE
350
80
  3
ACAD_MLINESTYLE
350
17
  3
ACAD_PLOTSETTINGS
350
19
  3
ACAD_PLOTSTYLENAME
350
E
  3
ACAD_TABLESTYLE
350
7F
  3
ACAD_VISUALSTYLE
350
2A
  0
SUN
  5
3F
330
29
100
AcDbSun
 90
        1
290
     0
 63
     7
421
 16777215
 40
1.0
291
     1
 91
  2455826
 92
 54000000
292
     0
 70
     2
 71
   256
280
     1
  0
DICTIONARY
  5
D
102
{ACAD_REACTORS
330
C
102
}
330
C
100
AcDbDictionary
281
     1
  0
DICTIONARY
  5
1A
102
{ACAD_REACTORS
330
C
102
}
330
C
100
AcDbDictionary
281
     1
  3
Layout1
350
1E
  3
Layout2
350
26
  3
Model
350
22
  0
DICTIONARY
  5
3B
102
{ACAD_REACTORS
330
C
102
}
330
C
100
AcDbDictionary
281
     1
  3
ByBlock
350
3D
  3
ByLayer
350
3C
  3
Global
350
3E
  0
DICTIONARY
  5
80
102
{ACAD_REACTORS
330
C
102
}
330
C
100
AcDbDictionary
281
     1
  0
DICTIONARY
  5
17
102
{ACAD_REACTORS
330
C
102
}
330
C
100
AcDbDictionary
281
     1
  3
Standard
350
18
  0
DICTIONARY
  5
19
102
{ACAD_REACTORS
330
C
102
}
330
C
100
AcDbDictionary
281
     1
  0
ACDBDICTIONARYWDFLT
  5
E
102
{ACAD_REACTORS
330
C
102
}
330
C
100
AcDbDictionary
281
     1
  3
Normal
350
F
100
AcDbDictionaryWithDefault
340
F
  0
DICTIONARY
  5
7F
102
{ACAD_REACTORS
330
C
102
}
330
C
100
AcDbDictionary
281
     1
  0
DICTIONARY
  5
2A
102
{ACAD_REACTORS
330
C
102
}
330
C
100
AcDbDictionary
281
     1
  3
2dWireframe
350
2F
  3
3D Hidden
350
31
  3
3dWireframe
350
30
  3
Basic
350
32
  3
Brighten
350
36
  3
ColorChange
350
3A
  3
Conceptual
350
34
  3
Dim
350
35
  3
Facepattern
350
39
  3
Flat
350
2B
  3
FlatWithEdges
350
2C
  3
Gouraud
350
2D
  3
GouraudWithEdges
350
2E
  3
Linepattern
350
38
  3
Realistic
350
33
  3
Thicken
350
37
  0
LAYOUT
  5
1E
102
{ACAD_REACTORS
330
1A
102
}
330
1A
100
AcDbPlotSettings
  1

  2
none_device
  4

  6

 40
0.0
 41
0.0
 42
0.0
 43
0.0
 44
0.0
 45
0.0
 46
0.0
 47
0.0
 48
0.0
 49
0.0
140
0.0
141
0.0
142
1.0
143
1.0
 70
   688
 72
     0
 73
     0
 74
     5
  7

 75
    16
 76
     0
 77
     2
 78
   300
147
1.0
148
0.0
149
0.0
100
AcDbLayout
  1
Layout1
 70
     1
 71
     1
 10
0.0
 20
0.0
 11
12.0
 21
9.0
 12
0.0
 22
0.0
 32
0.0
 14
1.000000000000000E+20
 24
1.000000000000000E+20
 34
1.000000000000000E+20
 15
-1.000000000000000E+20
 25
-1.000000000000000E+20
 35
-1.000000000000000E+20
146
0.0
 13
0.0
 23
0.0
 33
0.0
 16
1.0
 26
0.0
 36
0.0
 17
0.0
 27
1.0
 37
0.0
 76
     0
330
1B
  0
LAYOUT
  5
26
102
{ACAD_REACTORS
330
1A
102
}
330
1A
100
AcDbPlotSettings
  1

  2
none_device
  4

  6

 40
0.0
 41
0.0
 42
0.0
 43
0.0
 44
0.0
 45
0.0
 46
0.0
 47
0.0
 48
0.0
 49
0.0
140
0.0
141
0.0
142
1.0
143
1.0
 70
   688
 72
     0
 73
     0
 74
     5
  7

 75
    16
 76
     0
 77
     2
 78
   300
147
1.0
148
0.0
149
0.0
100
AcDbLayout
  1
Layout2
 70
     1
 71
     2
 10
0.0
 20
0.0
 11
0.0
 21
0.0
 12
0.0
 22
0.0
 32
0.0
 14
0.0
 24
0.0
 34
0.0
 15
0.0
 25
0.0
 35
0.0
146
0.0
 13
0.0
 23
0.0
 33
0.0
 16
1.0
 26
0.0
 36
0.0
 17
0.0
 27
1.0
 37
0.0
 76
     0
330
23
  0
LAYOUT
  5
22
102
{ACAD_REACTORS
330
1A
102
}
330
1A
100
AcDbPlotSettings
  1

  2
none_device
  4

  6

 40
0.0
 41
0.0
 42
0.0
 43
0.0
 44
0.0
 45
0.0
 46
0.0
 47
0.0
 48
0.0
 49
0.0
140
0.0
141
0.0
142
1.0
143
1.0
 70
  1712
 72
     0
 73
     0
 74
     0
  7

 75
     0
 76
     0
 77
     2
 78
   300
147
1.0
148
0.0
149
0.0
100
AcDbLayout
  1
Model
 70
     1
 71
     0
 10
0.0
 20
0.0
 11
12.0
 21
9.0
 12
0.0
 22
0.0
 32
0.0
 14
1.000000000000000E+20
 24
1.000000000000000E+20
 34
1.000000000000000E+20
 15
-1.000000000000000E+20
 25
-1.000000000000000E+20
 35
-1.000000000000000E+20
146
0.0
 13
0.0
 23
0.0
 33
0.0
 16
1.0
 26
0.0
 36
0.0
 17
0.0
 27
1.0
 37
0.0
 76
     0
330
1F
331
29
  0
MATERIAL
  5
3D
102
{ACAD_REACTORS
330
3B
102
}
330
3B
100
AcDbMaterial
  1
ByBlock
 72
     1
 94
      127
  0
MATERIAL
  5
3C
102
{ACAD_REACTORS
330
3B
102
}
330
3B
100
AcDbMaterial
  1
ByLayer
 72
     1
 94
      127
  0
MATERIAL
  5
3E
102
{ACAD_REACTORS
330
3B
102
}
330
3B
100
AcDbMaterial
  1
Global
 72
     1
 94
      127
  0
MLINESTYLE
  5
18
102
{ACAD_REACTORS
330
17
102
}
330
17
100
AcDbMlineStyle
  2
Standard
 70
     0
  3

 62
   256
 51
90.0
 52
90.0
 71
     2
 49
0.5
 62
   256
  6
BYLAYER
 49
-0.5
 62
   256
  6
BYLAYER
  0
ACDBPLACEHOLDER
  5
F
102
{ACAD_REACTORS
330
E
102
}
330
E
  0
VISUALSTYLE
  5
2F
102
{ACAD_REACTORS
330
2A
102
}
330
2A
100
AcDbVisualStyle
  2
2dWireframe
 70
     4
177
     2
291
     0
 71
     0
176
     1
 72
     2
176
     1
 73
     0
176
     1
 90
        0
176
     1
 40
-0.6
176
     1
 41
-30.0
176
     1
 62
     5
 63
     7
421
 16777215
176
     1
 74
     1
176
     1
 91
        4
176
     1
 64
     7
176
     1
 65
   257
176
     1
 75
     1
176
     1
175
     1
176
     1
 42
1.0
176
     1
 92
        0
176
     1
 66
   257
176
     1
 43
1.0
176
     1
 76
     1
176
     1
 77
     6
176
     1
 78
     2
176
     1
 67
     7
176
     1
 79
     5
176
     1
170
     0
176
     1
171
     0
176
     1
290
     0
176
     1
 93
        1
176
     1
 44
0.0
176
     1
173
     0
176
     1
  0
VISUALSTYLE
  5
31
102
{ACAD_REACTORS
330
2A
102
}
330
2A
100
AcDbVisualStyle
  2
3D Hidden
 70
     6
177
     2
291
     0
 71
     1
176
     1
 72
     2
176
     1
 73
     2
176
     1
 90
        0
176
     1
 40
-0.6
176
     1
 41
-30.0
176
     1
 62
     5
 63
     7
421
 16777215
176
     1
 74
     2
176
     1
 91
        2
176
     1
 64
     7
176
     1
 65
   257
176
     1
 75
     2
176
     1
175
     1
176
     1
 42
40.0
176
     1
 92
        0
176
     1
 66
   257
176
     1
 43
1.0
176
     1
 76
     1
176
     1
 77
     6
176
     1
 78
     2
176
     1
 67
     7
176
     1
 79
     3
176
     1
170
     0
176
     1
171
     0
176
     1
290
     0
176
     1
 93
        1
176
     1
 44
0.0
176
     1
173
     0
176
     1
  0
VISUALSTYLE
  5
30
102
{ACAD_REACTORS
330
2A
102
}
330
2A
100
AcDbVisualStyle
  2
3dWireframe
 70
     5
177
     2
291
     0
 71
     0
176
     1
 72
     2
176
     1
 73
     0
176
     1
 90
        0
176
     1
 40
-0.6
176
     1
 41
-30.0
176
     1
 62
     5
 63
     7
421
 16777215
176
     1
 74
     1
176
     1
 91
        4
176
     1
 64
     7
176
     1
 65
   257
176
     1
 75
     1
176
     1
175
     1
176
     1
 42
1.0
176
     1
 92
        0
176
     1
 66
   257
176
     1
 43
1.0
176
     1
 76
     1
176
     1
 77
     6
176
     1
 78
     2
176
     1
 67
     7
176
     1
 79
     5
176
     1
170
     0
176
     1
171
     0
176
     1
290
     0
176
     1
 93
        1
176
     1
 44
0.0
176
     1
173
     0
176
     1
  0
VISUALSTYLE
  5
32
102
{ACAD_REACTORS
330
2A
102
}
330
2A
100
AcDbVisualStyle
  2
Basic
 70
     7
177
     2
291
     1
 71
     1
176
     1
 72
     0
176
     1
 73
     1
176
     1
 90
        0
176
     1
 40
-0.6
176
     1
 41
-30.0
176
     1
 62
     5
 63
     7
421
 16777215
176
     1
 74
     0
176
     1
 91
        4
176
     1
 64
     7
176
     1
 65
   257
176
     1
 75
     1
176
     1
175
     1
176
     1
 42
1.0
176
     1
 92
        8
176
     1
 66
     7
176
     1
 43
1.0
176
     1
 76
     1
176
     1
 77
     6
176
     1
 78
     2
176
     1
 67
     7
176
     1
 79
     5
176
     1
170
     0
176
     1
171
     0
176
     1
290
     0
176
     1
 93
        1
176
     1
 44
0.0
176
     1
173
     0
176
     1
  0
VISUALSTYLE
  5
36
102
{ACAD_REACTORS
330
2A
102
}
330
2A
100
AcDbVisualStyle
  2
Brighten
 70
    12
177
     2
291
     1
 71
     2
176
     1
 72
     2
176
     1
 73
     0
176
     1
 90
        0
176
     1
 40
-0.6
176
     1
 41
-30.0
176
     1
 62
     5
 63
     7
421
 16777215
176
     1
 74
     1
176
     1
 91
        4
176
     1
 64
     7
176
     1
 65
   257
176
     1
 75
     1
176
     1
175
     1
176
     1
 42
1.0
176
     1
 92
        8
176
     1
 66
     7
176
     1
 43
1.0
176
     1
 76
     1
176
     1
 77
     6
176
     1
 78
     2
176
     1
 67
     7
176
     1
 79
     5
176
     1
170
     0
176
     1
171
     0
176
     1
290
     0
176
     1
 93
        1
176
     1
 44
50.0
176
     1
173
     0
176
     1
  0
VISUALSTYLE
  5
3A
102
{ACAD_REACTORS
330
2A
102
}
330
2A
100
AcDbVisualStyle
  2
ColorChange
 70
    16
177
     2
291
     1
 71
     2
176
     1
 72
     2
176
     1
 73
     3
176
     1
 90
        0
176
     1
 40
-0.6
176
     1
 41
-30.0
176
     1
 62
     5
 63
     8
421
  8421504
176
     1
 74
     1
176
     1
 91
        4
176
     1
 64
     7
176
     1
 65
   257
176
     1
 75
     1
176
     1
175
     1
176
     1
 42
1.0
176
     1
 92
        8
176
     1
 66
     8
424
  8421504
176
     1
 43
1.0
176
     1
 76
     1
176
     1
 77
     6
176
     1
 78
     2
176
     1
 67
     7
176
     1
 79
     5
176
     1
170
     0
176
     1
171
     0
176
     1
290
     0
176
     1
 93
        1
176
     1
 44
0.0
176
     1
173
     0
176
     1
  0
VISUALSTYLE
  5
34
102
{ACAD_REACTORS
330
2A
102
}
330
2A
100
AcDbVisualStyle
  2
Conceptual
 70
     9
177
     2
291
     0
 71
     3
176
     1
 72
     2
176
     1
 73
     0
176
     1
 90
        0
176
     1
 40
-0.6
176
     1
 41
-30.0
176
     1
 62
     5
 63
     7
421
 16777215
176
     1
 74
     2
176
     1
 91
        2
176
     1
 64
     7
176
     1
 65
   257
176
     1
 75
     1
176
     1
175
     1
176
     1
 42
40.0
176
     1
 92
        8
176
     1
 66
     7
176
     1
 43
1.0
176
     1
 76
     1
176
     1
 77
     6
176
     1
 78
     2
176
     1
 67
     7
176
     1
 79
     3
176
     1
170
     0
176
     1
171
     0
176
     1
290
     0
176
     1
 93
        1
176
     1
 44
0.0
176
     1
173
     0
176
     1
  0
VISUALSTYLE
  5
35
102
{ACAD_REACTORS
330
2A
102
}
330
2A
100
AcDbVisualStyle
  2
Dim
 70
    11
177
     2
291
     1
 71
     2
176
     1
 72
     2
176
     1
 73
     0
176
     1
 90
        0
176
     1
 40
-0.6
176
     1
 41
-30.0
176
     1
 62
     5
 63
     7
421
 16777215
176
     1
 74
     1
176
     1
 91
        4
176
     1
 64
     7
176
     1
 65
   257
176
     1
 75
     1
176
     1
175
     1
176
     1
 42
1.0
176
     1
 92
        8
176
     1
 66
     7
176
     1
 43
1.0
176
     1
 76
     1
176
     1
 77
     6
176
     1
 78
     2
176
     1
 67
     7
176
     1
 79
     5
176
     1
170
     0
176
     1
171
     0
176
     1
290
     0
176
     1
 93
        1
176
     1
 44
-50.0
176
     1
173
     0
176
     1
  0
VISUALSTYLE
  5
39
102
{ACAD_REACTORS
330
2A
102
}
330
2A
100
AcDbVisualStyle
  2
Facepattern
 70
    15
177
     2
291
     1
 71
     2
176
     1
 72
     2
176
     1
 73
     0
176
     1
 90
        0
176
     1
 40
-0.6
176
     1
 41
-30.0
176
     1
 62
     5
 63
     7
421
 16777215
176
     1
 74
     1
176
     1
 91
        4
176
     1
 64
     7
176
     1
 65
   257
176
     1
 75
     1
176
     1
175
     1
176
     1
 42
1.0
176
     1
 92
        8
176
     1
 66
     7
176
     1
 43
1.0
176
     1
 76
     1
176
     1
 77
     6
176
     1
 78
     2
176
     1
 67
     7
176
     1
 79
     5
176
     1
170
     0
176
     1
171
     0
176
     1
290
     0
176
     1
 93
        1
176
     1
 44
0.0
176
     1
173
     0
176
     1
  0
VISUALSTYLE
  5
2B
102
{ACAD_REACTORS
330
2A
102
}
330
2A
100
AcDbVisualStyle
  2
Flat
 70
     0
177
     2
291
     1
 71
     2
176
     1
 72
     1
176
     1
 73
     1
176
     1
 90
        2
176
     1
 40
-0.6
176
     1
 41
30.0
176
     1
 62
     5
 63
     7
421
 16777215
176
     1
 74
     0
176
     1
 91
        4
176
     1
 64
     7
176
     1
 65
   257
176
     1
 75
     1
176
     1
175
     1
176
     1
 42
1.0
176
     1
 92
        8
176
     1
 66
     7
176
     1
 43
1.0
176
     1
 76
     1
176
     1
 77
     6
176
     1
 78
     2
176
     1
 67
     7
176
     1
 79
     5
176
     1
170
     0
176
     1
171
     0
176
     1
290
     0
176
     1
 93
       13
176
     1
 44
0.0
176
     1
173
     0
176
     1
  0
VISUALSTYLE
  5
2C
102
{ACAD_REACTORS
330
2A
102
}
330
2A
100
AcDbVisualStyle
  2
FlatWithEdges
 70
     1
177
     2
291
     1
 71
     2
176
     1
 72
     1
176
     1
 73
     1
176
     1
 90
        2
176
     1
 40
-0.6
176
     1
 41
30.0
176
     1
 62
     5
 63
     7
421
 16777215
176
     1
 74
     1
176
     1
 91
        4
176
     1
 64
     7
176
     1
 65
   257
176
     1
 75
     1
176
     1
175
     1
176
     1
 42
1.0
176
     1
 92
        0
176
     1
 66
   257
176
     1
 43
1.0
176
     1
 76
     1
176
     1
 77
     6
176
     1
 78
     2
176
     1
 67
     7
176
     1
 79
     5
176
     1
170
     0
176
     1
171
     0
176
     1
290
     0
176
     1
 93
       13
176
     1
 44
0.0
176
     1
173
     0
176
     1
  0
VISUALSTYLE
  5
2D
102
{ACAD_REACTORS
330
2A
102
}
330
2A
100
AcDbVisualStyle
  2
Gouraud
 70
     2
177
     2
291
     1
 71
     2
176
     1
 72
     2
176
     1
 73
     1
176
     1
 90
        2
176
     1
 40
-0.6
176
     1
 41
30.0
176
     1
 62
     5
 63
     7
421
 16777215
176
     1
 74
     0
176
     1
 91
        4
176
     1
 64
     7
176
     1
 65
   257
176
     1
 75
     1
176
     1
175
     1
176
     1
 42
1.0
176
     1
 92
        0
176
     1
 66
     7
176
     1
 43
1.0
176
     1
 76
     1
176
     1
 77
     6
176
     1
 78
     2
176
     1
 67
     7
176
     1
 79
     5
176
     1
170
     0
176
     1
171
     0
176
     1
290
     0
176
     1
 93
       13
176
     1
 44
0.0
176
     1
173
     0
176
     1
  0
VISUALSTYLE
  5
2E
102
{ACAD_REACTORS
330
2A
102
}
330
2A
100
AcDbVisualStyle
  2
GouraudWithEdges
 70
     3
177
     2
291
     1
 71
     2
176
     1
 72
     2
176
     1
 73
     1
176
     1
 90
        2
176
     1
 40
-0.6
176
     1
 41
30.0
176
     1
 62
     5
 63
     7
421
 16777215
176
     1
 74
     1
176
     1
 91
        4
176
     1
 64
     7
176
     1
 65
   257
176
     1
 75
     1
176
     1
175
     1
176
     1
 42
1.0
176
     1
 92
        0
176
     1
 66
   257
176
     1
 43
1.0
176
     1
 76
     1
176
     1
 77
     6
176
     1
 78
     2
176
     1
 67
     7
176
     1
 79
     5
176
     1
170
     0
176
     1
171
     0
176
     1
290
     0
176
     1
 93
       13
176
     1
 44
0.0
176
     1
173
     0
176
     1
  0
VISUALSTYLE
  5
38
102
{ACAD_REACTORS
330
2A
102
}
330
2A
100
AcDbVisualStyle
  2
Linepattern
 70
    14
177
     2
291
     1
 71
     2
176
     1
 72
     2
176
     1
 73
     0
176
     1
 90
        0
176
     1
 40
-0.6
176
     1
 41
-30.0
176
     1
 62
     5
 63
     7
421
 16777215
176
     1
 74
     1
176
     1
 91
        4
176
     1
 64
     7
176
     1
 65
   257
176
     1
 75
     7
176
     1
175
     7
176
     1
 42
1.0
176
     1
 92
        8
176
     1
 66
     7
176
     1
 43
1.0
176
     1
 76
     1
176
     1
 77
     6
176
     1
 78
     2
176
     1
 67
     7
176
     1
 79
     5
176
     1
170
     0
176
     1
171
     0
176
     1
290
     0
176
     1
 93
        1
176
     1
 44
0.0
176
     1
173
     0
176
     1
  0
VISUALSTYLE
  5
33
102
{ACAD_REACTORS
330
2A
102
}
330
2A
100
AcDbVisualStyle
  2
Realistic
 70
     8
177
     2
291
     0
 71
     2
176
     1
 72
     2
176
     1
 73
     0
176
     1
 90
        0
176
     1
 40
-0.6
176
     1
 41
-30.0
176
     1
 62
     5
 63
     7
421
 16777215
176
     1
 74
     1
176
     1
 91
        0
176
     1
 64
     7
176
     1
 65
   257
176
     1
 75
     1
176
     1
175
     1
176
     1
 42
1.0
176
     1
 92
        8
176
     1
 66
     8
424
  7895160
176
     1
 43
1.0
176
     1
 76
     1
176
     1
 77
     6
176
     1
 78
     2
176
     1
 67
     7
176
     1
 79
     5
176
     1
170
     0
176
     1
171
     0
176
     1
290
     0
176
     1
 93
       13
176
     1
 44
0.0
176
     1
173
     0
176
     1
  0
VISUALSTYLE
  5
37
102
{ACAD_REACTORS
330
2A
102
}
330
2A
100
AcDbVisualStyle
  2
Thicken
 70
    13
177
     2
291
     1
 71
     2
176
     1
 72
     2
176
     1
 73
     0
176
     1
 90
        0
176
     1
 40
-0.6
176
     1
 41
-30.0
176
     1
 62
     5
 63
     7
421
 16777215
176
     1
 74
     1
176
     1
 91
        4
176
     1
 64
     7
176
     1
 65
   257
176
     1
 75
     1
176
     1
175
     1
176
     1
 42
1.0
176
     1
 92
       12
176
     1
 66
     7
176
     1
 43
1.0
176
     1
 76
     1
176
     1
 77
     6
176
     1
 78
     2
176
     1
 67
     7
176
     1
 79
     5
176
     1
170
     0
176
     1
171
     0
176
     1
290
     0
176
     1
 93
        1
176
     1
 44
0.0
176
     1
173
     0
176
     1
  0
ENDSEC
  0
EOF
