  0
SECTION
  2
HEADER
  9
$ACADVER
  1
AC1009
  9
$DWGCODEPAGE
  3
ansi_1252
  9
$INSBASE
 10
0.0
 20
0.0
 30
0.0
  9
$EXTMIN
 10
1.000000000000000E+20
 20
1.000000000000000E+20
 30
1.000000000000000E+20
  9
$EXTMAX
 10
-1.000000000000000E+20
 20
-1.000000000000000E+20
 30
-1.000000000000000E+20
  9
$LIMMIN
 10
0.0
 20
0.0
  9
$LIMMAX
 10
12.0
 20
9.0
  9
$ORTHOMODE
 70
     0
  9
$REGENMODE
 70
     1
  9
$FILLMODE
 70
     1
  9
$QTEXTMODE
 70
     0
  9
$MIRRTEXT
 70
     1
  9
$DRAGMODE
 70
     2
  9
$LTSCALE
 40
1.0
  9
$OSMODE
 70
    37
  9
$ATTMODE
 70
     1
  9
$TEXTSIZE
 40
0.2
  9
$TRACEWID
 40
0.05
  9
$TEXTSTYLE
  7
STANDARD
  9
$CLAYER
  8
0
  9
$CELTYPE
  6
BYLAYER
  9
$CECOLOR
 62
   256
  9
$DIMSCALE
 40
1.0
  9
$DIMASZ
 40
0.18
  9
$DIMEXO
 40
0.0625
  9
$DIMDLI
 40
0.38
  9
$DIMRND
 40
0.0
  9
$DIMDLE
 40
0.0
  9
$DIMEXE
 40
0.18
  9
$DIMTP
 40
0.0
  9
$DIMTM
 40
0.0
  9
$DIMTXT
 40
0.18
  9
$DIMCEN
 40
0.09
  9
$DIMTSZ
 40
0.0
  9
$DIMTOL
 70
     0
  9
$DIMLIM
 70
     0
  9
$DIMTIH
 70
     1
  9
$DIMTOH
 70
     1
  9
$DIMSE1
 70
     0
  9
$DIMSE2
 70
     0
  9
$DIMTAD
 70
     0
  9
$DIMZIN
 70
     0
  9
$DIMBLK
  1

  9
$DIMASO
 70
     1
  9
$DIMSHO
 70
     1
  9
$DIMPOST
  1

  9
$DIMAPOST
  1

  9
$DIMALT
 70
     0
  9
$DIMALTD
 70
     2
  9
$DIMALTF
 40
25.4
  9
$DIMLFAC
 40
1.0
  9
$DIMTOFL
 70
     0
  9
$DIMTVP
 40
0.0
  9
$DIMTIX
 70
     0
  9
$DIMSOXD
 70
     0
  9
$DIMSAH
 70
     0
  9
$DIMBLK1
  1

  9
$DIMBLK2
  1

  9
$DIMSTYLE
  2
STANDARD_ACAD
  9
$DIMCLRD
 70
     0
  9
$DIMCLRE
 70
     0
  9
$DIMCLRT
 70
     0
  9
$DIMTFAC
 40
1.0
  9
$DIMGAP
 40
0.09
  9
$LUNITS
 70
     2
  9
$LUPREC
 70
     3
  9
$SKETCHINC
 40
0.1
  9
$FILLETRAD
 40
0.5
  9
$AUNITS
 70
     0
  9
$AUPREC
 70
     0
  9
$MENU
  1
.
  9
$ELEVATION
 40
0.0
  9
$PELEVATION
 40
0.0
  9
$THICKNESS
 40
0.0
  9
$LIMCHECK
 70
     0
  9
$CHAMFERA
 40
0.0
  9
$CHAMFERB
 40
0.0
  9
$SKPOLY
 70
     0
  9
$TDCREATE
 40
2458292.810401493
  9
$TDUPDATE
 40
2458292.810414178
  9
$TDINDWG
 40
0.0000000116
  9
$TDUSRTIMER
 40
0.0000000116
  9
$USRTIMER
 70
     1
  9
$ANGBASE
 50
0.0
  9
$ANGDIR
 70
     0
  9
$PDMODE
 70
     0
  9
$PDSIZE
 40
0.0
  9
$PLINEWID
 40
0.0
  9
$COORDS
 70
     1
  9
$SPLFRAME
 70
     0
  9
$SPLINETYPE
 70
     6
  9
$SPLINESEGS
 70
     8
  9
$ATTDIA
 70
     0
  9
$ATTREQ
 70
     1
  9
$HANDLING
 70
     1
  9
$HANDSEED
  5
1A8
  9
$SURFTAB1
 70
     6
  9
$SURFTAB2
 70
     6
  9
$SURFTYPE
 70
     6
  9
$SURFU
 70
     6
  9
$SURFV
 70
     6
  9
$UCSNAME
  2

  9
$UCSORG
 10
0.0
 20
0.0
 30
0.0
  9
$UCSXDIR
 10
1.0
 20
0.0
 30
0.0
  9
$UCSYDIR
 10
0.0
 20
1.0
 30
0.0
  9
$PUCSNAME
  2

  9
$PUCSORG
 10
0.0
 20
0.0
 30
0.0
  9
$PUCSXDIR
 10
1.0
 20
0.0
 30
0.0
  9
$PUCSYDIR
 10
0.0
 20
1.0
 30
0.0
  9
$USERI1
 70
     0
  9
$USERI2
 70
     0
  9
$USERI3
 70
     0
  9
$USERI4
 70
     0
  9
$USERI5
 70
     0
  9
$USERR1
 40
0.0
  9
$USERR2
 40
0.0
  9
$USERR3
 40
0.0
  9
$USERR4
 40
0.0
  9
$USERR5
 40
0.0
  9
$WORLDVIEW
 70
     1
  9
$SHADEDGE
 70
     3
  9
$SHADEDIF
 70
    70
  9
$TILEMODE
 70
     1
  9
$MAXACTVP
 70
    64
  9
$PLIMCHECK
 70
     0
  9
$PEXTMIN
 10
1.000000000000000E+20
 20
1.000000000000000E+20
 30
1.000000000000000E+20
  9
$PEXTMAX
 10
-1.000000000000000E+20
 20
-1.000000000000000E+20
 30
-1.000000000000000E+20
  9
$PLIMMIN
 10
0.0
 20
0.0
  9
$PLIMMAX
 10
12.0
 20
9.0
  9
$UNITMODE
 70
     0
  9
$VISRETAIN
 70
     1
  9
$PLINEGEN
 70
     0
  9
$PSLTSCALE
 70
     1
  0
ENDSEC
  0
SECTION
  2
TABLES
  0
TABLE
  2
VPORT
 70
     1
  0
VPORT
  2
*ACTIVE
 70
     0
 10
0.0
 20
0.0
 11
1.0
 21
1.0
 12
10.42990654205607
 22
4.5
 13
0.0
 23
0.0
 14
0.5
 24
0.5
 15
0.5
 25
0.5
 16
0.0
 26
0.0
 36
1.0
 17
0.0
 27
0.0
 37
0.0
 40
9.0
 41
1.972972972850329
 42
50.0
 43
0.0
 44
0.0
 50
0.0
 51
0.0
 71
     0
 72
   100
 73
     1
 74
     3
 75
     0
 76
     0
 77
     0
 78
     0
  0
ENDTAB
  0
TABLE
  2
LTYPE
 70
     1
  0
LTYPE
  2
CONTINUOUS
 70
     0
  3
Solid line
 72
    65
 73
     0
 40
0.0
  0
ENDTAB
  0
TABLE
  2
LAYER
 70
     1
  0
LAYER
  2
0
 70
     0
 62
     7
  6
CONTINUOUS
  0
ENDTAB
  0
TABLE
  2
STYLE
 70
     1
  0
STYLE
  2
STANDARD
 70
     0
 40
0.0
 41
1.0
 50
0.0
 71
     0
 42
0.2
  3
txt
  4

  0
ENDTAB
  0
TABLE
  2
VIEW
 70
     0
  0
ENDTAB
  0
TABLE
  2
UCS
 70
     0
  0
ENDTAB
  0
TABLE
  2
APPID
 70
     1
  0
APPID
  2
ACAD
 70
     0
  0
ENDTAB
  0
TABLE
  2
DIMSTYLE
 70
     1
  0
DIMSTYLE
  2
STANDARD_ACAD
 70
     0
  3

  4

  5

  6

  7

 40
1.0
 41
0.18
 42
0.0625
 43
0.38
 44
0.18
 45
0.0
 46
0.0
 47
0.0
 48
0.0
140
0.18
141
0.09
142
0.0
143
25.4
144
1.0
145
0.0
146
1.0
147
0.09
 71
     0
 72
     0
 73
     1
 74
     1
 75
     0
 76
     0
 77
     0
 78
     0
170
     0
171
     2
172
     0
173
     0
174
     0
175
     0
176
     0
177
     0
178
     0
  0
ENDTAB
  0
ENDSEC
  0
SECTION
  2
BLOCKS
  0
BLOCK
  8
0
  2
$MODEL_SPACE
 70
     0
 10
0.0
 20
0.0
 30
0.0
  3
$MODEL_SPACE
  1

  0
ENDBLK
  5
21
  8
0
  0
BLOCK
 67
     1
  8
0
  2
$PAPER_SPACE
 70
     0
 10
0.0
 20
0.0
 30
0.0
  3
$PAPER_SPACE
  1

  0
ENDBLK
  5
1D
 67
     1
  8
0
  0
ENDSEC
  0
SECTION
  2
ENTITIES
  0
LINE
  5
6E
  8
0
 10
711.0000000000002
 20
235.2500000000001
 30
0.0
 11
711.0000000000002
 21
214.7500000000001
 31
0.0
  0
LINE
  5
6F
  8
0
 10
711.0000000000002
 20
214.7500000000001
 30
0.0
 11
716.0000000000002
 21
214.75
 31
0.0
  0
LINE
  5
70
  8
0
 10
716.0000000000002
 20
214.75
 30
0.0
 11
716.0000000000001
 21
195.25
 31
0.0
  0
LINE
  5
71
  8
0
 10
716.0000000000001
 20
195.25
 30
0.0
 11
711.0000000000001
 21
195.2500000000001
 31
0.0
  0
LINE
  5
72
  8
0
 10
711.0000000000001
 20
195.2500000000001
 30
0.0
 11
711.0000000000001
 21
174.7500000000001
 31
0.0
  0
LINE
  5
73
  8
0
 10
711.0000000000001
 20
174.7500000000001
 30
0.0
 11
716.0000000000001
 21
174.7500000000001
 31
0.0
  0
LINE
  5
74
  8
0
 10
716.0000000000001
 20
174.7500000000001
 30
0.0
 11
716.0000000000001
 21
135.25
 31
0.0
  0
LINE
  5
75
  8
0
 10
716.0000000000001
 20
135.25
 30
0.0
 11
711.0000000000001
 21
135.25
 31
0.0
  0
LINE
  5
76
  8
0
 10
711.0000000000001
 20
135.25
 30
0.0
 11
711.0
 21
114.7500000000001
 31
0.0
  0
LINE
  5
77
  8
0
 10
711.0
 20
114.7500000000001
 30
0.0
 11
716.0
 21
114.7500000000001
 31
0.0
  0
LINE
  5
78
  8
0
 10
716.0
 20
114.7500000000001
 30
0.0
 11
715.9999999999999
 21
95.25
 31
0.0
  0
LINE
  5
79
  8
0
 10
715.9999999999999
 20
95.25
 30
0.0
 11
710.9999999999999
 21
95.25
 31
0.0
  0
LINE
  5
7A
  8
0
 10
710.9999999999999
 20
95.25
 30
0.0
 11
710.9999999999999
 21
74.75
 31
0.0
  0
LINE
  5
7B
  8
0
 10
710.9999999999999
 20
74.75
 30
0.0
 11
715.9999999999999
 21
74.75
 31
0.0
  0
LINE
  5
7C
  8
0
 10
715.9999999999999
 20
74.75
 30
0.0
 11
715.9999999999999
 21
60.0
 31
0.0
  0
LINE
  5
7D
  8
0
 10
715.9999999999999
 20
60.0
 30
0.0
 11
730.75
 21
60.0
 31
0.0
  0
LINE
  5
7E
  8
0
 10
730.75
 20
60.0
 30
0.0
 11
730.75
 21
55.0
 31
0.0
  0
LINE
  5
7F
  8
0
 10
730.75
 20
55.0
 30
0.0
 11
751.25
 21
55.0
 31
0.0
  0
LINE
  5
80
  8
0
 10
751.25
 20
55.0
 30
0.0
 11
751.25
 21
60.0
 31
0.0
  0
LINE
  5
81
  8
0
 10
751.25
 20
60.0
 30
0.0
 11
770.75
 21
60.0
 31
0.0
  0
LINE
  5
82
  8
0
 10
770.75
 20
60.0
 30
0.0
 11
770.75
 21
55.0
 31
0.0
  0
LINE
  5
83
  8
0
 10
770.75
 20
55.0
 30
0.0
 11
791.25
 21
55.0
 31
0.0
  0
LINE
  5
84
  8
0
 10
791.25
 20
55.0
 30
0.0
 11
791.25
 21
60.0
 31
0.0
  0
LINE
  5
85
  8
0
 10
791.25
 20
60.0
 30
0.0
 11
830.75
 21
60.0
 31
0.0
  0
LINE
  5
86
  8
0
 10
830.75
 20
60.0
 30
0.0
 11
830.75
 21
55.0
 31
0.0
  0
LINE
  5
87
  8
0
 10
830.75
 20
55.0
 30
0.0
 11
851.25
 21
55.0
 31
0.0
  0
LINE
  5
88
  8
0
 10
851.25
 20
55.0
 30
0.0
 11
851.25
 21
60.0
 31
0.0
  0
LINE
  5
89
  8
0
 10
851.25
 20
60.0
 30
0.0
 11
870.75
 21
60.0
 31
0.0
  0
LINE
  5
8A
  8
0
 10
870.75
 20
60.0
 30
0.0
 11
870.75
 21
55.0
 31
0.0
  0
LINE
  5
8B
  8
0
 10
870.75
 20
55.0
 30
0.0
 11
891.25
 21
55.0
 31
0.0
  0
LINE
  5
8C
  8
0
 10
891.25
 20
55.0
 30
0.0
 11
891.25
 21
60.0
 31
0.0
  0
LINE
  5
8D
  8
0
 10
891.25
 20
60.0
 30
0.0
 11
906.0
 21
60.0
 31
0.0
  0
LINE
  5
8E
  8
0
 10
906.0
 20
60.0
 30
0.0
 11
906.0
 21
74.75
 31
0.0
  0
LINE
  5
8F
  8
0
 10
906.0
 20
74.75
 30
0.0
 11
911.0
 21
74.75
 31
0.0
  0
LINE
  5
90
  8
0
 10
911.0
 20
74.75
 30
0.0
 11
911.0
 21
95.25
 31
0.0
  0
LINE
  5
91
  8
0
 10
911.0
 20
95.25
 30
0.0
 11
906.0
 21
95.25
 31
0.0
  0
LINE
  5
92
  8
0
 10
906.0
 20
95.25
 30
0.0
 11
906.0
 21
114.7500000000001
 31
0.0
  0
LINE
  5
93
  8
0
 10
906.0
 20
114.7500000000001
 30
0.0
 11
911.0
 21
114.7500000000001
 31
0.0
  0
LINE
  5
94
  8
0
 10
911.0
 20
114.7500000000001
 30
0.0
 11
910.9999999999998
 21
135.25
 31
0.0
  0
LINE
  5
95
  8
0
 10
910.9999999999998
 20
135.25
 30
0.0
 11
905.9999999999998
 21
135.25
 31
0.0
  0
LINE
  5
96
  8
0
 10
905.9999999999998
 20
135.25
 30
0.0
 11
905.9999999999998
 21
174.7500000000001
 31
0.0
  0
LINE
  5
97
  8
0
 10
905.9999999999998
 20
174.7500000000001
 30
0.0
 11
910.9999999999998
 21
174.7500000000001
 31
0.0
  0
LINE
  5
98
  8
0
 10
910.9999999999998
 20
174.7500000000001
 30
0.0
 11
910.9999999999998
 21
195.2500000000001
 31
0.0
  0
LINE
  5
99
  8
0
 10
910.9999999999998
 20
195.2500000000001
 30
0.0
 11
905.9999999999998
 21
195.25
 31
0.0
  0
LINE
  5
9A
  8
0
 10
905.9999999999998
 20
195.25
 30
0.0
 11
905.9999999999995
 21
214.75
 31
0.0
  0
LINE
  5
9B
  8
0
 10
905.9999999999995
 20
214.75
 30
0.0
 11
910.9999999999995
 21
214.7500000000001
 31
0.0
  0
LINE
  5
9C
  8
0
 10
910.9999999999995
 20
214.7500000000001
 30
0.0
 11
910.9999999999995
 21
235.2500000000001
 31
0.0
  0
LINE
  5
9D
  8
0
 10
910.9999999999995
 20
235.2500000000001
 30
0.0
 11
905.9999999999995
 21
235.25
 31
0.0
  0
LINE
  5
9E
  8
0
 10
905.9999999999995
 20
235.25
 30
0.0
 11
905.9999999999995
 21
250.0
 31
0.0
  0
LINE
  5
9F
  8
0
 10
905.9999999999995
 20
250.0
 30
0.0
 11
891.2499999999995
 21
250.0
 31
0.0
  0
LINE
  5
A0
  8
0
 10
891.2499999999995
 20
250.0
 30
0.0
 11
891.2499999999995
 21
255.0
 31
0.0
  0
LINE
  5
A1
  8
0
 10
891.2499999999995
 20
255.0
 30
0.0
 11
870.7499999999995
 21
255.0
 31
0.0
  0
LINE
  5
A2
  8
0
 10
870.7499999999995
 20
255.0
 30
0.0
 11
870.7499999999995
 21
250.0
 31
0.0
  0
LINE
  5
A3
  8
0
 10
870.7499999999995
 20
250.0
 30
0.0
 11
851.2499999999995
 21
250.0
 31
0.0
  0
LINE
  5
A4
  8
0
 10
851.2499999999995
 20
250.0
 30
0.0
 11
851.2499999999995
 21
255.0
 31
0.0
  0
LINE
  5
A5
  8
0
 10
851.2499999999995
 20
255.0
 30
0.0
 11
830.7499999999995
 21
255.0
 31
0.0
  0
LINE
  5
A6
  8
0
 10
830.7499999999995
 20
255.0
 30
0.0
 11
830.7499999999995
 21
250.0
 31
0.0
  0
LINE
  5
A7
  8
0
 10
830.7499999999995
 20
250.0
 30
0.0
 11
791.2499999999995
 21
250.0
 31
0.0
  0
LINE
  5
A8
  8
0
 10
791.2499999999995
 20
250.0
 30
0.0
 11
791.2499999999995
 21
255.0
 31
0.0
  0
LINE
  5
A9
  8
0
 10
791.2499999999995
 20
255.0
 30
0.0
 11
770.7499999999995
 21
255.0
 31
0.0
  0
LINE
  5
AA
  8
0
 10
770.7499999999995
 20
255.0
 30
0.0
 11
770.7499999999995
 21
250.0
 31
0.0
  0
LINE
  5
AB
  8
0
 10
770.7499999999995
 20
250.0
 30
0.0
 11
751.2499999999997
 21
250.0
 31
0.0
  0
LINE
  5
AC
  8
0
 10
751.2499999999997
 20
250.0
 30
0.0
 11
751.2499999999995
 21
255.0
 31
0.0
  0
LINE
  5
AD
  8
0
 10
751.2499999999995
 20
255.0
 30
0.0
 11
730.7499999999995
 21
255.0
 31
0.0
  0
LINE
  5
AE
  8
0
 10
730.7499999999995
 20
255.0
 30
0.0
 11
730.7499999999995
 21
250.0
 31
0.0
  0
LINE
  5
AF
  8
0
 10
730.7499999999995
 20
250.0
 30
0.0
 11
715.9999999999995
 21
250.0
 31
0.0
  0
LINE
  5
B0
  8
0
 10
715.9999999999995
 20
250.0
 30
0.0
 11
716.0000000000002
 21
235.25
 31
0.0
  0
LINE
  5
B1
  8
0
 10
716.0000000000002
 20
235.25
 30
0.0
 11
711.0000000000002
 21
235.2500000000001
 31
0.0
  0
LINE
  5
B2
  8
0
 10
835.7500000000006
 20
423.85
 30
0.0
 11
835.7500000000006
 21
450.25
 31
0.0
  0
LINE
  5
B3
  8
0
 10
835.7500000000006
 20
450.25
 30
0.0
 11
766.2500000000006
 21
450.25
 31
0.0
  0
LINE
  5
B4
  8
0
 10
766.2500000000006
 20
450.25
 30
0.0
 11
766.2500000000006
 21
423.85
 31
0.0
  0
LINE
  5
B5
  8
0
 10
766.2500000000006
 20
423.85
 30
0.0
 11
835.7500000000006
 21
423.85
 31
0.0
  0
LINE
  5
B6
  8
0
 10
705.9999999999999
 20
315.0
 30
0.0
 11
720.75
 21
315.0
 31
0.0
  0
LINE
  5
B7
  8
0
 10
720.75
 20
315.0
 30
0.0
 11
720.75
 21
310.0
 31
0.0
  0
LINE
  5
B8
  8
0
 10
720.75
 20
310.0
 30
0.0
 11
741.25
 21
310.0
 31
0.0
  0
LINE
  5
B9
  8
0
 10
741.25
 20
310.0
 30
0.0
 11
741.25
 21
315.0
 31
0.0
  0
LINE
  5
BA
  8
0
 10
741.25
 20
315.0
 30
0.0
 11
760.75
 21
315.0
 31
0.0
  0
LINE
  5
BB
  8
0
 10
760.75
 20
315.0
 30
0.0
 11
760.75
 21
310.0
 31
0.0
  0
LINE
  5
BC
  8
0
 10
760.75
 20
310.0
 30
0.0
 11
781.25
 21
310.0
 31
0.0
  0
LINE
  5
BD
  8
0
 10
781.25
 20
310.0
 30
0.0
 11
781.25
 21
315.0
 31
0.0
  0
LINE
  5
BE
  8
0
 10
781.25
 20
315.0
 30
0.0
 11
820.75
 21
315.0
 31
0.0
  0
LINE
  5
BF
  8
0
 10
820.75
 20
315.0
 30
0.0
 11
820.75
 21
310.0
 31
0.0
  0
LINE
  5
C0
  8
0
 10
820.75
 20
310.0
 30
0.0
 11
841.2499999999999
 21
310.0
 31
0.0
  0
LINE
  5
C1
  8
0
 10
841.2499999999999
 20
310.0
 30
0.0
 11
841.2499999999999
 21
315.0
 31
0.0
  0
LINE
  5
C2
  8
0
 10
841.2499999999999
 20
315.0
 30
0.0
 11
860.75
 21
315.0
 31
0.0
  0
LINE
  5
C3
  8
0
 10
860.75
 20
315.0
 30
0.0
 11
860.75
 21
310.0
 31
0.0
  0
LINE
  5
C4
  8
0
 10
860.75
 20
310.0
 30
0.0
 11
881.25
 21
310.0
 31
0.0
  0
LINE
  5
C5
  8
0
 10
881.25
 20
310.0
 30
0.0
 11
881.25
 21
315.0
 31
0.0
  0
LINE
  5
C6
  8
0
 10
881.25
 20
315.0
 30
0.0
 11
896.0
 21
315.0
 31
0.0
  0
LINE
  5
C7
  8
0
 10
896.0
 20
315.0
 30
0.0
 11
896.0
 21
329.75
 31
0.0
  0
LINE
  5
C8
  8
0
 10
896.0
 20
329.75
 30
0.0
 11
901.0
 21
329.75
 31
0.0
  0
LINE
  5
C9
  8
0
 10
901.0
 20
329.75
 30
0.0
 11
901.0
 21
350.25
 31
0.0
  0
LINE
  5
CA
  8
0
 10
901.0
 20
350.25
 30
0.0
 11
896.0
 21
350.25
 31
0.0
  0
LINE
  5
CB
  8
0
 10
896.0
 20
350.25
 30
0.0
 11
895.9999999999999
 21
369.7500000000001
 31
0.0
  0
LINE
  5
CC
  8
0
 10
895.9999999999999
 20
369.7500000000001
 30
0.0
 11
900.9999999999999
 21
369.7500000000001
 31
0.0
  0
LINE
  5
CD
  8
0
 10
900.9999999999999
 20
369.7500000000001
 30
0.0
 11
900.9999999999998
 21
390.25
 31
0.0
  0
LINE
  5
CE
  8
0
 10
900.9999999999998
 20
390.25
 30
0.0
 11
895.9999999999998
 21
390.25
 31
0.0
  0
LINE
  5
CF
  8
0
 10
895.9999999999998
 20
390.25
 30
0.0
 11
895.9999999999998
 21
429.7500000000001
 31
0.0
  0
LINE
  5
D0
  8
0
 10
895.9999999999998
 20
429.7500000000001
 30
0.0
 11
900.9999999999998
 21
429.7500000000001
 31
0.0
  0
LINE
  5
D1
  8
0
 10
900.9999999999998
 20
429.7500000000001
 30
0.0
 11
900.9999999999998
 21
450.2500000000001
 31
0.0
  0
LINE
  5
D2
  8
0
 10
900.9999999999998
 20
450.2500000000001
 30
0.0
 11
895.9999999999998
 21
450.25
 31
0.0
  0
LINE
  5
D3
  8
0
 10
895.9999999999998
 20
450.25
 30
0.0
 11
895.9999999999997
 21
469.75
 31
0.0
  0
LINE
  5
D4
  8
0
 10
895.9999999999997
 20
469.75
 30
0.0
 11
900.9999999999997
 21
469.7500000000001
 31
0.0
  0
LINE
  5
D5
  8
0
 10
900.9999999999997
 20
469.7500000000001
 30
0.0
 11
900.9999999999997
 21
490.2500000000001
 31
0.0
  0
LINE
  5
D6
  8
0
 10
900.9999999999997
 20
490.2500000000001
 30
0.0
 11
895.9999999999997
 21
490.25
 31
0.0
  0
LINE
  5
D7
  8
0
 10
895.9999999999997
 20
490.25
 30
0.0
 11
895.9999999999997
 21
505.0
 31
0.0
  0
LINE
  5
D8
  8
0
 10
895.9999999999997
 20
505.0
 30
0.0
 11
881.2499999999997
 21
505.0
 31
0.0
  0
LINE
  5
D9
  8
0
 10
881.2499999999997
 20
505.0
 30
0.0
 11
881.2499999999997
 21
510.0
 31
0.0
  0
LINE
  5
DA
  8
0
 10
881.2499999999997
 20
510.0
 30
0.0
 11
860.7499999999997
 21
510.0
 31
0.0
  0
LINE
  5
DB
  8
0
 10
860.7499999999997
 20
510.0
 30
0.0
 11
860.7499999999997
 21
505.0
 31
0.0
  0
LINE
  5
DC
  8
0
 10
860.7499999999997
 20
505.0
 30
0.0
 11
841.2499999999994
 21
505.0
 31
0.0
  0
LINE
  5
DD
  8
0
 10
841.2499999999994
 20
505.0
 30
0.0
 11
841.2499999999995
 21
510.0
 31
0.0
  0
LINE
  5
DE
  8
0
 10
841.2499999999995
 20
510.0
 30
0.0
 11
820.7499999999997
 21
510.0
 31
0.0
  0
LINE
  5
DF
  8
0
 10
820.7499999999997
 20
510.0
 30
0.0
 11
820.7499999999997
 21
505.0
 31
0.0
  0
LINE
  5
E0
  8
0
 10
820.7499999999997
 20
505.0
 30
0.0
 11
781.2499999999995
 21
505.0
 31
0.0
  0
LINE
  5
E1
  8
0
 10
781.2499999999995
 20
505.0
 30
0.0
 11
781.2499999999995
 21
510.0
 31
0.0
  0
LINE
  5
E2
  8
0
 10
781.2499999999995
 20
510.0
 30
0.0
 11
760.7499999999995
 21
510.0
 31
0.0
  0
LINE
  5
E3
  8
0
 10
760.7499999999995
 20
510.0
 30
0.0
 11
760.7499999999995
 21
505.0
 31
0.0
  0
LINE
  5
E4
  8
0
 10
760.7499999999995
 20
505.0
 30
0.0
 11
741.2499999999997
 21
505.0
 31
0.0
  0
LINE
  5
E5
  8
0
 10
741.2499999999997
 20
505.0
 30
0.0
 11
741.2499999999995
 21
510.0
 31
0.0
  0
LINE
  5
E6
  8
0
 10
741.2499999999995
 20
510.0
 30
0.0
 11
720.7499999999995
 21
510.0
 31
0.0
  0
LINE
  5
E7
  8
0
 10
720.7499999999995
 20
510.0
 30
0.0
 11
720.7499999999995
 21
505.0
 31
0.0
  0
LINE
  5
E8
  8
0
 10
720.7499999999995
 20
505.0
 30
0.0
 11
705.9999999999995
 21
505.0
 31
0.0
  0
LINE
  5
E9
  8
0
 10
705.9999999999995
 20
505.0
 30
0.0
 11
706.0000000000002
 21
490.25
 31
0.0
  0
LINE
  5
EA
  8
0
 10
706.0000000000002
 20
490.25
 30
0.0
 11
701.0000000000002
 21
490.2500000000001
 31
0.0
  0
LINE
  5
EB
  8
0
 10
701.0000000000002
 20
490.2500000000001
 30
0.0
 11
701.0000000000002
 21
469.7500000000001
 31
0.0
  0
LINE
  5
EC
  8
0
 10
701.0000000000002
 20
469.7500000000001
 30
0.0
 11
706.0000000000002
 21
469.75
 31
0.0
  0
LINE
  5
ED
  8
0
 10
706.0000000000002
 20
469.75
 30
0.0
 11
706.0000000000001
 21
450.25
 31
0.0
  0
LINE
  5
EE
  8
0
 10
706.0000000000001
 20
450.25
 30
0.0
 11
701.0000000000001
 21
450.2500000000001
 31
0.0
  0
LINE
  5
EF
  8
0
 10
701.0000000000001
 20
450.2500000000001
 30
0.0
 11
701.0000000000001
 21
429.7500000000001
 31
0.0
  0
LINE
  5
F0
  8
0
 10
701.0000000000001
 20
429.7500000000001
 30
0.0
 11
706.0000000000001
 21
429.7500000000001
 31
0.0
  0
LINE
  5
F1
  8
0
 10
706.0000000000001
 20
429.7500000000001
 30
0.0
 11
706.0000000000001
 21
390.25
 31
0.0
  0
LINE
  5
F2
  8
0
 10
706.0000000000001
 20
390.25
 30
0.0
 11
701.0000000000001
 21
390.25
 31
0.0
  0
LINE
  5
F3
  8
0
 10
701.0000000000001
 20
390.25
 30
0.0
 11
701.0
 21
369.7500000000001
 31
0.0
  0
LINE
  5
F4
  8
0
 10
701.0
 20
369.7500000000001
 30
0.0
 11
706.0
 21
369.7500000000001
 31
0.0
  0
LINE
  5
F5
  8
0
 10
706.0
 20
369.7500000000001
 30
0.0
 11
705.9999999999999
 21
350.25
 31
0.0
  0
LINE
  5
F6
  8
0
 10
705.9999999999999
 20
350.25
 30
0.0
 11
700.9999999999999
 21
350.25
 31
0.0
  0
LINE
  5
F7
  8
0
 10
700.9999999999999
 20
350.25
 30
0.0
 11
700.9999999999999
 21
329.75
 31
0.0
  0
LINE
  5
F8
  8
0
 10
700.9999999999999
 20
329.75
 30
0.0
 11
705.9999999999999
 21
329.75
 31
0.0
  0
LINE
  5
F9
  8
0
 10
705.9999999999999
 20
329.75
 30
0.0
 11
705.9999999999999
 21
315.0
 31
0.0
  0
LINE
  5
FA
  8
0
 10
197.0
 20
223.0
 30
0.0
 11
197.0
 21
29.0
 31
0.0
  0
LINE
  5
FB
  8
0
 10
197.0
 20
29.0
 30
0.0
 11
431.0
 21
29.0
 31
0.0
  0
LINE
  5
FC
  8
0
 10
431.0
 20
29.0
 30
0.0
 11
431.0
 21
223.0
 31
0.0
  0
LINE
  5
FD
  8
0
 10
431.0
 20
223.0
 30
0.0
 11
197.0
 21
223.0
 31
0.0
  0
LINE
  5
FE
  8
0
 10
647.0
 20
254.0
 30
0.0
 11
647.0
 21
249.0
 31
0.0
  0
LINE
  5
FF
  8
0
 10
647.0
 20
249.0
 30
0.0
 11
627.0
 21
249.0
 31
0.0
  0
LINE
  5
100
  8
0
 10
627.0
 20
249.0
 30
0.0
 11
627.0
 21
254.0
 31
0.0
  0
LINE
  5
101
  8
0
 10
627.0
 20
254.0
 30
0.0
 11
607.0
 21
254.0
 31
0.0
  0
LINE
  5
102
  8
0
 10
607.0
 20
254.0
 30
0.0
 11
607.0
 21
249.0
 31
0.0
  0
LINE
  5
103
  8
0
 10
607.0
 20
249.0
 30
0.0
 11
587.0
 21
249.0
 31
0.0
  0
LINE
  5
104
  8
0
 10
587.0
 20
249.0
 30
0.0
 11
587.0
 21
254.0
 31
0.0
  0
LINE
  5
105
  8
0
 10
587.0
 20
254.0
 30
0.0
 11
547.0
 21
254.0
 31
0.0
  0
LINE
  5
106
  8
0
 10
547.0
 20
254.0
 30
0.0
 11
547.0
 21
249.0
 31
0.0
  0
LINE
  5
107
  8
0
 10
547.0
 20
249.0
 30
0.0
 11
527.0
 21
249.0
 31
0.0
  0
LINE
  5
108
  8
0
 10
527.0
 20
249.0
 30
0.0
 11
527.0
 21
254.0
 31
0.0
  0
LINE
  5
109
  8
0
 10
527.0
 20
254.0
 30
0.0
 11
507.0
 21
254.0
 31
0.0
  0
LINE
  5
10A
  8
0
 10
507.0
 20
254.0
 30
0.0
 11
507.0
 21
249.0
 31
0.0
  0
LINE
  5
10B
  8
0
 10
507.0
 20
249.0
 30
0.0
 11
487.0
 21
249.0
 31
0.0
  0
LINE
  5
10C
  8
0
 10
487.0
 20
249.0
 30
0.0
 11
487.0
 21
254.0
 31
0.0
  0
LINE
  5
10D
  8
0
 10
487.0
 20
254.0
 30
0.0
 11
467.0
 21
254.0
 31
0.0
  0
LINE
  5
10E
  8
0
 10
467.0
 20
254.0
 30
0.0
 11
467.0
 21
229.25
 31
0.0
  0
LINE
  5
10F
  8
0
 10
467.0
 20
229.25
 30
0.0
 11
462.0
 21
229.25
 31
0.0
  0
LINE
  5
110
  8
0
 10
462.0
 20
229.25
 30
0.0
 11
462.0
 21
203.75
 31
0.0
  0
LINE
  5
111
  8
0
 10
462.0
 20
203.75
 30
0.0
 11
467.0
 21
203.75
 31
0.0
  0
LINE
  5
112
  8
0
 10
467.0
 20
203.75
 30
0.0
 11
467.0
 21
179.25
 31
0.0
  0
LINE
  5
113
  8
0
 10
467.0
 20
179.25
 30
0.0
 11
462.0
 21
179.25
 31
0.0
  0
LINE
  5
114
  8
0
 10
462.0
 20
179.25
 30
0.0
 11
462.0
 21
153.75
 31
0.0
  0
LINE
  5
115
  8
0
 10
462.0
 20
153.75
 30
0.0
 11
467.0
 21
153.75
 31
0.0
  0
LINE
  5
116
  8
0
 10
467.0
 20
153.75
 30
0.0
 11
467.0
 21
114.25
 31
0.0
  0
LINE
  5
117
  8
0
 10
467.0
 20
114.25
 30
0.0
 11
462.0
 21
114.25
 31
0.0
  0
LINE
  5
118
  8
0
 10
462.0
 20
114.25
 30
0.0
 11
462.0
 21
88.75
 31
0.0
  0
LINE
  5
119
  8
0
 10
462.0
 20
88.75
 30
0.0
 11
467.0
 21
88.75
 31
0.0
  0
LINE
  5
11A
  8
0
 10
467.0
 20
88.75
 30
0.0
 11
467.0
 21
64.25
 31
0.0
  0
LINE
  5
11B
  8
0
 10
467.0
 20
64.25
 30
0.0
 11
462.0
 21
64.25
 31
0.0
  0
LINE
  5
11C
  8
0
 10
462.0
 20
64.25
 30
0.0
 11
462.0
 21
38.75
 31
0.0
  0
LINE
  5
11D
  8
0
 10
462.0
 20
38.75
 30
0.0
 11
467.0
 21
38.75
 31
0.0
  0
LINE
  5
11E
  8
0
 10
467.0
 20
38.75
 30
0.0
 11
467.0
 21
14.0
 31
0.0
  0
LINE
  5
11F
  8
0
 10
467.0
 20
14.0
 30
0.0
 11
667.0
 21
14.0
 31
0.0
  0
LINE
  5
120
  8
0
 10
667.0
 20
14.0
 30
0.0
 11
667.0
 21
38.75
 31
0.0
  0
LINE
  5
121
  8
0
 10
667.0
 20
38.75
 30
0.0
 11
672.0
 21
38.75
 31
0.0
  0
LINE
  5
122
  8
0
 10
672.0
 20
38.75
 30
0.0
 11
672.0
 21
64.25
 31
0.0
  0
LINE
  5
123
  8
0
 10
672.0
 20
64.25
 30
0.0
 11
667.0
 21
64.25
 31
0.0
  0
LINE
  5
124
  8
0
 10
667.0
 20
64.25
 30
0.0
 11
667.0
 21
88.75
 31
0.0
  0
LINE
  5
125
  8
0
 10
667.0
 20
88.75
 30
0.0
 11
672.0
 21
88.75
 31
0.0
  0
LINE
  5
126
  8
0
 10
672.0
 20
88.75
 30
0.0
 11
672.0
 21
114.25
 31
0.0
  0
LINE
  5
127
  8
0
 10
672.0
 20
114.25
 30
0.0
 11
667.0
 21
114.25
 31
0.0
  0
LINE
  5
128
  8
0
 10
667.0
 20
114.25
 30
0.0
 11
667.0
 21
153.75
 31
0.0
  0
LINE
  5
129
  8
0
 10
667.0
 20
153.75
 30
0.0
 11
672.0
 21
153.75
 31
0.0
  0
LINE
  5
12A
  8
0
 10
672.0
 20
153.75
 30
0.0
 11
672.0
 21
179.25
 31
0.0
  0
LINE
  5
12B
  8
0
 10
672.0
 20
179.25
 30
0.0
 11
667.0
 21
179.25
 31
0.0
  0
LINE
  5
12C
  8
0
 10
667.0
 20
179.25
 30
0.0
 11
667.0
 21
203.75
 31
0.0
  0
LINE
  5
12D
  8
0
 10
667.0
 20
203.75
 30
0.0
 11
672.0
 21
203.75
 31
0.0
  0
LINE
  5
12E
  8
0
 10
672.0
 20
203.75
 30
0.0
 11
672.0
 21
229.25
 31
0.0
  0
LINE
  5
12F
  8
0
 10
672.0
 20
229.25
 30
0.0
 11
667.0
 21
229.25
 31
0.0
  0
LINE
  5
130
  8
0
 10
667.0
 20
229.25
 30
0.0
 11
667.0
 21
254.0
 31
0.0
  0
LINE
  5
131
  8
0
 10
667.0
 20
254.0
 30
0.0
 11
647.0
 21
254.0
 31
0.0
  0
LINE
  5
132
  8
0
 10
342.0
 20
273.0
 30
0.0
 11
342.0
 21
278.0
 31
0.0
  0
LINE
  5
133
  8
0
 10
342.0
 20
278.0
 30
0.0
 11
361.9999999999999
 21
278.0
 31
0.0
  0
LINE
  5
134
  8
0
 10
361.9999999999999
 20
278.0
 30
0.0
 11
362.0
 21
273.0
 31
0.0
  0
LINE
  5
135
  8
0
 10
362.0
 20
273.0
 30
0.0
 11
382.0
 21
273.0
 31
0.0
  0
LINE
  5
136
  8
0
 10
382.0
 20
273.0
 30
0.0
 11
382.0
 21
278.0
 31
0.0
  0
LINE
  5
137
  8
0
 10
382.0
 20
278.0
 30
0.0
 11
402.0
 21
278.0
 31
0.0
  0
LINE
  5
138
  8
0
 10
402.0
 20
278.0
 30
0.0
 11
402.0
 21
273.0
 31
0.0
  0
LINE
  5
139
  8
0
 10
402.0
 20
273.0
 30
0.0
 11
422.0
 21
273.0
 31
0.0
  0
LINE
  5
13A
  8
0
 10
422.0
 20
273.0
 30
0.0
 11
422.0
 21
298.0
 31
0.0
  0
LINE
  5
13B
  8
0
 10
422.0
 20
298.0
 30
0.0
 11
417.0
 21
298.0
 31
0.0
  0
LINE
  5
13C
  8
0
 10
417.0
 20
298.0
 30
0.0
 11
417.0
 21
323.0
 31
0.0
  0
LINE
  5
13D
  8
0
 10
417.0
 20
323.0
 30
0.0
 11
422.0
 21
323.0
 31
0.0
  0
LINE
  5
13E
  8
0
 10
422.0
 20
323.0
 30
0.0
 11
422.0
 21
348.0
 31
0.0
  0
LINE
  5
13F
  8
0
 10
422.0
 20
348.0
 30
0.0
 11
417.0
 21
348.0
 31
0.0
  0
LINE
  5
140
  8
0
 10
417.0
 20
348.0
 30
0.0
 11
417.0
 21
373.0
 31
0.0
  0
LINE
  5
141
  8
0
 10
417.0
 20
373.0
 30
0.0
 11
422.0
 21
373.0
 31
0.0
  0
LINE
  5
142
  8
0
 10
422.0
 20
373.0
 30
0.0
 11
422.0
 21
413.0
 31
0.0
  0
LINE
  5
143
  8
0
 10
422.0
 20
413.0
 30
0.0
 11
417.0
 21
413.0
 31
0.0
  0
LINE
  5
144
  8
0
 10
417.0
 20
413.0
 30
0.0
 11
417.0
 21
438.0
 31
0.0
  0
LINE
  5
145
  8
0
 10
417.0
 20
438.0
 30
0.0
 11
422.0
 21
438.0
 31
0.0
  0
LINE
  5
146
  8
0
 10
422.0
 20
438.0
 30
0.0
 11
422.0
 21
463.0
 31
0.0
  0
LINE
  5
147
  8
0
 10
422.0
 20
463.0
 30
0.0
 11
417.0
 21
463.0
 31
0.0
  0
LINE
  5
148
  8
0
 10
417.0
 20
463.0
 30
0.0
 11
417.0
 21
488.0
 31
0.0
  0
LINE
  5
149
  8
0
 10
417.0
 20
488.0
 30
0.0
 11
422.0
 21
488.0
 31
0.0
  0
LINE
  5
14A
  8
0
 10
422.0
 20
488.0
 30
0.0
 11
422.0
 21
513.0
 31
0.0
  0
LINE
  5
14B
  8
0
 10
422.0
 20
513.0
 30
0.0
 11
402.0
 21
513.0
 31
0.0
  0
LINE
  5
14C
  8
0
 10
402.0
 20
513.0
 30
0.0
 11
402.0
 21
508.0
 31
0.0
  0
LINE
  5
14D
  8
0
 10
402.0
 20
508.0
 30
0.0
 11
382.0
 21
508.0
 31
0.0
  0
LINE
  5
14E
  8
0
 10
382.0
 20
508.0
 30
0.0
 11
382.0
 21
513.0
 31
0.0
  0
LINE
  5
14F
  8
0
 10
382.0
 20
513.0
 30
0.0
 11
362.0
 21
513.0
 31
0.0
  0
LINE
  5
150
  8
0
 10
362.0
 20
513.0
 30
0.0
 11
361.9999999999999
 21
508.0
 31
0.0
  0
LINE
  5
151
  8
0
 10
361.9999999999999
 20
508.0
 30
0.0
 11
342.0
 21
508.0
 31
0.0
  0
LINE
  5
152
  8
0
 10
342.0
 20
508.0
 30
0.0
 11
342.0
 21
513.0
 31
0.0
  0
LINE
  5
153
  8
0
 10
342.0
 20
513.0
 30
0.0
 11
302.0
 21
513.0
 31
0.0
  0
LINE
  5
154
  8
0
 10
302.0
 20
513.0
 30
0.0
 11
302.0
 21
508.0
 31
0.0
  0
LINE
  5
155
  8
0
 10
302.0
 20
508.0
 30
0.0
 11
282.0
 21
508.0
 31
0.0
  0
LINE
  5
156
  8
0
 10
282.0
 20
508.0
 30
0.0
 11
282.0
 21
513.0
 31
0.0
  0
LINE
  5
157
  8
0
 10
282.0
 20
513.0
 30
0.0
 11
262.0
 21
513.0
 31
0.0
  0
LINE
  5
158
  8
0
 10
262.0
 20
513.0
 30
0.0
 11
262.0
 21
508.0
 31
0.0
  0
LINE
  5
159
  8
0
 10
262.0
 20
508.0
 30
0.0
 11
242.0
 21
508.0
 31
0.0
  0
LINE
  5
15A
  8
0
 10
242.0
 20
508.0
 30
0.0
 11
242.0
 21
513.0
 31
0.0
  0
LINE
  5
15B
  8
0
 10
242.0
 20
513.0
 30
0.0
 11
222.0
 21
513.0
 31
0.0
  0
LINE
  5
15C
  8
0
 10
222.0
 20
513.0
 30
0.0
 11
222.0
 21
273.0
 31
0.0
  0
LINE
  5
15D
  8
0
 10
222.0
 20
273.0
 30
0.0
 11
242.0
 21
273.0
 31
0.0
  0
LINE
  5
15E
  8
0
 10
242.0
 20
273.0
 30
0.0
 11
242.0
 21
278.0
 31
0.0
  0
LINE
  5
15F
  8
0
 10
242.0
 20
278.0
 30
0.0
 11
262.0
 21
278.0
 31
0.0
  0
LINE
  5
160
  8
0
 10
262.0
 20
278.0
 30
0.0
 11
262.0
 21
273.0
 31
0.0
  0
LINE
  5
161
  8
0
 10
262.0
 20
273.0
 30
0.0
 11
282.0
 21
273.0
 31
0.0
  0
LINE
  5
162
  8
0
 10
282.0
 20
273.0
 30
0.0
 11
282.0
 21
278.0
 31
0.0
  0
LINE
  5
163
  8
0
 10
282.0
 20
278.0
 30
0.0
 11
302.0
 21
278.0
 31
0.0
  0
LINE
  5
164
  8
0
 10
302.0
 20
278.0
 30
0.0
 11
302.0
 21
273.0
 31
0.0
  0
LINE
  5
165
  8
0
 10
302.0
 20
273.0
 30
0.0
 11
342.0
 21
273.0
 31
0.0
  0
LINE
  5
166
  8
0
 10
584.0
 20
273.0
 30
0.0
 11
584.0
 21
278.0
 31
0.0
  0
LINE
  5
167
  8
0
 10
584.0
 20
278.0
 30
0.0
 11
603.9999999999999
 21
278.0
 31
0.0
  0
LINE
  5
168
  8
0
 10
603.9999999999999
 20
278.0
 30
0.0
 11
604.0
 21
273.0
 31
0.0
  0
LINE
  5
169
  8
0
 10
604.0
 20
273.0
 30
0.0
 11
624.0
 21
273.0
 31
0.0
  0
LINE
  5
16A
  8
0
 10
624.0
 20
273.0
 30
0.0
 11
624.0
 21
278.0
 31
0.0
  0
LINE
  5
16B
  8
0
 10
624.0
 20
278.0
 30
0.0
 11
644.0
 21
278.0
 31
0.0
  0
LINE
  5
16C
  8
0
 10
644.0
 20
278.0
 30
0.0
 11
644.0
 21
273.0
 31
0.0
  0
LINE
  5
16D
  8
0
 10
644.0
 20
273.0
 30
0.0
 11
664.0
 21
273.0
 31
0.0
  0
LINE
  5
16E
  8
0
 10
664.0
 20
273.0
 30
0.0
 11
664.0
 21
298.0
 31
0.0
  0
LINE
  5
16F
  8
0
 10
664.0
 20
298.0
 30
0.0
 11
659.0
 21
298.0
 31
0.0
  0
LINE
  5
170
  8
0
 10
659.0
 20
298.0
 30
0.0
 11
659.0
 21
323.0
 31
0.0
  0
LINE
  5
171
  8
0
 10
659.0
 20
323.0
 30
0.0
 11
664.0
 21
323.0
 31
0.0
  0
LINE
  5
172
  8
0
 10
664.0
 20
323.0
 30
0.0
 11
664.0
 21
348.0
 31
0.0
  0
LINE
  5
173
  8
0
 10
664.0
 20
348.0
 30
0.0
 11
659.0
 21
348.0
 31
0.0
  0
LINE
  5
174
  8
0
 10
659.0
 20
348.0
 30
0.0
 11
659.0
 21
373.0
 31
0.0
  0
LINE
  5
175
  8
0
 10
659.0
 20
373.0
 30
0.0
 11
664.0
 21
373.0
 31
0.0
  0
LINE
  5
176
  8
0
 10
664.0
 20
373.0
 30
0.0
 11
664.0
 21
413.0
 31
0.0
  0
LINE
  5
177
  8
0
 10
664.0
 20
413.0
 30
0.0
 11
659.0
 21
413.0
 31
0.0
  0
LINE
  5
178
  8
0
 10
659.0
 20
413.0
 30
0.0
 11
659.0
 21
438.0
 31
0.0
  0
LINE
  5
179
  8
0
 10
659.0
 20
438.0
 30
0.0
 11
664.0
 21
438.0
 31
0.0
  0
LINE
  5
17A
  8
0
 10
664.0
 20
438.0
 30
0.0
 11
664.0
 21
463.0
 31
0.0
  0
LINE
  5
17B
  8
0
 10
664.0
 20
463.0
 30
0.0
 11
659.0
 21
463.0
 31
0.0
  0
LINE
  5
17C
  8
0
 10
659.0
 20
463.0
 30
0.0
 11
659.0
 21
488.0
 31
0.0
  0
LINE
  5
17D
  8
0
 10
659.0
 20
488.0
 30
0.0
 11
664.0
 21
488.0
 31
0.0
  0
LINE
  5
17E
  8
0
 10
664.0
 20
488.0
 30
0.0
 11
664.0
 21
513.0
 31
0.0
  0
LINE
  5
17F
  8
0
 10
664.0
 20
513.0
 30
0.0
 11
644.0
 21
513.0
 31
0.0
  0
LINE
  5
180
  8
0
 10
644.0
 20
513.0
 30
0.0
 11
644.0
 21
508.0
 31
0.0
  0
LINE
  5
181
  8
0
 10
644.0
 20
508.0
 30
0.0
 11
624.0
 21
508.0
 31
0.0
  0
LINE
  5
182
  8
0
 10
624.0
 20
508.0
 30
0.0
 11
624.0
 21
513.0
 31
0.0
  0
LINE
  5
183
  8
0
 10
624.0
 20
513.0
 30
0.0
 11
604.0
 21
513.0
 31
0.0
  0
LINE
  5
184
  8
0
 10
604.0
 20
513.0
 30
0.0
 11
603.9999999999999
 21
508.0
 31
0.0
  0
LINE
  5
185
  8
0
 10
603.9999999999999
 20
508.0
 30
0.0
 11
584.0
 21
508.0
 31
0.0
  0
LINE
  5
186
  8
0
 10
584.0
 20
508.0
 30
0.0
 11
584.0
 21
513.0
 31
0.0
  0
LINE
  5
187
  8
0
 10
584.0
 20
513.0
 30
0.0
 11
544.0
 21
513.0
 31
0.0
  0
LINE
  5
188
  8
0
 10
544.0
 20
513.0
 30
0.0
 11
544.0
 21
508.0
 31
0.0
  0
LINE
  5
189
  8
0
 10
544.0
 20
508.0
 30
0.0
 11
524.0
 21
508.0
 31
0.0
  0
LINE
  5
18A
  8
0
 10
524.0
 20
508.0
 30
0.0
 11
524.0
 21
513.0
 31
0.0
  0
LINE
  5
18B
  8
0
 10
524.0
 20
513.0
 30
0.0
 11
504.0
 21
513.0
 31
0.0
  0
LINE
  5
18C
  8
0
 10
504.0
 20
513.0
 30
0.0
 11
504.0
 21
508.0
 31
0.0
  0
LINE
  5
18D
  8
0
 10
504.0
 20
508.0
 30
0.0
 11
484.0
 21
508.0
 31
0.0
  0
LINE
  5
18E
  8
0
 10
484.0
 20
508.0
 30
0.0
 11
484.0
 21
513.0
 31
0.0
  0
LINE
  5
18F
  8
0
 10
484.0
 20
513.0
 30
0.0
 11
464.0
 21
513.0
 31
0.0
  0
LINE
  5
190
  8
0
 10
464.0
 20
513.0
 30
0.0
 11
464.0
 21
273.0
 31
0.0
  0
LINE
  5
191
  8
0
 10
464.0
 20
273.0
 30
0.0
 11
484.0
 21
273.0
 31
0.0
  0
LINE
  5
192
  8
0
 10
484.0
 20
273.0
 30
0.0
 11
484.0
 21
278.0
 31
0.0
  0
LINE
  5
193
  8
0
 10
484.0
 20
278.0
 30
0.0
 11
504.0
 21
278.0
 31
0.0
  0
LINE
  5
194
  8
0
 10
504.0
 20
278.0
 30
0.0
 11
504.0
 21
273.0
 31
0.0
  0
LINE
  5
195
  8
0
 10
504.0
 20
273.0
 30
0.0
 11
524.0
 21
273.0
 31
0.0
  0
LINE
  5
196
  8
0
 10
524.0
 20
273.0
 30
0.0
 11
524.0
 21
278.0
 31
0.0
  0
LINE
  5
197
  8
0
 10
524.0
 20
278.0
 30
0.0
 11
544.0
 21
278.0
 31
0.0
  0
LINE
  5
198
  8
0
 10
544.0
 20
278.0
 30
0.0
 11
544.0
 21
273.0
 31
0.0
  0
LINE
  5
199
  8
0
 10
544.0
 20
273.0
 30
0.0
 11
584.0
 21
273.0
 31
0.0
  0
CIRCLE
  5
19A
  8
0
 10
763.3000000000004
 20
452.75
 30
0.0
 40
1.25
  0
CIRCLE
  5
19B
  8
0
 10
763.3000000000004
 20
421.35
 30
0.0
 40
1.25
  0
CIRCLE
  5
19C
  8
0
 10
838.7000000000005
 20
421.35
 30
0.0
 40
1.25
  0
CIRCLE
  5
19D
  8
0
 10
838.7000000000005
 20
452.75
 30
0.0
 40
1.25
  0
CIRCLE
  5
19E
  8
0
 10
841.2499999999999
 20
377.3
 30
0.0
 40
3.05
  0
CIRCLE
  5
19F
  8
0
 10
760.75
 20
377.3
 30
0.0
 40
3.05
  0
CIRCLE
  5
1A0
  8
0
 10
567.0
 20
134.0
 30
0.0
 40
40.0
  0
ENDSEC
  0
EOF
