0
SECTION
2
HEADER
9
$INSUNITS
70
4
9
$ACADVER
1
AC1014
9
$HANDSEED
5
FFFF
0
ENDSEC
0
SECTION
2
TABLES
0
TABLE
2
VPORT
5
8
100
AcDbSymbolTable
0
ENDTAB
0
TABLE
2
LTYPE
5
5
100
AcDbSymbolTable
0
LTYPE
5
14
100
AcDbSymbolTableRecord
100
AcDbLinetypeTableRecord
2
BYBLOCK
70
0
0
LTYPE
5
15
100
AcDbSymbolTableRecord
100
AcDbLinetypeTableRecord
2
BYLAYER
70
0
0
ENDTAB
0
TABLE
2
LAYER
5
2
100
AcDbSymbolTable
70
2
0
LAYER
5
50
100
AcDbSymbolTableRecord
100
AcDbLayerTableRecord
2
0
70
0
6
CONTINUOUS
0
ENDTAB
0
TABLE
2
STYLE
5
3
100
AcDbSymbolTable
70
1
0
STYLE
5
11
100
AcDbSymbolTableRecord
100
AcDbTextStyleTableRecord
2
STANDARD
70
0
0
ENDTAB
0
TABLE
2
VIEW
5
6
100
AcDbSymbolTable
70
0
0
ENDTAB
0
TABLE
2
UCS
5
7
100
AcDbSymbolTable
70
0
0
ENDTAB
0
TABLE
2
APPID
5
9
100
AcDbSymbolTable
70
2
0
APPID
5
12
100
AcDbSymbolTableRecord
100
AcDbRegAppTableRecord
2
ACAD
70
0
0
ENDTAB
0
TABLE
2
DIMSTYLE
5
A
100
AcDbSymbolTable
70
1
0
ENDTAB
0
TABLE
2
BLOCK_RECORD
5
1
100
AcDbSymbolTable
70
1
0
BLOCK_RECORD
5
1F
100
AcDbSymbolTableRecord
100
AcDbBlockTableRecord
2
*MODEL_SPACE
0
BLOCK_RECORD
5
1B
100
AcDbSymbolTableRecord
100
AcDbBlockTableRecord
2
*PAPER_SPACE
0
ENDTAB
0
ENDSEC
0
SECTION
2
BLOCKS
0
BLOCK
5
20
100
AcDbEntity
100
AcDbBlockBegin
2
*MODEL_SPACE
0
ENDBLK
5
21
100
AcDbEntity
100
AcDbBlockEnd
0
BLOCK
5
1C
100
AcDbEntity
100
AcDbBlockBegin
2
*PAPER_SPACE
0
ENDBLK
5
1D
100
AcDbEntity
100
AcDbBlockEnd
0
ENDSEC
0
SECTION
2
ENTITIES
0
LWPOLYLINE
5
100
100
AcDbEntity
8
0
100
AcDbPolyline
90
4
70
1
43
0.0
10
370.85338057550524
20
420.35528653416418
10
441.8533805755053
20
420.35528653416418
10
441.8533805755053
20
134.35528653416424
10
370.85338057550524
20
134.35528653416424
0
LWPOLYLINE
5
101
100
AcDbEntity
8
0
100
AcDbPolyline
90
4
70
1
43
0.0
10
426.35338057550535
20
339.10528653416418
10
441.8533805755053
20
339.10528653416418
10
441.85338057550541
20
324.10528653416429
10
426.35338057550535
20
324.10528653416418
0
LWPOLYLINE
5
102
100
AcDbEntity
8
0
100
AcDbPolyline
90
4
70
1
43
0.0
10
426.35338057550535
20
225.35528653416421
10
441.8533805755053
20
225.35528653416421
10
441.8533805755053
20
240.35528653416421
10
426.35338057550535
20
240.35528653416421
0
LINE
5
103
100
AcDbEntity
8
0
100
AcDbLine
10
441.8533805755053
20
339.10528653416418
30
0
11
441.85338057550541
21
324.10528653416429
31
0
0
LINE
5
104
100
AcDbEntity
8
0
100
AcDbLine
10
441.8533805755053
20
240.35528653416421
30
0
11
441.8533805755053
21
225.35528653416421
31
0
0
LWPOLYLINE
5
105
100
AcDbEntity
8
0
100
AcDbPolyline
90
73
70
1
43
0.0
10
50
20
-650
10
100
20
-500
10
350
20
-500
10
410
20
-650
10
485
20
-650
10
485
20
-600
10
467
20
-600
10
467
20
-550
10
485
20
-550
10
485
20
-520
10
467
20
-520
10
467
20
-490
10
485
20
-490
10
485
20
-460
10
467
20
-460
10
467
20
-430
10
485
20
-430
10
485
20
-352
10
467
20
-352
10
467
20
-322
10
485
20
-322
10
485
20
-292
10
467
20
-292
10
467
20
-262
10
485
20
-262
10
485
20
-232.00000000000003
10
467
20
-232.00000000000003
10
467
20
-191.00000000000006
10
485
20
-191
10
485
20
-150
10
467
20
-150
10
397.85300000000001
20
-150
10
367.85300000000001
20
-150
10
337.85300000000001
20
-150
10
337.85300000000001
20
-168
10
307.85300000000001
20
-168
10
307.85300000000001
20
-150
10
277.85300000000001
20
-150
10
277.85300000000001
20
-168
10
247.85300000000001
20
-168
10
247.85300000000001
20
-150
10
217.85300000000001
20
-150
10
217.85300000000001
20
-168
10
187.85300000000001
20
-168
10
187.85300000000001
20
-150
10
157.85300000000001
20
-150
10
-25
20
-150
10
-25
20
-191
10
-6.9999999999999982
20
-191
10
-6.9999999999999973
20
-232.00000000000003
10
-25
20
-232.00000000000003
10
-25
20
-262
10
-6.9999999999999973
20
-262
10
-6.9999999999999973
20
-292
10
-25
20
-292
10
-25
20
-322
10
-6.9999999999999973
20
-322
10
-7
20
-352
10
-25
20
-352
10
-25
20
-400
10
-25
20
-430
10
-7
20
-430
10
-7
20
-460
10
-25
20
-460
10
-25
20
-490
10
-7
20
-490
10
-7
20
-520
10
-25
20
-520
10
-25
20
-550
10
-7
20
-550
10
-7
20
-600
10
-25
20
-600
10
-25
20
-650
0
LINE
5
106
100
AcDbEntity
8
0
100
AcDbLine
10
-25
20
-430
30
0
11
-25
21
-400
31
0
0
LWPOLYLINE
5
107
100
AcDbEntity
8
0
100
AcDbPolyline
90
60
70
1
43
0.0
10
1067.0671152512616
20
-132.33948180055748
10
1067.0671152512616
20
-150.33948180055748
10
1037.0671152512616
20
-150.33948180055748
10
1019.0671152512616
20
-150.33948180055748
10
989.06711525126161
20
-150.33948180055748
10
989.06711525126161
20
-132.33948180055748
10
959.06711525126161
20
-132.33948180055748
10
959.06711525126161
20
-150.33948180055748
10
929.06711525126161
20
-150.33948180055748
10
929.06711525126161
20
-132.33948180055748
10
899.06711525126161
20
-132.33948180055748
10
899.06711525126161
20
-150.33948180055748
10
869.06711525126161
20
-150.33948180055748
10
869.06711525126161
20
-132.33948180055748
10
828.06711525126161
20
-132.33948180055748
10
828.06711525126161
20
-150.33948180055748
10
787.0671152512615
20
-150.33948180055745
10
787.0671152512615
20
-474.33948180055751
10
828.06711525126161
20
-474.33948180055751
10
828.06711525126161
20
-492.33948180055745
10
869.06711525126161
20
-492.33948180055745
10
869.06711525126161
20
-474.33948180055751
10
899.06711525126161
20
-474.33948180055751
10
899.06711525126161
20
-492.33948180055745
10
929.06711525126161
20
-492.33948180055745
10
929.06711525126161
20
-474.33948180055751
10
959.06711525126161
20
-474.33948180055751
10
959.06711525126161
20
-492.33948180055745
10
989.06711525126161
20
-492.33948180055745
10
989.06711525126161
20
-474.33948180055751
10
1019.0671152512616
20
-474.33948180055751
10
1037.0671152512616
20
-474.33948180055751
10
1067.0671152512616
20
-474.33948180055751
10
1067.0671152512616
20
-492.33948180055745
10
1097.0671152512616
20
-492.33948180055745
10
1097.0671152512616
20
-474.33948180055751
10
1127.0671152512616
20
-474.33948180055751
10
1127.0671152512616
20
-492.33948180055745
10
1157.0671152512616
20
-492.33948180055745
10
1157.0671152512616
20
-474.33948180055751
10
1187.0671152512616
20
-474.33948180055751
10
1187.0671152512616
20
-492.33948180055745
10
1237.0671152512616
20
-492.33948180055745
10
1237.0671152512616
20
-474.33948180055751
10
1287.0671152512614
20
-474.33948180055751
10
1287.0671152512614
20
-424.33948180055751
10
1127.0671152512616
20
-372.33948180055745
10
1127.0671152512616
20
-252.33948180055748
10
1287.0671152512614
20
-200.33948180055748
10
1287.0671152512614
20
-150.33948180055748
10
1237.0671152512616
20
-150.33948180055748
10
1237.0671152512616
20
-132.33948180055748
10
1187.0671152512616
20
-132.33948180055748
10
1187.0671152512616
20
-150.33948180055748
10
1157.0671152512616
20
-150.33948180055748
10
1157.0671152512616
20
-132.33948180055748
10
1127.0671152512616
20
-132.33948180055748
10
1127.0671152512616
20
-150.33948180055748
10
1097.0671152512616
20
-150.33948180055748
10
1097.0671152512616
20
-132.33948180055748
0
LINE
5
108
100
AcDbEntity
8
0
100
AcDbLine
10
787.0671152512615
20
-150.33948180055748
30
0
11
787.0671152512615
21
-464.33948180055751
31
0
0
LINE
5
109
100
AcDbEntity
8
0
100
AcDbLine
10
-4.0785544694364511
20
89.822956213921998
30
0
11
95.92144553056356
21
89.822956213921998
31
0
0
LINE
5
110
100
AcDbEntity
8
0
100
AcDbLine
10
469.92144553056363
20
89.822956213921998
30
0
11
369.92144553056363
21
89.822956213921998
31
0
0
LINE
5
111
100
AcDbEntity
8
0
100
AcDbLine
10
959.06711525126161
20
-492.33948180055745
30
0
11
989.06711525126161
21
-492.33948180055745
31
0
0
LINE
5
112
100
AcDbEntity
8
0
100
AcDbLine
10
828.06711525126161
20
-492.33948180055745
30
0
11
869.06711525126161
21
-492.33948180055745
31
0
0
LINE
5
113
100
AcDbEntity
8
0
100
AcDbLine
10
899.06711525126161
20
-492.33948180055745
30
0
11
929.06711525126161
21
-492.33948180055745
31
0
0
LINE
5
114
100
AcDbEntity
8
0
100
AcDbLine
10
1287.0671152512614
20
-150.33948180055748
30
0
11
1287.0671152512614
21
-200.33948180055748
31
0
0
LINE
5
115
100
AcDbEntity
8
0
100
AcDbLine
10
1287.0671152512614
20
-424.33948180055751
30
0
11
1287.0671152512614
21
-474.33948180055751
31
0
0
LWPOLYLINE
5
116
100
AcDbEntity
8
0
100
AcDbPolyline
90
4
70
1
43
0.0
10
93
20
-400
10
-7
20
-400
10
-6.9999999999999929
20
-382
10
93
20
-382
0
LWPOLYLINE
5
117
100
AcDbEntity
8
0
100
AcDbPolyline
90
4
70
1
43
0.0
10
367
20
-400
10
467
20
-400
10
467
20
-382
10
367
20
-382
0
LWPOLYLINE
5
118
100
AcDbEntity
8
0
100
AcDbPolyline
90
4
70
1
43
0.0
10
183
20
-382
10
183
20
-400
10
277
20
-400
10
277
20
-382
0
LINE
5
119
100
AcDbEntity
8
0
100
AcDbLine
10
-7
20
-400
30
0
11
93
21
-400
31
0
0
LINE
5
120
100
AcDbEntity
8
0
100
AcDbLine
10
-7
20
-400
30
0
11
93
21
-400
31
0
0
LINE
5
121
100
AcDbEntity
8
0
100
AcDbLine
10
367
20
-400
30
0
11
467
21
-400
31
0
0
LINE
5
122
100
AcDbEntity
8
0
100
AcDbLine
10
183
20
-400
30
0
11
277
21
-400
31
0
0
LINE
5
123
100
AcDbEntity
8
0
100
AcDbLine
10
367
20
-400
30
0
11
467
21
-400
31
0
0
LINE
5
124
100
AcDbEntity
8
0
100
AcDbLine
10
95.92144553056356
20
89.822956213921998
30
0
11
-4.0785544694364511
21
89.822956213921998
31
0
0
LINE
5
125
100
AcDbEntity
8
0
100
AcDbLine
10
-22.078554469436433
20
107.82295621392201
30
0
11
-4.0785544694364493
21
107.82295621392201
31
0
0
LINE
5
126
100
AcDbEntity
8
0
100
AcDbLine
10
95.92144553056356
20
107.82295621392201
30
0
11
185.92144553056357
21
107.82295621392201
31
0
0
LINE
5
127
100
AcDbEntity
8
0
100
AcDbLine
10
469.92144553056363
20
89.822956213921998
30
0
11
369.92144553056363
21
89.822956213921998
31
0
0
LINE
5
128
100
AcDbEntity
8
0
100
AcDbLine
10
279.92144553056363
20
89.822956213921998
30
0
11
185.92144553056357
21
89.822956213921998
31
0
0
LINE
5
129
100
AcDbEntity
8
0
100
AcDbLine
10
-4.0785544694364324
20
449.822956213922
30
0
11
-4.0785544694364333
21
431.822956213922
31
0
0
LINE
5
130
100
AcDbEntity
8
0
100
AcDbLine
10
-4.0785544694364324
20
449.822956213922
30
0
11
95.921445530563602
21
449.822956213922
31
0
0
LINE
5
131
100
AcDbEntity
8
0
100
AcDbLine
10
-22.078554469436433
20
431.822956213922
30
0
11
-4.0785544694364333
21
431.822956213922
31
0
0
LINE
5
132
100
AcDbEntity
8
0
100
AcDbLine
10
95.921445530563602
20
431.822956213922
30
0
11
185.92144553056357
21
431.822956213922
31
0
0
LINE
5
133
100
AcDbEntity
8
0
100
AcDbLine
10
185.92144553056357
20
449.822956213922
30
0
11
279.92144553056363
21
449.822956213922
31
0
0
LINE
5
134
100
AcDbEntity
8
0
100
AcDbLine
10
369.92144553056363
20
449.822956213922
30
0
11
469.92144553056363
21
449.822956213922
31
0
0
LINE
5
135
100
AcDbEntity
8
0
100
AcDbLine
10
279.92144553056363
20
431.822956213922
30
0
11
369.92144553056363
21
431.822956213922
31
0
0
LINE
5
136
100
AcDbEntity
8
0
100
AcDbLine
10
95.921445530563602
20
431.822956213922
30
0
11
95.921445530563602
21
449.822956213922
31
0
0
LINE
5
137
100
AcDbEntity
8
0
100
AcDbLine
10
95.92144553056356
20
107.82295621392201
30
0
11
95.92144553056356
21
89.822956213921998
31
0
0
LINE
5
138
100
AcDbEntity
8
0
100
AcDbLine
10
185.92144553056357
20
449.822956213922
30
0
11
185.92144553056357
21
431.822956213922
31
0
0
LINE
5
139
100
AcDbEntity
8
0
100
AcDbLine
10
185.92144553056357
20
107.82295621392201
30
0
11
185.92144553056357
21
89.822956213921998
31
0
0
LINE
5
140
100
AcDbEntity
8
0
100
AcDbLine
10
279.92144553056363
20
107.82295621392201
30
0
11
279.92144553056363
21
89.822956213921998
31
0
0
LINE
5
141
100
AcDbEntity
8
0
100
AcDbLine
10
279.92144553056363
20
431.822956213922
30
0
11
279.92144553056363
21
449.822956213922
31
0
0
LINE
5
142
100
AcDbEntity
8
0
100
AcDbLine
10
369.92144553056363
20
89.822956213921998
30
0
11
369.92144553056363
21
107.82295621392201
31
0
0
LINE
5
143
100
AcDbEntity
8
0
100
AcDbLine
10
279.92144553056363
20
107.82295621392201
30
0
11
369.92144553056363
21
107.82295621392201
31
0
0
LINE
5
144
100
AcDbEntity
8
0
100
AcDbLine
10
369.92144553056363
20
431.822956213922
30
0
11
369.92144553056363
21
449.822956213922
31
0
0
LINE
5
145
100
AcDbEntity
8
0
100
AcDbLine
10
487.92144553056357
20
137.822956213922
30
0
11
487.92144553056357
21
167.822956213922
31
0
0
LINE
5
146
100
AcDbEntity
8
0
100
AcDbLine
10
487.92144553056357
20
401.822956213922
30
0
11
487.92144553056357
21
371.822956213922
31
0
0
LINE
5
147
100
AcDbEntity
8
0
100
AcDbLine
10
469.92144553056363
20
431.822956213922
30
0
11
469.92144553056363
21
449.822956213922
31
0
0
LINE
5
148
100
AcDbEntity
8
0
100
AcDbLine
10
487.92144553056357
20
401.822956213922
30
0
11
487.92144553056357
21
371.822956213922
31
0
0
LINE
5
149
100
AcDbEntity
8
0
100
AcDbLine
10
-22.078554469436433
20
371.822956213922
30
0
11
-22.078554469436433
21
431.822956213922
31
0
0
LINE
5
150
100
AcDbEntity
8
0
100
AcDbLine
10
-4.0785544694364333
20
431.822956213922
30
0
11
-4.0785544694364333
21
440
31
0
0
LINE
5
151
100
AcDbEntity
8
0
100
AcDbLine
10
487.92144553056357
20
371.822956213922
30
0
11
469.92144553056363
21
371.822956213922
31
0
0
LINE
5
152
100
AcDbEntity
8
0
100
AcDbLine
10
-4.0785544694364262
20
371.822956213922
30
0
11
-22.078554469436433
21
371.822956213922
31
0
0
LINE
5
153
100
AcDbEntity
8
0
100
AcDbLine
10
469.92144553056363
20
311.822956213922
30
0
11
469.92144553056363
21
371.822956213922
31
0
0
LINE
5
154
100
AcDbEntity
8
0
100
AcDbLine
10
487.92144553056357
20
311.822956213922
30
0
11
469.92144553056363
21
311.822956213922
31
0
0
LINE
5
155
100
AcDbEntity
8
0
100
AcDbLine
10
-4.0785544694364315
20
311.82295621392194
30
0
11
-22.078554469436433
21
311.822956213922
31
0
0
LINE
5
156
100
AcDbEntity
8
0
100
AcDbLine
10
-4.0785544694364315
20
311.82295621392194
30
0
11
-4.0785544694364262
21
371.822956213922
31
0
0
LINE
5
157
100
AcDbEntity
8
0
100
AcDbLine
10
487.92144553056357
20
311.822956213922
30
0
11
487.92144553056357
21
227.822956213922
31
0
0
LINE
5
158
100
AcDbEntity
8
0
100
AcDbLine
10
487.92144553056357
20
167.822956213922
30
0
11
487.92144553056357
21
137.822956213922
31
0
0
LINE
5
159
100
AcDbEntity
8
0
100
AcDbLine
10
487.92144553056357
20
227.822956213922
30
0
11
469.92144553056363
21
227.822956213922
31
0
0
LINE
5
160
100
AcDbEntity
8
0
100
AcDbLine
10
-22.078554469436433
20
107.82295621392201
30
0
11
-22.078554469436433
21
167.822956213922
31
0
0
LINE
5
161
100
AcDbEntity
8
0
100
AcDbLine
10
-22.078554469436433
20
227.822956213922
30
0
11
-22.078554469436433
21
311.822956213922
31
0
0
LINE
5
162
100
AcDbEntity
8
0
100
AcDbLine
10
-4.0785544694364262
20
227.822956213922
30
0
11
-22.078554469436433
21
227.822956213922
31
0
0
LINE
5
163
100
AcDbEntity
8
0
100
AcDbLine
10
487.92144553056357
20
167.822956213922
30
0
11
469.92144553056363
21
167.822956213922
31
0
0
LINE
5
164
100
AcDbEntity
8
0
100
AcDbLine
10
-4.0785544694364368
20
167.822956213922
30
0
11
-22.078554469436433
21
167.822956213922
31
0
0
LINE
5
165
100
AcDbEntity
8
0
100
AcDbLine
10
-4.0785544694364511
20
89.822956213921998
30
0
11
-4.0785544694364493
21
107.82295621392201
31
0
0
LINE
5
166
100
AcDbEntity
8
0
100
AcDbLine
10
-4.0785544694364368
20
167.822956213922
30
0
11
-4.0785544694364262
21
227.822956213922
31
0
0
LINE
5
167
100
AcDbEntity
8
0
100
AcDbLine
10
469.92144553056363
20
89.822956213921998
30
0
11
469.92144553056363
21
107.82295621392201
31
0
0
LINE
5
168
100
AcDbEntity
8
0
100
AcDbLine
10
469.92144553056363
20
167.822956213922
30
0
11
469.92144553056363
21
227.822956213922
31
0
0
LWPOLYLINE
5
169
100
AcDbEntity
8
0
100
AcDbPolyline
90
4
70
1
43
0.0
10
1019.0671152512616
20
-210.33948180055748
10
1037.0671152512616
20
-210.33948180055748
10
1037.0671152512616
20
-180.33948180055748
10
1019.0671152512616
20
-180.33948180055748
0
LWPOLYLINE
5
170
100
AcDbEntity
8
0
100
AcDbPolyline
90
4
70
1
43
0.0
10
1019.0671152512616
20
-270.33948180055751
10
1037.0671152512616
20
-270.33948180055751
10
1037.0671152512616
20
-354.33948180055751
10
1019.0671152512616
20
-354.33948180055751
0
LWPOLYLINE
5
171
100
AcDbEntity
8
0
100
AcDbPolyline
90
4
70
1
43
0.0
10
1019.0671152512616
20
-414.33948180055751
10
1037.0671152512616
20
-414.33948180055751
10
1037.0671152512616
20
-444.33948180055751
10
1019.0671152512616
20
-444.33948180055751
0
LINE
5
172
100
AcDbEntity
8
0
100
AcDbLine
10
469.92144553056363
20
107.82295621392201
30
0
11
469.92144553056363
21
137.822956213922
31
0
0
LINE
5
173
100
AcDbEntity
8
0
100
AcDbLine
10
469.92144553056363
20
137.822956213922
30
0
11
487.92144553056357
21
137.822956213922
31
0
0
LINE
5
174
100
AcDbEntity
8
0
100
AcDbLine
10
469.92144553056363
20
431.822956213922
30
0
11
469.92144553056363
21
401.822956213922
31
0
0
LINE
5
175
100
AcDbEntity
8
0
100
AcDbLine
10
469.92144553056363
20
401.822956213922
30
0
11
487.92144553056357
21
401.822956213922
31
0
0
LWPOLYLINE
5
176
100
AcDbEntity
8
0
100
AcDbPolyline
90
4
70
1
43
0.0
10
370.85338057550524
20
305.35528653416418
10
370.85338057550524
20
287.35528653416418
10
310.85338057550524
20
287.35528653416418
10
310.86707875508853
20
305.35528653416418
0
LWPOLYLINE
5
177
100
AcDbEntity
8
0
100
AcDbPolyline
90
4
70
1
43
0.0
10
100.65338057550534
20
287.35528653416418
10
40.653380575505331
20
287.35528653416418
10
40.653380575505331
20
305.35528653416418
10
100.66707875508857
20
305.35528653416418
0
LWPOLYLINE
5
178
100
AcDbEntity
8
0
100
AcDbPolyline
90
4
70
1
43
0.0
10
250.85338057550524
20
287.35528653416418
10
160.65338057550534
20
287.35528653416418
10
160.65338057550534
20
305.35528653416418
10
250.8670787550885
20
305.35528653416418
0
LWPOLYLINE
5
179
100
AcDbEntity
8
0
100
AcDbPolyline
90
4
70
1
43
0.0
10
40.653380575505345
20
390.35528653416418
10
100.73176460312072
20
390.35528653416418
10
100.73176460312072
20
408.35528132194077
10
40.653380575505345
20
408.35528132194077
0
LWPOLYLINE
5
180
100
AcDbEntity
8
0
100
AcDbPolyline
90
4
70
1
43
0.0
10
310.9317646031206
20
390.35528653416418
10
370.85338057550524
20
390.35528653416418
10
370.85338057550524
20
408.35528132194077
10
310.9317646031206
20
408.35528132194077
0
LWPOLYLINE
5
181
100
AcDbEntity
8
0
100
AcDbPolyline
90
4
70
1
43
0.0
10
160.65338057550534
20
390.35528653416418
10
250.93176460312066
20
390.35528653416418
10
250.93176460312066
20
408.35528132194077
10
160.66707875112206
20
408.35528132194077
0
LINE
5
182
100
AcDbEntity
8
0
100
AcDbLine
10
1147.7580839857098
20
187.53226888094972
30
0
11
1147.7580839857098
21
437.53226888094969
31
0
0
LINE
5
183
100
AcDbEntity
8
0
100
AcDbLine
10
817.55808398570957
20
437.53226888094969
30
0
11
817.55808398570957
21
187.53226888094972
31
0
0
LINE
5
184
100
AcDbEntity
8
0
100
AcDbLine
10
877.55808398570957
20
205.53226888094972
30
0
11
937.55808398570957
21
205.53226888094972
31
0
0
LINE
5
185
100
AcDbEntity
8
0
100
AcDbLine
10
1087.7580839857098
20
205.53226888094972
30
0
11
1027.7580839857098
21
205.53226888094972
31
0
0
LINE
5
186
100
AcDbEntity
8
0
100
AcDbLine
10
877.55808398570957
20
205.53226888094972
30
0
11
877.55808398570957
21
187.53226888094972
31
0
0
LINE
5
187
100
AcDbEntity
8
0
100
AcDbLine
10
937.55808398570957
20
205.53226888094972
30
0
11
937.55808398570957
21
187.53226888094972
31
0
0
LINE
5
188
100
AcDbEntity
8
0
100
AcDbLine
10
1087.7580839857098
20
205.53226888094972
30
0
11
1087.7580839857098
21
187.53226888094972
31
0
0
LINE
5
189
100
AcDbEntity
8
0
100
AcDbLine
10
1027.7580839857098
20
205.53226888094972
30
0
11
1027.7580839857098
21
187.53226888094972
31
0
0
LINE
5
190
100
AcDbEntity
8
0
100
AcDbLine
10
1087.7580839857098
20
187.53226888094972
30
0
11
1147.7580839857098
21
187.53226888094972
31
0
0
LINE
5
191
100
AcDbEntity
8
0
100
AcDbLine
10
817.55808398570957
20
187.53226888094972
30
0
11
877.55808398570957
21
187.53226888094972
31
0
0
LINE
5
192
100
AcDbEntity
8
0
100
AcDbLine
10
937.55808398570957
20
187.53226888094972
30
0
11
1027.7580839857098
21
187.53226888094972
31
0
0
LINE
5
193
100
AcDbEntity
8
0
100
AcDbLine
10
817.55808398570957
20
437.53226888094969
30
0
11
847.55808398570957
21
437.53226888094969
31
0
0
LINE
5
194
100
AcDbEntity
8
0
100
AcDbLine
10
847.55808398570957
20
437.53226888094969
30
0
11
847.55808398570957
21
419.53226888094974
31
0
0
LINE
5
195
100
AcDbEntity
8
0
100
AcDbLine
10
847.55808398570957
20
419.53226888094974
30
0
11
877.55808398570957
21
419.53226888094974
31
0
0
LINE
5
196
100
AcDbEntity
8
0
100
AcDbLine
10
877.55808398570957
20
419.53226888094974
30
0
11
877.55808398570957
21
437.53226888094969
31
0
0
LINE
5
197
100
AcDbEntity
8
0
100
AcDbLine
10
1147.7580839857098
20
437.53226888094969
30
0
11
1117.5580839857096
21
437.53226888094969
31
0
0
LINE
5
198
100
AcDbEntity
8
0
100
AcDbLine
10
1147.7580839857098
20
437.53226888094969
30
0
11
1117.7580839857098
21
437.53226888094969
31
0
0
LINE
5
199
100
AcDbEntity
8
0
100
AcDbLine
10
1117.7580839857098
20
437.53226888094969
30
0
11
1117.5580839857096
21
437.53226888094969
31
0
0
LINE
5
200
100
AcDbEntity
8
0
100
AcDbLine
10
1087.7580839857098
20
437.53226888094969
30
0
11
1087.7580839857098
21
419.53226888094974
31
0
0
LINE
5
201
100
AcDbEntity
8
0
100
AcDbLine
10
1087.7580839857098
20
419.53226888094974
30
0
11
1117.5580839857096
21
419.53226888094974
31
0
0
LINE
5
202
100
AcDbEntity
8
0
100
AcDbLine
10
1117.5580839857096
20
419.53226888094974
30
0
11
1117.5580839857096
21
437.53226888094969
31
0
0
LINE
5
203
100
AcDbEntity
8
0
100
AcDbLine
10
847.55808398570957
20
437.53226888094969
30
0
11
817.55808398570957
21
437.53226888094969
31
0
0
LINE
5
204
100
AcDbEntity
8
0
100
AcDbLine
10
1147.7580839857098
20
437.53226888094969
30
0
11
1117.5580839857096
21
437.53226888094969
31
0
0
LINE
5
205
100
AcDbEntity
8
0
100
AcDbLine
10
1087.7580839857098
20
437.53226888094969
30
0
11
877.55808398570957
21
437.53226888094969
31
0
0
LINE
5
206
100
AcDbEntity
8
0
100
AcDbLine
10
1797.8467956166467
20
167.1687894787398
30
0
11
1857.8467956166467
21
167.1687894787398
31
0
0
LINE
5
207
100
AcDbEntity
8
0
100
AcDbLine
10
1797.8467956166467
20
185.1687894787398
30
0
11
1737.8467956166467
21
185.1687894787398
31
0
0
LINE
5
208
100
AcDbEntity
8
0
100
AcDbLine
10
1797.8467956166467
20
185.1687894787398
30
0
11
1797.8467956166467
21
167.1687894787398
31
0
0
LINE
5
209
100
AcDbEntity
8
0
100
AcDbLine
10
1737.8467956166467
20
185.1687894787398
30
0
11
1737.8467956166467
21
167.1687894787398
31
0
0
LINE
5
210
100
AcDbEntity
8
0
100
AcDbLine
10
1647.6467956166462
20
167.1687894787398
30
0
11
1737.8467956166467
21
167.1687894787398
31
0
0
LINE
5
211
100
AcDbEntity
8
0
100
AcDbLine
10
1587.6467956166462
20
185.1687894787398
30
0
11
1647.6467956166462
21
185.1687894787398
31
0
0
LINE
5
212
100
AcDbEntity
8
0
100
AcDbLine
10
1647.6467956166462
20
185.1687894787398
30
0
11
1647.6467956166462
21
167.1687894787398
31
0
0
LINE
5
213
100
AcDbEntity
8
0
100
AcDbLine
10
1587.6467956166462
20
185.1687894787398
30
0
11
1587.6467956166462
21
167.1687894787398
31
0
0
LINE
5
214
100
AcDbEntity
8
0
100
AcDbLine
10
1527.6467956166466
20
167.1687894787398
30
0
11
1587.6467956166462
21
167.1687894787398
31
0
0
LINE
5
215
100
AcDbEntity
8
0
100
AcDbLine
10
1527.6467956166466
20
417.16878947873977
30
0
11
1527.6467956166466
21
167.1687894787398
31
0
0
LINE
5
216
100
AcDbEntity
8
0
100
AcDbLine
10
1857.8467956166467
20
167.1687894787398
30
0
11
1857.8467956166467
21
399.16878947873982
31
0
0
LINE
5
217
100
AcDbEntity
8
0
100
AcDbLine
10
1557.6467956166466
20
417.16878947873977
30
0
11
1527.6467956166466
21
417.16878947873977
31
0
0
LINE
5
218
100
AcDbEntity
8
0
100
AcDbLine
10
1557.6467956166466
20
399.16878947873982
30
0
11
1587.6467956166462
21
399.16878947873982
31
0
0
LINE
5
219
100
AcDbEntity
8
0
100
AcDbLine
10
1557.6467956166466
20
417.16878947873977
30
0
11
1557.6467956166466
21
399.16878947873982
31
0
0
LINE
5
220
100
AcDbEntity
8
0
100
AcDbLine
10
1587.6467956166462
20
399.16878947873982
30
0
11
1587.6467956166462
21
417.16878947873977
31
0
0
LINE
5
221
100
AcDbEntity
8
0
100
AcDbLine
10
1797.8467956166467
20
417.16878947873977
30
0
11
1797.8467956166467
21
399.16878947873982
31
0
0
LINE
5
222
100
AcDbEntity
8
0
100
AcDbLine
10
1797.8467956166467
20
417.16878947873977
30
0
11
1767.8467956166467
21
417.16878947873977
31
0
0
LINE
5
223
100
AcDbEntity
8
0
100
AcDbLine
10
1737.8467956166467
20
417.16878947873977
30
0
11
1707.8467956166467
21
417.16878947873977
31
0
0
LINE
5
224
100
AcDbEntity
8
0
100
AcDbLine
10
1677.8467956166467
20
417.16878947873977
30
0
11
1647.8467956166467
21
417.16878947873977
31
0
0
LINE
5
225
100
AcDbEntity
8
0
100
AcDbLine
10
1587.6467956166462
20
417.16878947873977
30
0
11
1647.8467956166467
21
417.16878947873977
31
0
0
LINE
5
226
100
AcDbEntity
8
0
100
AcDbLine
10
1767.8467956166467
20
399.16878947873982
30
0
11
1767.8467956166467
21
417.16878947873977
31
0
0
LINE
5
227
100
AcDbEntity
8
0
100
AcDbLine
10
1677.8467956166467
20
417.16878947873977
30
0
11
1677.8467956166467
21
399.16878947873982
31
0
0
LINE
5
228
100
AcDbEntity
8
0
100
AcDbLine
10
1707.8467956166467
20
417.16878947873977
30
0
11
1707.8467956166467
21
399.16878947873982
31
0
0
LINE
5
229
100
AcDbEntity
8
0
100
AcDbLine
10
1737.8467956166467
20
417.16878947873977
30
0
11
1737.8467956166467
21
399.16878947873982
31
0
0
LINE
5
230
100
AcDbEntity
8
0
100
AcDbLine
10
1767.8467956166467
20
399.16878947873982
30
0
11
1737.8467956166467
21
399.16878947873982
31
0
0
LINE
5
231
100
AcDbEntity
8
0
100
AcDbLine
10
1707.8467956166467
20
399.16878947873982
30
0
11
1677.8467956166467
21
399.16878947873982
31
0
0
LWPOLYLINE
5
232
100
AcDbEntity
8
0
100
AcDbPolyline
90
4
70
1
43
0.0
10
250.72553093817868
20
119.35533749812581
10
250.84729249921625
20
279.35529116725115
10
210.85338057550524
20
279.35528653416435
10
210.85338057550524
20
119.38568060235022
0
LINE
5
233
100
AcDbEntity
8
0
100
AcDbLine
10
1647.6467956166462
20
185.1687894787398
30
0
11
1647.6467956166462
21
235.1687894787398
31
0
0
LWPOLYLINE
5
234
100
AcDbEntity
8
0
100
AcDbPolyline
90
4
70
1
43
0.0
10
1647.8000666650914
20
349.16881131469376
10
1647.8467956166467
20
399.16878947873982
10
1665.8467956166467
20
399.16878947873982
10
1665.8467956166467
20
349.16881131469376
0
LINE
5
235
100
AcDbEntity
8
0
100
AcDbLine
10
1647.6467956166462
20
235.1687894787398
30
0
11
1665.8467956166467
21
235.1687894787398
31
0
0
LINE
5
236
100
AcDbEntity
8
0
100
AcDbLine
10
1647.7131044464322
20
260.168701541367
30
0
11
1665.8467956166467
21
260.168701541367
31
0
0
LINE
5
237
100
AcDbEntity
8
0
100
AcDbLine
10
1647.7767021893137
20
324.16882223267066
30
0
11
1665.8467956166467
21
324.16882223267066
31
0
0
LINE
5
238
100
AcDbEntity
8
0
100
AcDbLine
10
1647.8467956166467
20
399.16878947873982
30
0
11
1647.8000666650914
21
349.16881131469376
31
0
0
LINE
5
239
100
AcDbEntity
8
0
100
AcDbLine
10
1665.8467956166467
20
324.16882223267066
30
0
11
1665.8467956166467
21
260.168701541367
31
0
0
LINE
5
240
100
AcDbEntity
8
0
100
AcDbLine
10
1665.8467956166467
20
235.1687894787398
30
0
11
1665.8467956166467
21
185.1687894787398
31
0
0
LINE
5
241
100
AcDbEntity
8
0
100
AcDbLine
10
1647.7767021893137
20
324.16882223267066
30
0
11
1647.716888992406
21
260.168701541367
31
0
0
LINE
5
242
100
AcDbEntity
8
0
100
AcDbLine
10
1647.6935245886091
20
235.1687894787398
30
0
11
1647.6467956166462
21
185.1687894787398
31
0
0
LINE
5
243
100
AcDbEntity
8
0
100
AcDbLine
10
1647.6467956166462
20
185.1687894787398
30
0
11
1665.8467956166467
21
185.1687894787398
31
0
0
LWPOLYLINE
5
244
100
AcDbEntity
8
0
100
AcDbPolyline
90
4
70
1
43
0.0
10
175.85300000000001
20
-382
10
157.85300000000001
20
-382
10
157.85300000000001
20
-332
10
175.85300000000001
20
-332
0
LWPOLYLINE
5
245
100
AcDbEntity
8
0
100
AcDbPolyline
90
4
70
1
43
0.0
10
157.85300000000001
20
-243
10
175.85300000000001
20
-243
10
175.85300000000001
20
-307
10
157.85300000000001
20
-307
0
LWPOLYLINE
5
246
100
AcDbEntity
8
0
100
AcDbPolyline
90
4
70
1
43
0.0
10
157.85300000000001
20
-218
10
175.85300000000001
20
-218
10
175.85300000000001
20
-168
10
157.85300000000001
20
-168
0
LINE
5
247
100
AcDbEntity
8
0
100
AcDbLine
10
175.85300000000001
20
-332
30
0
11
175.85300000000001
21
-382
31
0
0
LINE
5
248
100
AcDbEntity
8
0
100
AcDbLine
10
1785.1629638027591
20
-43.24317405454849
30
0
11
1815.1629638027591
21
-43.24317405454849
31
0
0
LINE
5
249
100
AcDbEntity
8
0
100
AcDbLine
10
1785.1629638027591
20
-43.24317405454849
30
0
11
1785.1629638027591
21
-25.243174054548518
31
0
0
LINE
5
250
100
AcDbEntity
8
0
100
AcDbLine
10
1755.1629638027591
20
-25.243174054548518
30
0
11
1785.1629638027591
21
-25.243174054548518
31
0
0
LINE
5
251
100
AcDbEntity
8
0
100
AcDbLine
10
1755.1629638027591
20
-25.243174054548518
30
0
11
1755.1629638027591
21
-43.24317405454849
31
0
0
LINE
5
252
100
AcDbEntity
8
0
100
AcDbLine
10
1725.1629638027591
20
-43.24317405454849
30
0
11
1755.1629638027591
21
-43.24317405454849
31
0
0
LINE
5
253
100
AcDbEntity
8
0
100
AcDbLine
10
1725.1629638027591
20
-43.24317405454849
30
0
11
1725.1629638027591
21
-25.243174054548518
31
0
0
LINE
5
254
100
AcDbEntity
8
0
100
AcDbLine
10
1725.1629638027591
20
-25.243174054548518
30
0
11
1695.3629638027596
21
-25.243174054548518
31
0
0
LINE
5
255
100
AcDbEntity
8
0
100
AcDbLine
10
1695.3629638027596
20
-25.243174054548518
30
0
11
1695.3629638027596
21
-43.24317405454849
31
0
0
LINE
5
256
100
AcDbEntity
8
0
100
AcDbLine
10
1665.1629638027591
20
-43.24317405454849
30
0
11
1695.3629638027596
21
-43.24317405454849
31
0
0
LINE
5
257
100
AcDbEntity
8
0
100
AcDbLine
10
1665.1629638027591
20
-43.24317405454849
30
0
11
1665.1629638027591
21
-215.36017405454842
31
0
0
LINE
5
258
100
AcDbEntity
8
0
100
AcDbLine
10
1695.1629638027591
20
-215.36017405454842
30
0
11
1665.1629638027591
21
-215.36017405454842
31
0
0
LINE
5
259
100
AcDbEntity
8
0
100
AcDbLine
10
1875.1629638027591
20
-215.36017405454842
30
0
11
1844.9629638027588
21
-215.36017405454842
31
0
0
LINE
5
260
100
AcDbEntity
8
0
100
AcDbLine
10
1815.1629638027591
20
-233.36017405454834
30
0
11
1844.9629638027588
21
-233.36017405454834
31
0
0
LINE
5
261
100
AcDbEntity
8
0
100
AcDbLine
10
1755.1629638027591
20
-215.36017405454842
30
0
11
1755.1629638027591
21
-233.36017405454834
31
0
0
LINE
5
262
100
AcDbEntity
8
0
100
AcDbLine
10
1725.1629638027591
20
-215.36017405454842
30
0
11
1725.1629638027591
21
-233.36017405454834
31
0
0
LINE
5
263
100
AcDbEntity
8
0
100
AcDbLine
10
1695.1629638027591
20
-215.36017405454842
30
0
11
1695.1629638027591
21
-233.36017405454834
31
0
0
LINE
5
264
100
AcDbEntity
8
0
100
AcDbLine
10
1785.1629638027591
20
-233.36017405454834
30
0
11
1755.1629638027591
21
-233.36017405454834
31
0
0
LINE
5
265
100
AcDbEntity
8
0
100
AcDbLine
10
1844.9629638027588
20
-233.36017405454834
30
0
11
1844.9629638027588
21
-215.36017405454842
31
0
0
LINE
5
266
100
AcDbEntity
8
0
100
AcDbLine
10
1725.1629638027591
20
-233.36017405454834
30
0
11
1695.1629638027591
21
-233.36017405454834
31
0
0
LINE
5
267
100
AcDbEntity
8
0
100
AcDbLine
10
1815.1629638027591
20
-215.36017405454842
30
0
11
1815.1629638027591
21
-233.36017405454834
31
0
0
LINE
5
268
100
AcDbEntity
8
0
100
AcDbLine
10
1785.1629638027591
20
-233.36017405454834
30
0
11
1785.1629638027591
21
-215.36017405454842
31
0
0
LINE
5
269
100
AcDbEntity
8
0
100
AcDbLine
10
1815.1629638027591
20
-215.36017405454842
30
0
11
1785.1629638027591
21
-215.36017405454842
31
0
0
LINE
5
270
100
AcDbEntity
8
0
100
AcDbLine
10
1755.1629638027591
20
-215.36017405454842
30
0
11
1725.1629638027591
21
-215.36017405454842
31
0
0
LINE
5
271
100
AcDbEntity
8
0
100
AcDbLine
10
1875.1629638027591
20
-43.24317405454849
30
0
11
1875.1629638027591
21
-215.36017405454842
31
0
0
LINE
5
272
100
AcDbEntity
8
0
100
AcDbLine
10
1845.1629638027591
20
-43.24317405454849
30
0
11
1815.1629638027591
21
-43.24317405454849
31
0
0
LINE
5
273
100
AcDbEntity
8
0
100
AcDbLine
10
1845.1629638027591
20
-43.24317405454849
30
0
11
1845.1629638027591
21
-25.24317405454849
31
0
0
LINE
5
274
100
AcDbEntity
8
0
100
AcDbLine
10
1845.1629638027591
20
-25.24317405454849
30
0
11
1875.1629638027591
21
-25.24317405454849
31
0
0
LINE
5
275
100
AcDbEntity
8
0
100
AcDbLine
10
1875.1629638027591
20
-43.24317405454849
30
0
11
1875.1629638027591
21
-25.24317405454849
31
0
0
LINE
5
276
100
AcDbEntity
8
0
100
AcDbLine
10
1797.8467956166467
20
399.16878947873982
30
0
11
1857.8467956166467
21
399.16878947873982
31
0
0
LINE
5
277
100
AcDbEntity
8
0
100
AcDbLine
10
1875.1629638027591
20
-215.36017405454842
30
0
11
1844.9629638027588
21
-215.36017405454842
31
0
0
LINE
5
278
100
AcDbEntity
8
0
100
AcDbLine
10
1755.1629638027591
20
-215.36017405454842
30
0
11
1755.1629638027591
21
-233.36017405454834
31
0
0
LINE
5
279
100
AcDbEntity
8
0
100
AcDbLine
10
1725.1629638027591
20
-233.36017405454834
30
0
11
1695.1629638027591
21
-233.36017405454834
31
0
0
LINE
5
280
100
AcDbEntity
8
0
100
AcDbLine
10
1695.1629638027591
20
-215.36017405454842
30
0
11
1695.1629638027591
21
-233.36017405454834
31
0
0
LINE
5
281
100
AcDbEntity
8
0
100
AcDbLine
10
1815.1629638027591
20
-215.36017405454842
30
0
11
1785.1629638027591
21
-215.36017405454842
31
0
0
LINE
5
282
100
AcDbEntity
8
0
100
AcDbLine
10
1695.1629638027591
20
-215.36017405454842
30
0
11
1665.1629638027591
21
-215.36017405454842
31
0
0
LINE
5
283
100
AcDbEntity
8
0
100
AcDbLine
10
1844.9629638027588
20
-233.36017405454834
30
0
11
1844.9629638027588
21
-215.36017405454842
31
0
0
LINE
5
284
100
AcDbEntity
8
0
100
AcDbLine
10
1725.1629638027591
20
-215.36017405454842
30
0
11
1725.1629638027591
21
-233.36017405454834
31
0
0
LINE
5
285
100
AcDbEntity
8
0
100
AcDbLine
10
1755.1629638027591
20
-215.36017405454842
30
0
11
1725.1629638027591
21
-215.36017405454842
31
0
0
LINE
5
286
100
AcDbEntity
8
0
100
AcDbLine
10
1815.1629638027591
20
-215.36017405454842
30
0
11
1815.1629638027591
21
-233.36017405454834
31
0
0
LINE
5
287
100
AcDbEntity
8
0
100
AcDbLine
10
1785.1629638027591
20
-233.36017405454834
30
0
11
1785.1629638027591
21
-215.36017405454842
31
0
0
LINE
5
288
100
AcDbEntity
8
0
100
AcDbLine
10
1785.1629638027591
20
-233.36017405454834
30
0
11
1755.1629638027591
21
-233.36017405454834
31
0
0
LINE
5
289
100
AcDbEntity
8
0
100
AcDbLine
10
1815.1629638027591
20
-233.36017405454834
30
0
11
1844.9629638027588
21
-233.36017405454834
31
0
0
LINE
5
290
100
AcDbEntity
8
0
100
AcDbLine
10
1755.1629638027591
20
-25.243174054548518
30
0
11
1755.1629638027591
21
-43.24317405454849
31
0
0
LINE
5
291
100
AcDbEntity
8
0
100
AcDbLine
10
1755.1629638027591
20
-25.243174054548518
30
0
11
1785.1629638027591
21
-25.243174054548518
31
0
0
LINE
5
292
100
AcDbEntity
8
0
100
AcDbLine
10
1785.1629638027591
20
-43.24317405454849
30
0
11
1785.1629638027591
21
-25.243174054548518
31
0
0
LINE
5
293
100
AcDbEntity
8
0
100
AcDbLine
10
1875.1629638027591
20
-43.24317405454849
30
0
11
1875.1629638027591
21
-215.36017405454842
31
0
0
LINE
5
294
100
AcDbEntity
8
0
100
AcDbLine
10
1785.1629638027591
20
-43.24317405454849
30
0
11
1815.1629638027591
21
-43.24317405454849
31
0
0
LINE
5
295
100
AcDbEntity
8
0
100
AcDbLine
10
1845.1629638027591
20
-43.24317405454849
30
0
11
1815.1629638027591
21
-43.24317405454849
31
0
0
LINE
5
296
100
AcDbEntity
8
0
100
AcDbLine
10
1845.1629638027591
20
-25.24317405454849
30
0
11
1875.1629638027591
21
-25.24317405454849
31
0
0
LINE
5
297
100
AcDbEntity
8
0
100
AcDbLine
10
1665.1629638027591
20
-43.24317405454849
30
0
11
1695.3629638027596
21
-43.24317405454849
31
0
0
LINE
5
298
100
AcDbEntity
8
0
100
AcDbLine
10
1695.3629638027596
20
-25.243174054548518
30
0
11
1695.3629638027596
21
-43.24317405454849
31
0
0
LINE
5
299
100
AcDbEntity
8
0
100
AcDbLine
10
1725.1629638027591
20
-25.243174054548518
30
0
11
1695.3629638027596
21
-25.243174054548518
31
0
0
LINE
5
300
100
AcDbEntity
8
0
100
AcDbLine
10
1845.1629638027591
20
-43.24317405454849
30
0
11
1845.1629638027591
21
-25.24317405454849
31
0
0
LINE
5
301
100
AcDbEntity
8
0
100
AcDbLine
10
1665.1629638027591
20
-43.24317405454849
30
0
11
1665.1629638027591
21
-215.36017405454842
31
0
0
LINE
5
302
100
AcDbEntity
8
0
100
AcDbLine
10
1725.1629638027591
20
-43.24317405454849
30
0
11
1725.1629638027591
21
-25.243174054548518
31
0
0
LINE
5
303
100
AcDbEntity
8
0
100
AcDbLine
10
1725.1629638027591
20
-43.24317405454849
30
0
11
1755.1629638027591
21
-43.24317405454849
31
0
0
LINE
5
304
100
AcDbEntity
8
0
100
AcDbLine
10
1875.1629638027591
20
-43.24317405454849
30
0
11
1875.1629638027591
21
-25.24317405454849
31
0
0
LINE
5
305
100
AcDbEntity
8
0
100
AcDbLine
10
2075.1629638027594
20
-233.36017405454834
30
0
11
2045.1629638027591
21
-233.36017405454834
31
0
0
LINE
5
306
100
AcDbEntity
8
0
100
AcDbLine
10
2045.1629638027591
20
-215.36017405454842
30
0
11
2045.1629638027591
21
-233.36017405454834
31
0
0
LINE
5
307
100
AcDbEntity
8
0
100
AcDbLine
10
2045.1629638027591
20
-215.36017405454842
30
0
11
2015.1629638027591
21
-215.36017405454842
31
0
0
LINE
5
308
100
AcDbEntity
8
0
100
AcDbLine
10
2075.1629638027594
20
-215.36017405454842
30
0
11
2075.1629638027594
21
-233.36017405454834
31
0
0
LINE
5
309
100
AcDbEntity
8
0
100
AcDbLine
10
2105.1629638027594
20
-215.36017405454842
30
0
11
2075.1629638027594
21
-215.36017405454842
31
0
0
LINE
5
310
100
AcDbEntity
8
0
100
AcDbLine
10
2015.1629638027591
20
-43.24317405454849
30
0
11
2045.3629638027596
21
-43.24317405454849
31
0
0
LINE
5
311
100
AcDbEntity
8
0
100
AcDbLine
10
2045.3629638027596
20
-25.243174054548518
30
0
11
2045.3629638027596
21
-43.24317405454849
31
0
0
LINE
5
312
100
AcDbEntity
8
0
100
AcDbLine
10
2075.1629638027594
20
-25.243174054548518
30
0
11
2045.3629638027596
21
-25.243174054548518
31
0
0
LINE
5
313
100
AcDbEntity
8
0
100
AcDbLine
10
2015.1629638027591
20
-43.24317405454849
30
0
11
2015.1629638027591
21
-215.36017405454842
31
0
0
LINE
5
314
100
AcDbEntity
8
0
100
AcDbLine
10
2075.1629638027594
20
-43.24317405454849
30
0
11
2075.1629638027594
21
-25.243174054548518
31
0
0
LINE
5
315
100
AcDbEntity
8
0
100
AcDbLine
10
2075.1629638027594
20
-43.24317405454849
30
0
11
2105.1629638027594
21
-43.24317405454849
31
0
0
LINE
5
316
100
AcDbEntity
8
0
100
AcDbLine
10
2105.1629638027594
20
-43.24317405454849
30
0
11
2105.1629638027594
21
-215.36017405454842
31
0
0
LWPOLYLINE
5
317
100
AcDbEntity
8
0
100
AcDbPolyline
90
24
70
1
43
0.0
10
2290.1170000000002
20
185.99999999999994
10
2118
20
185.99999999999994
10
2100
20
185.99999999999997
10
2100
20
235.99999999999994
10
2118
20
235.99999999999994
10
2118
20
260.99999999999994
10
2100
20
260.99999999999994
10
2100
20
325
10
2118
20
325
10
2118
20
350
10
2100
20
350
10
2100
20
400
10
2118
20
400
10
2290.1170000000002
20
400
10
2308.1170000000002
20
400
10
2308.1170000000002
20
350
10
2290.1170000000002
20
350
10
2290.1170000000002
20
325
10
2308.1170000000002
20
325
10
2308.1170000000002
20
260.99999999999994
10
2290.1170000000002
20
260.99999999999994
10
2290.1170000000002
20
235.99999999999994
10
2308.1170000000002
20
235.99999999999994
10
2308.1170000000002
20
185.99999999999994
0
LINE
5
318
100
AcDbEntity
8
0
100
AcDbLine
10
2118
20
260.99999999999994
30
0
11
2118
21
235.99999999999994
31
0
0
LWPOLYLINE
5
319
100
AcDbEntity
8
0
100
AcDbPolyline
90
6
70
1
43
0.0
10
2155
20
375
10
2150
20
375
10
2150
20
211
10
2160
20
211
10
2160
20
222.00000000000003
10
2160
20
370
42
0.4142135623730992
0
LWPOLYLINE
5
320
100
AcDbEntity
8
0
100
AcDbPolyline
90
4
70
1
43
0.0
10
2185
20
375
10
2175
20
375
10
2175
20
211
10
2185
20
211
0
LWPOLYLINE
5
321
100
AcDbEntity
8
0
100
AcDbPolyline
90
4
70
1
43
0.0
10
2210
20
375
10
2200
20
375
10
2199.9999999999995
20
211
10
2210
20
211
0
LWPOLYLINE
5
322
100
AcDbEntity
8
0
100
AcDbPolyline
90
4
70
1
43
0.0
10
2235
20
375
10
2225
20
375
10
2225
20
211
10
2234.9999999999995
20
211
0
LWPOLYLINE
5
323
100
AcDbEntity
8
0
100
AcDbPolyline
90
5
70
1
43
0.0
10
2260
20
375
10
2250
20
375
10
2250
20
211.00000000000006
10
2260
20
211
10
2260
20
221
0
LINE
5
324
100
AcDbEntity
8
0
100
AcDbLine
10
24.853380575505337
20
235.85528653416432
30
0
11
20.853380575505337
21
235.85528653416432
31
0
0
LWPOLYLINE
5
325
100
AcDbEntity
8
0
100
AcDbPolyline
90
8
70
1
43
0.0
10
40.653145939874008
20
392.63272516876776
10
24.653145939874001
20
392.63272516876788
10
24.221681728767042
20
275.63352073286359
10
20.221708927539545
20
275.64827164606379
10
20.100013893637517
20
242.64849603593694
10
24.099986694865017
20
242.63374512273668
10
23.782842061058975
20
156.63432989634546
10
40.653145939873966
20
156.63272516876788
0
LINE
5
326
100
AcDbEntity
8
0
100
AcDbLine
10
469.92144553056363
20
89.822956213921998
30
0
11
469.92144553056363
21
137.822956213922
31
0
0
ENDSEC
0
SECTION
2
OBJECTS
0
DICTIONARY
5
C
100
AcDbDictionary
3
ACAD_GROUP
350
D
3
ACAD_MLINESTYLE
350
17
0
DICTIONARY
5
D
100
AcDbDictionary
0
DICTIONARY
5
1A
330
C
100
AcDbDictionary
0
DICTIONARY
5
17
100
AcDbDictionary
0
ENDSEC
0
EOF
