  0
SECTION
  2
HEADER
  9
$ACADVER
  1
AC1009
  9
$DWGCODEPAGE
  3
ansi_1252
  9
$INSBASE
 10
0.0
 20
0.0
 30
0.0
  9
$EXTMIN
 10
0.0
 20
0.0
 30
0.0
  9
$EXTMAX
 10
2500.0
 20
1250.0
 30
0.0
  9
$LIMMIN
 10
0.0
 20
0.0
  9
$LIMMAX
 10
12.0
 20
9.0
  9
$ORTHOMODE
 70
     0
  9
$REGENMODE
 70
     1
  9
$FILLMODE
 70
     1
  9
$QTEXTMODE
 70
     0
  9
$MIRRTEXT
 70
     1
  9
$DRAGMODE
 70
     2
  9
$LTSCALE
 40
1.0
  9
$OSMODE
 70
    37
  9
$ATTMODE
 70
     1
  9
$TEXTSIZE
 40
0.2
  9
$TRACEWID
 40
0.05
  9
$TEXTSTYLE
  7
STANDARD
  9
$CLAYER
  8
0
  9
$CELTYPE
  6
BYLAYER
  9
$CECOLOR
 62
   256
  9
$DIMSCALE
 40
1.0
  9
$DIMASZ
 40
0.18
  9
$DIMEXO
 40
0.0625
  9
$DIMDLI
 40
0.38
  9
$DIMRND
 40
0.0
  9
$DIMDLE
 40
0.0
  9
$DIMEXE
 40
0.18
  9
$DIMTP
 40
0.0
  9
$DIMTM
 40
0.0
  9
$DIMTXT
 40
0.18
  9
$DIMCEN
 40
0.09
  9
$DIMTSZ
 40
0.0
  9
$DIMTOL
 70
     0
  9
$DIMLIM
 70
     0
  9
$DIMTIH
 70
     1
  9
$DIMTOH
 70
     1
  9
$DIMSE1
 70
     0
  9
$DIMSE2
 70
     0
  9
$DIMTAD
 70
     0
  9
$DIMZIN
 70
     0
  9
$DIMBLK
  1

  9
$DIMASO
 70
     1
  9
$DIMSHO
 70
     1
  9
$DIMPOST
  1

  9
$DIMAPOST
  1

  9
$DIMALT
 70
     0
  9
$DIMALTD
 70
     2
  9
$DIMALTF
 40
25.4
  9
$DIMLFAC
 40
1.0
  9
$DIMTOFL
 70
     0
  9
$DIMTVP
 40
0.0
  9
$DIMTIX
 70
     0
  9
$DIMSOXD
 70
     0
  9
$DIMSAH
 70
     0
  9
$DIMBLK1
  1

  9
$DIMBLK2
  1

  9
$DIMSTYLE
  2
STANDARD
  9
$DIMCLRD
 70
     0
  9
$DIMCLRE
 70
     0
  9
$DIMCLRT
 70
     0
  9
$DIMTFAC
 40
1.0
  9
$DIMGAP
 40
0.09
  9
$LUNITS
 70
     2
  9
$LUPREC
 70
     3
  9
$SKETCHINC
 40
0.1
  9
$FILLETRAD
 40
0.5
  9
$AUNITS
 70
     0
  9
$AUPREC
 70
     0
  9
$MENU
  1
.
  9
$ELEVATION
 40
0.0
  9
$PELEVATION
 40
0.0
  9
$THICKNESS
 40
0.0
  9
$LIMCHECK
 70
     0
  9
$CHAMFERA
 40
0.0
  9
$CHAMFERB
 40
0.0
  9
$SKPOLY
 70
     0
  9
$TDCREATE
 40
2458245.581971146
  9
$TDUPDATE
 40
2458245.581986678
  9
$TDINDWG
 40
0.0000000116
  9
$TDUSRTIMER
 40
0.0000000116
  9
$USRTIMER
 70
     1
  9
$ANGBASE
 50
0.0
  9
$ANGDIR
 70
     0
  9
$PDMODE
 70
     0
  9
$PDSIZE
 40
0.0
  9
$PLINEWID
 40
0.0
  9
$COORDS
 70
     1
  9
$SPLFRAME
 70
     0
  9
$SPLINETYPE
 70
     6
  9
$SPLINESEGS
 70
     8
  9
$ATTDIA
 70
     0
  9
$ATTREQ
 70
     1
  9
$HANDLING
 70
     1
  9
$HANDSEED
  5
158
  9
$SURFTAB1
 70
     6
  9
$SURFTAB2
 70
     6
  9
$SURFTYPE
 70
     6
  9
$SURFU
 70
     6
  9
$SURFV
 70
     6
  9
$UCSNAME
  2

  9
$UCSORG
 10
0.0
 20
0.0
 30
0.0
  9
$UCSXDIR
 10
1.0
 20
0.0
 30
0.0
  9
$UCSYDIR
 10
0.0
 20
1.0
 30
0.0
  9
$PUCSNAME
  2

  9
$PUCSORG
 10
0.0
 20
0.0
 30
0.0
  9
$PUCSXDIR
 10
1.0
 20
0.0
 30
0.0
  9
$PUCSYDIR
 10
0.0
 20
1.0
 30
0.0
  9
$USERI1
 70
     0
  9
$USERI2
 70
     0
  9
$USERI3
 70
     0
  9
$USERI4
 70
     0
  9
$USERI5
 70
     0
  9
$USERR1
 40
0.0
  9
$USERR2
 40
0.0
  9
$USERR3
 40
0.0
  9
$USERR4
 40
0.0
  9
$USERR5
 40
0.0
  9
$WORLDVIEW
 70
     1
  9
$SHADEDGE
 70
     3
  9
$SHADEDIF
 70
    70
  9
$TILEMODE
 70
     1
  9
$MAXACTVP
 70
    64
  9
$PLIMCHECK
 70
     0
  9
$PEXTMIN
 10
1.000000000000000E+20
 20
1.000000000000000E+20
 30
1.000000000000000E+20
  9
$PEXTMAX
 10
-1.000000000000000E+20
 20
-1.000000000000000E+20
 30
-1.000000000000000E+20
  9
$PLIMMIN
 10
0.0
 20
0.0
  9
$PLIMMAX
 10
12.0
 20
9.0
  9
$UNITMODE
 70
     0
  9
$VISRETAIN
 70
     1
  9
$PLINEGEN
 70
     0
  9
$PSLTSCALE
 70
     1
  0
ENDSEC
  0
SECTION
  2
TABLES
  0
TABLE
  2
VPORT
 70
     1
  0
VPORT
  2
*ACTIVE
 70
     0
 10
0.0
 20
0.0
 11
1.0
 21
1.0
 12
1250.0
 22
625.0
 13
0.0
 23
0.0
 14
0.5
 24
0.5
 15
0.5
 25
0.5
 16
0.0
 26
0.0
 36
1.0
 17
0.0
 27
0.0
 37
0.0
 40
1275.0
 41
2.0
 42
50.0
 43
0.0
 44
0.0
 50
0.0
 51
0.0
 71
     0
 72
   100
 73
     1
 74
     3
 75
     0
 76
     0
 77
     0
 78
     0
  0
ENDTAB
  0
TABLE
  2
LTYPE
 70
     1
  0
LTYPE
  2
CONTINUOUS
 70
     0
  3
Solid line
 72
    65
 73
     0
 40
0.0
  0
ENDTAB
  0
TABLE
  2
LAYER
 70
     6
  0
LAYER
  2
0
 70
     0
 62
     7
  6
CONTINUOUS
  0
LAYER
  2
LAYER_04
 70
     0
 62
     3
  6
CONTINUOUS
  0
LAYER
  2
LAYER_01
 70
     0
 62
     5
  6
CONTINUOUS
  0
LAYER
  2
LAYER_05
 70
     0
 62
     4
  6
CONTINUOUS
  0
LAYER
  2
LAYER_03
 70
     0
 62
     2
  6
CONTINUOUS
  0
LAYER
  2
LAYER_02
 70
     0
 62
     1
  6
CONTINUOUS
  0
ENDTAB
  0
TABLE
  2
STYLE
 70
     1
  0
STYLE
  2
STANDARD
 70
     0
 40
0.0
 41
1.0
 50
0.0
 71
     0
 42
0.2
  3
txt
  4

  0
ENDTAB
  0
TABLE
  2
VIEW
 70
     0
  0
ENDTAB
  0
TABLE
  2
UCS
 70
     0
  0
ENDTAB
  0
TABLE
  2
APPID
 70
     1
  0
APPID
  2
ACAD
 70
     0
  0
ENDTAB
  0
TABLE
  2
DIMSTYLE
 70
     1
  0
DIMSTYLE
  2
STANDARD
 70
     0
  3

  4

  5

  6

  7

 40
1.0
 41
0.18
 42
0.0625
 43
0.38
 44
0.18
 45
0.0
 46
0.0
 47
0.0
 48
0.0
140
0.18
141
0.09
142
0.0
143
25.4
144
1.0
145
0.0
146
1.0
147
0.09
 71
     0
 72
     0
 73
     1
 74
     1
 75
     0
 76
     0
 77
     0
 78
     0
170
     0
171
     2
172
     0
173
     0
174
     0
175
     0
176
     0
177
     0
178
     0
  0
ENDTAB
  0
ENDSEC
  0
SECTION
  2
BLOCKS
  0
BLOCK
  8
0
  2
$MODEL_SPACE
 70
     0
 10
0.0
 20
0.0
 30
0.0
  3
$MODEL_SPACE
  1

  0
ENDBLK
  5
21
  8
0
  0
BLOCK
 67
     1
  8
0
  2
$PAPER_SPACE
 70
     0
 10
0.0
 20
0.0
 30
0.0
  3
$PAPER_SPACE
  1

  0
ENDBLK
  5
1D
 67
     1
  8
0
  0
ENDSEC
  0
SECTION
  2
ENTITIES
  0
LINE
  5
6F
  8
LAYER_04
 10
325.5
 20
45.49998462200165
 30
0.0
 11
298.6
 21
45.49998462200156
 31
0.0
  0
ARC
  5
70
  8
LAYER_04
 10
295.5
 20
45.49998462200165
 30
0.0
 40
3.099999999999994
 50
359.9999999999985
 51
269.9999999999979
  0
LINE
  5
71
  8
LAYER_04
 10
295.4999999999999
 20
42.39998462200165
 30
0.0
 11
295.5
 21
27.5
 31
0.0
  0
LINE
  5
72
  8
LAYER_04
 10
295.5
 20
27.5
 30
0.0
 11
265.5
 21
27.5
 31
0.0
  0
LINE
  5
73
  8
LAYER_04
 10
265.5
 20
27.5
 30
0.0
 11
265.4999999999999
 21
42.3999846220017
 31
0.0
  0
ARC
  5
74
  8
LAYER_04
 10
265.4999999999999
 20
45.49998462200165
 30
0.0
 40
3.099999999999952
 50
270.000000000001
 51
180.0000000000008
  0
LINE
  5
75
  8
LAYER_04
 10
262.3999999999999
 20
45.49998462200161
 30
0.0
 11
238.6
 21
45.49998462200158
 31
0.0
  0
ARC
  5
76
  8
LAYER_04
 10
235.5
 20
45.49998462200165
 30
0.0
 40
3.09999999999998
 50
359.9999999999987
 51
269.9999999999985
  0
LINE
  5
77
  8
LAYER_04
 10
235.4999999999999
 20
42.39998462200167
 30
0.0
 11
235.5
 21
27.5
 31
0.0
  0
LINE
  5
78
  8
LAYER_04
 10
235.5
 20
27.5
 30
0.0
 11
205.5
 21
27.5
 31
0.0
  0
LINE
  5
79
  8
LAYER_04
 10
205.5
 20
27.5
 30
0.0
 11
205.4999999999999
 21
42.39998462200171
 31
0.0
  0
ARC
  5
7A
  8
LAYER_04
 10
205.4999999999999
 20
45.49998462200165
 30
0.0
 40
3.099999999999937
 50
270.0000000000005
 51
180.0000000000005
  0
LINE
  5
7B
  8
LAYER_04
 10
202.3999999999999
 20
45.49998462200162
 30
0.0
 11
178.5999999999999
 21
45.49998462200162
 31
0.0
  0
ARC
  5
7C
  8
LAYER_04
 10
175.5
 20
45.49998462200165
 30
0.0
 40
3.099999999999937
 50
359.9999999999995
 51
269.9999999999995
  0
LINE
  5
7D
  8
LAYER_04
 10
175.5
 20
42.39998462200171
 30
0.0
 11
175.5
 21
27.5
 31
0.0
  0
LINE
  5
7E
  8
LAYER_04
 10
175.5
 20
27.5
 30
0.0
 11
145.5
 21
27.5
 31
0.0
  0
LINE
  5
7F
  8
LAYER_04
 10
145.5
 20
27.5
 30
0.0
 11
145.4999999999999
 21
42.3999846220017
 31
0.0
  0
ARC
  5
80
  8
LAYER_04
 10
145.4999999999999
 20
45.49998462200165
 30
0.0
 40
3.099999999999952
 50
270.000000000001
 51
180.0000000000008
  0
LINE
  5
81
  8
LAYER_04
 10
142.3999999999999
 20
45.49998462200161
 30
0.0
 11
88.59999999999997
 21
45.49998462200159
 31
0.0
  0
ARC
  5
82
  8
LAYER_04
 10
85.5
 20
45.49998462200165
 30
0.0
 40
3.099999999999969
 50
359.9999999999989
 51
269.9999999999989
  0
LINE
  5
83
  8
LAYER_04
 10
85.49999999999994
 20
42.39998462200168
 30
0.0
 11
85.5
 21
27.5
 31
0.0
  0
LINE
  5
84
  8
LAYER_04
 10
85.5
 20
27.5
 30
0.0
 11
25.49999999999989
 21
27.5
 31
0.0
  0
LINE
  5
85
  8
LAYER_04
 10
25.49999999999989
 20
27.5
 30
0.0
 11
25.5
 21
77.5
 31
0.0
  0
LINE
  5
86
  8
LAYER_04
 10
25.5
 20
77.5
 30
0.0
 11
225.5
 21
127.5
 31
0.0
  0
LINE
  5
87
  8
LAYER_04
 10
225.5
 20
127.5
 30
0.0
 11
225.5
 21
327.5
 31
0.0
  0
LINE
  5
88
  8
LAYER_04
 10
225.5
 20
327.5
 30
0.0
 11
25.5
 21
377.5
 31
0.0
  0
LINE
  5
89
  8
LAYER_04
 10
25.5
 20
377.5
 30
0.0
 11
25.5
 21
427.5
 31
0.0
  0
LINE
  5
8A
  8
LAYER_04
 10
25.5
 20
427.5
 30
0.0
 11
85.5
 21
427.5
 31
0.0
  0
LINE
  5
8B
  8
LAYER_04
 10
85.5
 20
427.5
 30
0.0
 11
85.5
 21
412.5999900460243
 31
0.0
  0
ARC
  5
8C
  8
LAYER_04
 10
85.5
 20
409.4999900460243
 30
0.0
 40
3.100000000000016
 50
90.0
 51
0.0
  0
LINE
  5
8D
  8
LAYER_04
 10
88.60000000000002
 20
409.4999900460243
 30
0.0
 11
142.4
 21
409.4999900460243
 31
0.0
  0
ARC
  5
8E
  8
LAYER_04
 10
145.5
 20
409.4999900460243
 30
0.0
 40
3.100000000000009
 50
180.0
 51
90.00000000000054
  0
LINE
  5
8F
  8
LAYER_04
 10
145.5
 20
412.5999900460243
 30
0.0
 11
145.5
 21
427.5
 31
0.0
  0
LINE
  5
90
  8
LAYER_04
 10
145.5
 20
427.5
 30
0.0
 11
175.5
 21
427.5
 31
0.0
  0
LINE
  5
91
  8
LAYER_04
 10
175.5
 20
427.5
 30
0.0
 11
175.5
 21
412.5999900460243
 31
0.0
  0
ARC
  5
92
  8
LAYER_04
 10
175.5
 20
409.4999900460243
 30
0.0
 40
3.099999999999994
 50
89.99999999999947
 51
359.9999999999989
  0
LINE
  5
93
  8
LAYER_04
 10
178.6
 20
409.4999900460243
 30
0.0
 11
202.4
 21
409.4999900460243
 31
0.0
  0
ARC
  5
94
  8
LAYER_04
 10
205.5
 20
409.4999900460243
 30
0.0
 40
3.099999999999994
 50
180.0000000000011
 51
90.00000000000054
  0
LINE
  5
95
  8
LAYER_04
 10
205.5
 20
412.5999900460243
 30
0.0
 11
205.5
 21
427.5
 31
0.0
  0
LINE
  5
96
  8
LAYER_04
 10
205.5
 20
427.5
 30
0.0
 11
235.5
 21
427.5
 31
0.0
  0
LINE
  5
97
  8
LAYER_04
 10
235.5
 20
427.5
 30
0.0
 11
235.5
 21
412.5999900460243
 31
0.0
  0
ARC
  5
98
  8
LAYER_04
 10
235.5
 20
409.4999900460243
 30
0.0
 40
3.100000000000009
 50
90.0
 51
0.0
  0
LINE
  5
99
  8
LAYER_04
 10
238.6
 20
409.4999900460243
 30
0.0
 11
262.4
 21
409.4999900460243
 31
0.0
  0
ARC
  5
9A
  8
LAYER_04
 10
265.5
 20
409.4999900460243
 30
0.0
 40
3.100000000000023
 50
180.0
 51
90.0
  0
LINE
  5
9B
  8
LAYER_04
 10
265.5
 20
412.5999900460243
 30
0.0
 11
265.5
 21
427.5
 31
0.0
  0
LINE
  5
9C
  8
LAYER_04
 10
265.5
 20
427.5
 30
0.0
 11
295.5
 21
427.5
 31
0.0
  0
LINE
  5
9D
  8
LAYER_04
 10
295.5
 20
427.5
 30
0.0
 11
295.5
 21
412.5999900460243
 31
0.0
  0
ARC
  5
9E
  8
LAYER_04
 10
295.5
 20
409.4999900460243
 30
0.0
 40
3.099999999999994
 50
90.0
 51
0.0
  0
LINE
  5
9F
  8
LAYER_04
 10
298.6
 20
409.4999900460243
 30
0.0
 11
325.5
 21
409.4999900460243
 31
0.0
  0
LINE
  5
A0
  8
LAYER_04
 10
325.5
 20
409.4999900460243
 30
0.0
 11
325.5
 21
45.49998462200165
 31
0.0
  0
LINE
  5
A1
  8
0
 10
0.0
 20
1250.0
 30
0.0
 11
0.0
 21
0.0
 31
0.0
  0
LINE
  5
A2
  8
0
 10
0.0
 20
0.0
 30
0.0
 11
2500.0
 21
0.0
 31
0.0
  0
LINE
  5
A3
  8
0
 10
2500.0
 20
0.0
 30
0.0
 11
2500.0
 21
1250.0
 31
0.0
  0
LINE
  5
A4
  8
0
 10
2500.0
 20
1250.0
 30
0.0
 11
0.0
 21
1250.0
 31
0.0
  0
LINE
  5
A5
  8
LAYER_04
 10
616.5
 20
477.5
 30
0.0
 11
616.5
 21
492.3999913275242
 31
0.0
  0
ARC
  5
A6
  8
LAYER_04
 10
616.5
 20
495.4999913275242
 30
0.0
 40
3.100000000000023
 50
270.0
 51
180.0
  0
LINE
  5
A7
  8
LAYER_04
 10
613.4
 20
495.4999913275242
 30
0.0
 11
589.6
 21
495.4999913275242
 31
0.0
  0
ARC
  5
A8
  8
LAYER_04
 10
586.5
 20
495.4999913275242
 30
0.0
 40
3.100000000000009
 50
0.0
 51
270.0
  0
LINE
  5
A9
  8
LAYER_04
 10
586.5
 20
492.3999913275242
 30
0.0
 11
586.5
 21
477.5
 31
0.0
  0
LINE
  5
AA
  8
LAYER_04
 10
586.5
 20
477.5
 30
0.0
 11
556.5
 21
477.5
 31
0.0
  0
LINE
  5
AB
  8
LAYER_04
 10
556.5
 20
477.5
 30
0.0
 11
556.5
 21
492.3999913275242
 31
0.0
  0
ARC
  5
AC
  8
LAYER_04
 10
556.5
 20
495.4999913275242
 30
0.0
 40
3.099999999999952
 50
270.0
 51
180.0000000000011
  0
LINE
  5
AD
  8
LAYER_04
 10
553.4
 20
495.4999913275242
 30
0.0
 11
529.6
 21
495.4999913275242
 31
0.0
  0
ARC
  5
AE
  8
LAYER_04
 10
526.5
 20
495.4999913275242
 30
0.0
 40
3.100000000000009
 50
0.0
 51
270.0
  0
LINE
  5
AF
  8
LAYER_04
 10
526.5
 20
492.3999913275242
 30
0.0
 11
526.5
 21
477.5
 31
0.0
  0
LINE
  5
B0
  8
LAYER_04
 10
526.5
 20
477.5
 30
0.0
 11
496.5
 21
477.5
 31
0.0
  0
LINE
  5
B1
  8
LAYER_04
 10
496.5
 20
477.5
 30
0.0
 11
496.5
 21
492.3999913275242
 31
0.0
  0
ARC
  5
B2
  8
LAYER_04
 10
496.5
 20
495.4999913275242
 30
0.0
 40
3.100000000000009
 50
270.0
 51
180.0
  0
LINE
  5
B3
  8
LAYER_04
 10
493.4
 20
495.4999913275242
 30
0.0
 11
469.6
 21
495.4999913275241
 31
0.0
  0
ARC
  5
B4
  8
LAYER_04
 10
466.5
 20
495.4999913275242
 30
0.0
 40
3.099999999999952
 50
359.9999999999989
 51
269.9999999999989
  0
LINE
  5
B5
  8
LAYER_04
 10
466.4999999999999
 20
492.3999913275242
 30
0.0
 11
466.5
 21
477.5
 31
0.0
  0
LINE
  5
B6
  8
LAYER_04
 10
466.5
 20
477.5
 30
0.0
 11
406.5
 21
477.5
 31
0.0
  0
LINE
  5
B7
  8
LAYER_04
 10
406.5
 20
477.5
 30
0.0
 11
406.5
 21
492.3999913275242
 31
0.0
  0
ARC
  5
B8
  8
LAYER_04
 10
406.5
 20
495.4999913275242
 30
0.0
 40
3.100000000000016
 50
270.0
 51
180.0
  0
LINE
  5
B9
  8
LAYER_04
 10
403.4
 20
495.4999913275242
 30
0.0
 11
346.5
 21
495.4999913275242
 31
0.0
  0
LINE
  5
BA
  8
LAYER_04
 10
346.5
 20
495.4999913275242
 30
0.0
 11
346.5
 21
527.5
 31
0.0
  0
LINE
  5
BB
  8
LAYER_04
 10
346.5
 20
527.5
 30
0.0
 11
546.5
 21
577.5
 31
0.0
  0
LINE
  5
BC
  8
LAYER_04
 10
546.5
 20
577.5
 30
0.0
 11
546.5
 21
977.5
 31
0.0
  0
LINE
  5
BD
  8
LAYER_04
 10
546.5
 20
977.5
 30
0.0
 11
346.5
 21
1027.5
 31
0.0
  0
LINE
  5
BE
  8
LAYER_04
 10
346.5
 20
1027.5
 30
0.0
 11
346.5
 21
1059.499999731779
 31
0.0
  0
LINE
  5
BF
  8
LAYER_04
 10
346.5
 20
1059.499999731779
 30
0.0
 11
403.4
 21
1059.499999731779
 31
0.0
  0
ARC
  5
C0
  8
LAYER_04
 10
406.5
 20
1059.499999731779
 30
0.0
 40
3.100000000000005
 50
180.0
 51
90.0
  0
LINE
  5
C1
  8
LAYER_04
 10
406.5
 20
1062.599999731779
 30
0.0
 11
406.5
 21
1077.5
 31
0.0
  0
LINE
  5
C2
  8
LAYER_04
 10
406.5
 20
1077.5
 30
0.0
 11
466.5
 21
1077.5
 31
0.0
  0
LINE
  5
C3
  8
LAYER_04
 10
466.5
 20
1077.5
 30
0.0
 11
466.5
 21
1062.599999731779
 31
0.0
  0
ARC
  5
C4
  8
LAYER_04
 10
466.5
 20
1059.499999731779
 30
0.0
 40
3.100000000000005
 50
90.0
 51
0.0
  0
LINE
  5
C5
  8
LAYER_04
 10
469.6
 20
1059.499999731779
 30
0.0
 11
493.4
 21
1059.499999731779
 31
0.0
  0
ARC
  5
C6
  8
LAYER_04
 10
496.5
 20
1059.499999731779
 30
0.0
 40
3.099999999999998
 50
180.0
 51
90.0
  0
LINE
  5
C7
  8
LAYER_04
 10
496.5
 20
1062.599999731779
 30
0.0
 11
496.5
 21
1077.5
 31
0.0
  0
LINE
  5
C8
  8
LAYER_04
 10
496.5
 20
1077.5
 30
0.0
 11
526.5
 21
1077.5
 31
0.0
  0
LINE
  5
C9
  8
LAYER_04
 10
526.5
 20
1077.5
 30
0.0
 11
526.5
 21
1062.599999731779
 31
0.0
  0
ARC
  5
CA
  8
LAYER_04
 10
526.5
 20
1059.499999731779
 30
0.0
 40
3.099999999999999
 50
90.0
 51
0.0
  0
LINE
  5
CB
  8
LAYER_04
 10
529.6
 20
1059.499999731779
 30
0.0
 11
553.4
 21
1059.499999731779
 31
0.0
  0
ARC
  5
CC
  8
LAYER_04
 10
556.5
 20
1059.499999731779
 30
0.0
 40
3.099999999999999
 50
180.0
 51
90.0
  0
LINE
  5
CD
  8
LAYER_04
 10
556.5
 20
1062.599999731779
 30
0.0
 11
556.5
 21
1077.5
 31
0.0
  0
LINE
  5
CE
  8
LAYER_04
 10
556.5
 20
1077.5
 30
0.0
 11
586.5000035762787
 21
1077.5
 31
0.0
  0
LINE
  5
CF
  8
LAYER_04
 10
586.5000035762787
 20
1077.5
 30
0.0
 11
586.5000035762787
 21
1062.599999731779
 31
0.0
  0
ARC
  5
D0
  8
LAYER_04
 10
586.5000035762787
 20
1059.499999731779
 30
0.0
 40
3.099999999999996
 50
90.0
 51
0.0
  0
LINE
  5
D1
  8
LAYER_04
 10
589.6000035762787
 20
1059.499999731779
 30
0.0
 11
613.4
 21
1059.499999731779
 31
0.0
  0
ARC
  5
D2
  8
LAYER_04
 10
616.5
 20
1059.499999731779
 30
0.0
 40
3.099999999999977
 50
180.0
 51
90.0
  0
LINE
  5
D3
  8
LAYER_04
 10
616.5
 20
1062.599999731779
 30
0.0
 11
616.5
 21
1077.5
 31
0.0
  0
LINE
  5
D4
  8
LAYER_04
 10
616.5
 20
1077.5
 30
0.0
 11
646.5
 21
1077.5
 31
0.0
  0
LINE
  5
D5
  8
LAYER_04
 10
646.5
 20
1077.5
 30
0.0
 11
646.5
 21
477.5
 31
0.0
  0
LINE
  5
D6
  8
LAYER_04
 10
646.5
 20
477.5
 30
0.0
 11
616.5
 21
477.5
 31
0.0
  0
LINE
  5
D7
  8
LAYER_04
 10
646.4999999999999
 20
45.49998462200165
 30
0.0
 11
619.6
 21
45.49998462200156
 31
0.0
  0
ARC
  5
D8
  8
LAYER_04
 10
616.5
 20
45.49998462200165
 30
0.0
 40
3.099999999999994
 50
359.9999999999985
 51
269.9999999999979
  0
LINE
  5
D9
  8
LAYER_04
 10
616.4999999999999
 20
42.39998462200165
 30
0.0
 11
616.4999999999999
 21
27.5
 31
0.0
  0
LINE
  5
DA
  8
LAYER_04
 10
616.4999999999999
 20
27.5
 30
0.0
 11
586.4999999999999
 21
27.5
 31
0.0
  0
LINE
  5
DB
  8
LAYER_04
 10
586.4999999999999
 20
27.5
 30
0.0
 11
586.4999999999999
 21
42.3999846220017
 31
0.0
  0
ARC
  5
DC
  8
LAYER_04
 10
586.4999999999999
 20
45.49998462200165
 30
0.0
 40
3.099999999999952
 50
270.0
 51
180.0000000000008
  0
LINE
  5
DD
  8
LAYER_04
 10
583.4
 20
45.49998462200161
 30
0.0
 11
559.5999999999999
 21
45.49998462200158
 31
0.0
  0
ARC
  5
DE
  8
LAYER_04
 10
556.4999999999999
 20
45.49998462200165
 30
0.0
 40
3.09999999999998
 50
359.9999999999987
 51
269.9999999999979
  0
LINE
  5
DF
  8
LAYER_04
 10
556.4999999999999
 20
42.39998462200174
 30
0.0
 11
556.4999999999999
 21
27.5
 31
0.0
  0
LINE
  5
E0
  8
LAYER_04
 10
556.4999999999999
 20
27.5
 30
0.0
 11
526.5
 21
27.5
 31
0.0
  0
LINE
  5
E1
  8
LAYER_04
 10
526.5
 20
27.5
 30
0.0
 11
526.5
 21
42.39998462200171
 31
0.0
  0
ARC
  5
E2
  8
LAYER_04
 10
526.5
 20
45.49998462200165
 30
0.0
 40
3.099999999999937
 50
270.0
 51
180.0000000000005
  0
LINE
  5
E3
  8
LAYER_04
 10
523.4000000000001
 20
45.49998462200162
 30
0.0
 11
499.5999999999999
 21
45.49998462200162
 31
0.0
  0
ARC
  5
E4
  8
LAYER_04
 10
496.5
 20
45.49998462200165
 30
0.0
 40
3.099999999999937
 50
359.9999999999995
 51
269.9999999999989
  0
LINE
  5
E5
  8
LAYER_04
 10
496.4999999999999
 20
42.39998462200171
 30
0.0
 11
496.5
 21
27.5
 31
0.0
  0
LINE
  5
E6
  8
LAYER_04
 10
496.5
 20
27.5
 30
0.0
 11
466.5
 21
27.5
 31
0.0
  0
LINE
  5
E7
  8
LAYER_04
 10
466.5
 20
27.5
 30
0.0
 11
466.4999999999999
 21
42.3999846220017
 31
0.0
  0
ARC
  5
E8
  8
LAYER_04
 10
466.4999999999999
 20
45.49998462200165
 30
0.0
 40
3.099999999999952
 50
270.000000000001
 51
180.0000000000008
  0
LINE
  5
E9
  8
LAYER_04
 10
463.3999999999999
 20
45.49998462200161
 30
0.0
 11
409.6
 21
45.49998462200159
 31
0.0
  0
ARC
  5
EA
  8
LAYER_04
 10
406.5
 20
45.49998462200165
 30
0.0
 40
3.099999999999969
 50
359.9999999999989
 51
269.9999999999989
  0
LINE
  5
EB
  8
LAYER_04
 10
406.4999999999999
 20
42.39998462200168
 30
0.0
 11
406.5
 21
27.5
 31
0.0
  0
LINE
  5
EC
  8
LAYER_04
 10
406.5
 20
27.5
 30
0.0
 11
346.5
 21
27.5
 31
0.0
  0
LINE
  5
ED
  8
LAYER_04
 10
346.5
 20
27.5
 30
0.0
 11
346.5
 21
77.5
 31
0.0
  0
LINE
  5
EE
  8
LAYER_04
 10
346.5
 20
77.5
 30
0.0
 11
546.5
 21
127.5
 31
0.0
  0
LINE
  5
EF
  8
LAYER_04
 10
546.5
 20
127.5
 30
0.0
 11
546.5
 21
327.5
 31
0.0
  0
LINE
  5
F0
  8
LAYER_04
 10
546.5
 20
327.5
 30
0.0
 11
346.5
 21
377.5
 31
0.0
  0
LINE
  5
F1
  8
LAYER_04
 10
346.5
 20
377.5
 30
0.0
 11
346.5
 21
427.5
 31
0.0
  0
LINE
  5
F2
  8
LAYER_04
 10
346.5
 20
427.5
 30
0.0
 11
406.5
 21
427.5
 31
0.0
  0
LINE
  5
F3
  8
LAYER_04
 10
406.5
 20
427.5
 30
0.0
 11
406.5
 21
412.5999900460243
 31
0.0
  0
ARC
  5
F4
  8
LAYER_04
 10
406.5
 20
409.4999900460243
 30
0.0
 40
3.100000000000016
 50
90.0
 51
0.0
  0
LINE
  5
F5
  8
LAYER_04
 10
409.6
 20
409.4999900460243
 30
0.0
 11
463.4
 21
409.4999900460243
 31
0.0
  0
ARC
  5
F6
  8
LAYER_04
 10
466.5
 20
409.4999900460243
 30
0.0
 40
3.100000000000009
 50
180.0
 51
90.0
  0
LINE
  5
F7
  8
LAYER_04
 10
466.5
 20
412.5999900460243
 30
0.0
 11
466.5
 21
427.5
 31
0.0
  0
LINE
  5
F8
  8
LAYER_04
 10
466.5
 20
427.5
 30
0.0
 11
496.5
 21
427.5
 31
0.0
  0
LINE
  5
F9
  8
LAYER_04
 10
496.5
 20
427.5
 30
0.0
 11
496.5
 21
412.5999900460243
 31
0.0
  0
ARC
  5
FA
  8
LAYER_04
 10
496.5
 20
409.4999900460243
 30
0.0
 40
3.099999999999994
 50
90.0
 51
0.0
  0
LINE
  5
FB
  8
LAYER_04
 10
499.6
 20
409.4999900460243
 30
0.0
 11
523.4
 21
409.4999900460243
 31
0.0
  0
ARC
  5
FC
  8
LAYER_04
 10
526.5
 20
409.4999900460243
 30
0.0
 40
3.099999999999994
 50
180.0000000000011
 51
89.9999999999979
  0
LINE
  5
FD
  8
LAYER_04
 10
526.5000000000001
 20
412.5999900460243
 30
0.0
 11
526.5
 21
427.5
 31
0.0
  0
LINE
  5
FE
  8
LAYER_04
 10
526.5
 20
427.5
 30
0.0
 11
556.5
 21
427.5
 31
0.0
  0
LINE
  5
FF
  8
LAYER_04
 10
556.5
 20
427.5
 30
0.0
 11
556.5
 21
412.5999900460243
 31
0.0
  0
ARC
  5
100
  8
LAYER_04
 10
556.5
 20
409.4999900460243
 30
0.0
 40
3.100000000000009
 50
90.0
 51
0.0
  0
LINE
  5
101
  8
LAYER_04
 10
559.6
 20
409.4999900460243
 30
0.0
 11
583.4
 21
409.4999900460243
 31
0.0
  0
ARC
  5
102
  8
LAYER_04
 10
586.5
 20
409.4999900460243
 30
0.0
 40
3.100000000000023
 50
180.0
 51
90.0
  0
LINE
  5
103
  8
LAYER_04
 10
586.5
 20
412.5999900460243
 30
0.0
 11
586.5
 21
427.5
 31
0.0
  0
LINE
  5
104
  8
LAYER_04
 10
586.5
 20
427.5
 30
0.0
 11
616.5
 21
427.5
 31
0.0
  0
LINE
  5
105
  8
LAYER_04
 10
616.5
 20
427.5
 30
0.0
 11
616.5
 21
412.5999900460243
 31
0.0
  0
ARC
  5
106
  8
LAYER_04
 10
616.5
 20
409.4999900460243
 30
0.0
 40
3.099999999999994
 50
90.0
 51
0.0
  0
LINE
  5
107
  8
LAYER_04
 10
619.6
 20
409.4999900460243
 30
0.0
 11
646.5
 21
409.4999900460243
 31
0.0
  0
LINE
  5
108
  8
LAYER_04
 10
646.5
 20
409.4999900460243
 30
0.0
 11
646.4999999999999
 21
45.49998462200165
 31
0.0
  0
LINE
  5
109
  8
LAYER_04
 10
295.5
 20
477.5
 30
0.0
 11
295.5
 21
492.3999913275242
 31
0.0
  0
ARC
  5
10A
  8
LAYER_04
 10
295.5
 20
495.4999913275242
 30
0.0
 40
3.100000000000023
 50
270.0
 51
180.0
  0
LINE
  5
10B
  8
LAYER_04
 10
292.4
 20
495.4999913275242
 30
0.0
 11
268.6
 21
495.4999913275242
 31
0.0
  0
ARC
  5
10C
  8
LAYER_04
 10
265.5
 20
495.4999913275242
 30
0.0
 40
3.100000000000009
 50
0.0
 51
270.0
  0
LINE
  5
10D
  8
LAYER_04
 10
265.5
 20
492.3999913275242
 30
0.0
 11
265.5
 21
477.5
 31
0.0
  0
LINE
  5
10E
  8
LAYER_04
 10
265.5
 20
477.5
 30
0.0
 11
235.5
 21
477.5
 31
0.0
  0
LINE
  5
10F
  8
LAYER_04
 10
235.5
 20
477.5
 30
0.0
 11
235.4999999999999
 21
492.3999913275242
 31
0.0
  0
ARC
  5
110
  8
LAYER_04
 10
235.4999999999999
 20
495.4999913275242
 30
0.0
 40
3.099999999999952
 50
270.000000000001
 51
180.0000000000011
  0
LINE
  5
111
  8
LAYER_04
 10
232.3999999999999
 20
495.4999913275241
 30
0.0
 11
208.6
 21
495.4999913275242
 31
0.0
  0
ARC
  5
112
  8
LAYER_04
 10
205.5
 20
495.4999913275242
 30
0.0
 40
3.100000000000009
 50
0.0
 51
270.0000000000005
  0
LINE
  5
113
  8
LAYER_04
 10
205.5
 20
492.3999913275242
 30
0.0
 11
205.5
 21
477.5
 31
0.0
  0
LINE
  5
114
  8
LAYER_04
 10
205.5
 20
477.5
 30
0.0
 11
175.5
 21
477.5
 31
0.0
  0
LINE
  5
115
  8
LAYER_04
 10
175.5
 20
477.5
 30
0.0
 11
175.5
 21
492.3999913275242
 31
0.0
  0
ARC
  5
116
  8
LAYER_04
 10
175.5
 20
495.4999913275242
 30
0.0
 40
3.100000000000009
 50
270.0
 51
180.0
  0
LINE
  5
117
  8
LAYER_04
 10
172.4
 20
495.4999913275242
 30
0.0
 11
148.6
 21
495.4999913275241
 31
0.0
  0
ARC
  5
118
  8
LAYER_04
 10
145.5
 20
495.4999913275242
 30
0.0
 40
3.099999999999952
 50
359.9999999999989
 51
269.9999999999995
  0
LINE
  5
119
  8
LAYER_04
 10
145.5
 20
492.3999913275242
 30
0.0
 11
145.5
 21
477.5
 31
0.0
  0
LINE
  5
11A
  8
LAYER_04
 10
145.5
 20
477.5
 30
0.0
 11
85.5
 21
477.5
 31
0.0
  0
LINE
  5
11B
  8
LAYER_04
 10
85.5
 20
477.5
 30
0.0
 11
85.5
 21
492.3999913275242
 31
0.0
  0
ARC
  5
11C
  8
LAYER_04
 10
85.5
 20
495.4999913275242
 30
0.0
 40
3.100000000000016
 50
270.0
 51
180.0
  0
LINE
  5
11D
  8
LAYER_04
 10
82.39999999999998
 20
495.4999913275242
 30
0.0
 11
25.5
 21
495.4999913275242
 31
0.0
  0
LINE
  5
11E
  8
LAYER_04
 10
25.5
 20
495.4999913275242
 30
0.0
 11
25.5
 21
527.5
 31
0.0
  0
LINE
  5
11F
  8
LAYER_04
 10
25.5
 20
527.5
 30
0.0
 11
225.5
 21
577.5
 31
0.0
  0
LINE
  5
120
  8
LAYER_04
 10
225.5
 20
577.5
 30
0.0
 11
225.5
 21
977.5
 31
0.0
  0
LINE
  5
121
  8
LAYER_04
 10
225.5
 20
977.5
 30
0.0
 11
25.5
 21
1027.5
 31
0.0
  0
LINE
  5
122
  8
LAYER_04
 10
25.5
 20
1027.5
 30
0.0
 11
25.5
 21
1059.499999731779
 31
0.0
  0
LINE
  5
123
  8
LAYER_04
 10
25.5
 20
1059.499999731779
 30
0.0
 11
82.39999999999999
 21
1059.499999731779
 31
0.0
  0
ARC
  5
124
  8
LAYER_04
 10
85.5
 20
1059.499999731779
 30
0.0
 40
3.100000000000005
 50
180.0
 51
90.0
  0
LINE
  5
125
  8
LAYER_04
 10
85.5
 20
1062.599999731779
 30
0.0
 11
85.5
 21
1077.5
 31
0.0
  0
LINE
  5
126
  8
LAYER_04
 10
85.5
 20
1077.5
 30
0.0
 11
145.5
 21
1077.5
 31
0.0
  0
LINE
  5
127
  8
LAYER_04
 10
145.5
 20
1077.5
 30
0.0
 11
145.5
 21
1062.599999731779
 31
0.0
  0
ARC
  5
128
  8
LAYER_04
 10
145.5
 20
1059.499999731779
 30
0.0
 40
3.100000000000005
 50
90.0
 51
0.0
  0
LINE
  5
129
  8
LAYER_04
 10
148.6
 20
1059.499999731779
 30
0.0
 11
172.4
 21
1059.499999731779
 31
0.0
  0
ARC
  5
12A
  8
LAYER_04
 10
175.5
 20
1059.499999731779
 30
0.0
 40
3.099999999999998
 50
180.0
 51
90.0
  0
LINE
  5
12B
  8
LAYER_04
 10
175.5
 20
1062.599999731779
 30
0.0
 11
175.5
 21
1077.5
 31
0.0
  0
LINE
  5
12C
  8
LAYER_04
 10
175.5
 20
1077.5
 30
0.0
 11
205.5
 21
1077.5
 31
0.0
  0
LINE
  5
12D
  8
LAYER_04
 10
205.5
 20
1077.5
 30
0.0
 11
205.5
 21
1062.599999731779
 31
0.0
  0
ARC
  5
12E
  8
LAYER_04
 10
205.5
 20
1059.499999731779
 30
0.0
 40
3.099999999999999
 50
90.0
 51
0.0
  0
LINE
  5
12F
  8
LAYER_04
 10
208.6
 20
1059.499999731779
 30
0.0
 11
232.4
 21
1059.499999731779
 31
0.0
  0
ARC
  5
130
  8
LAYER_04
 10
235.5
 20
1059.499999731779
 30
0.0
 40
3.099999999999999
 50
180.0
 51
90.0
  0
LINE
  5
131
  8
LAYER_04
 10
235.5
 20
1062.599999731779
 30
0.0
 11
235.5
 21
1077.5
 31
0.0
  0
LINE
  5
132
  8
LAYER_04
 10
235.5
 20
1077.5
 30
0.0
 11
265.5000035762787
 21
1077.5
 31
0.0
  0
LINE
  5
133
  8
LAYER_04
 10
265.5000035762787
 20
1077.5
 30
0.0
 11
265.5000035762787
 21
1062.599999731779
 31
0.0
  0
ARC
  5
134
  8
LAYER_04
 10
265.5000035762787
 20
1059.499999731779
 30
0.0
 40
3.099999999999996
 50
90.0
 51
0.0
  0
LINE
  5
135
  8
LAYER_04
 10
268.6000035762787
 20
1059.499999731779
 30
0.0
 11
292.4
 21
1059.499999731779
 31
0.0
  0
ARC
  5
136
  8
LAYER_04
 10
295.5
 20
1059.499999731779
 30
0.0
 40
3.099999999999977
 50
180.0
 51
90.0
  0
LINE
  5
137
  8
LAYER_04
 10
295.5
 20
1062.599999731779
 30
0.0
 11
295.5
 21
1077.5
 31
0.0
  0
LINE
  5
138
  8
LAYER_04
 10
295.5
 20
1077.5
 30
0.0
 11
325.5
 21
1077.5
 31
0.0
  0
LINE
  5
139
  8
LAYER_04
 10
325.5
 20
1077.5
 30
0.0
 11
325.5
 21
477.5
 31
0.0
  0
LINE
  5
13A
  8
LAYER_04
 10
325.5
 20
477.5
 30
0.0
 11
295.5
 21
477.5
 31
0.0
  0
ARC
  5
13C
  8
LAYER_01
 10
617.8999999999999
 20
798.6249999999999
 30
0.0
 40
3.099999999999966
 50
270.0
 51
180.0
  0
LINE
  5
13D
  8
LAYER_01
 10
617.8999999999999
 20
795.5249999999999
 30
0.0
 11
617.8999999999999
 21
759.4749999999999
 31
0.0
  0
ARC
  5
13E
  8
LAYER_01
 10
617.8999999999999
 20
756.3749999999999
 30
0.0
 40
3.100000000000023
 50
180.0
 51
90.0
  0
LINE
  5
13F
  8
LAYER_01
 10
614.8
 20
756.3749999999999
 30
0.0
 11
578.75
 21
756.3749999999999
 31
0.0
  0
ARC
  5
140
  8
LAYER_01
 10
575.65
 20
756.3749999999999
 30
0.0
 40
3.100000000000023
 50
90.0
 51
0.0
  0
LINE
  5
141
  8
LAYER_01
 10
575.65
 20
759.4749999999999
 30
0.0
 11
575.65
 21
795.5249999999999
 31
0.0
  0
ARC
  5
142
  8
LAYER_01
 10
575.65
 20
798.6249999999999
 30
0.0
 40
3.09999999999998
 50
0.0
 51
270.0
  0
LINE
  5
143
  8
LAYER_01
 10
578.75
 20
798.6249999999999
 30
0.0
 11
614.8
 21
798.6249999999999
 31
0.0
  0
CIRCLE
  5
145
  8
LAYER_05
 10
596.5
 20
977.5
 30
0.0
 40
4.600000000000009
  0
CIRCLE
  5
146
  8
LAYER_05
 10
596.5
 20
577.5
 30
0.0
 40
4.599999999999984
  0
CIRCLE
  5
147
  8
LAYER_05
 10
275.5
 20
977.5
 30
0.0
 40
4.600000000000009
  0
CIRCLE
  5
148
  8
LAYER_05
 10
275.5
 20
577.5
 30
0.0
 40
4.599999999999984
  0
CIRCLE
  5
14A
  8
LAYER_03
 10
612.2750126236351
 20
761.9999850145541
 30
0.0
 40
1.6
  0
CIRCLE
  5
14B
  8
LAYER_03
 10
612.2750126236351
 20
792.9999864869751
 30
0.0
 40
1.6
  0
CIRCLE
  5
14C
  8
LAYER_03
 10
581.2750111512141
 20
792.9999864869751
 30
0.0
 40
1.6
  0
CIRCLE
  5
14D
  8
LAYER_03
 10
581.275
 20
761.9999999999999
 30
0.0
 40
1.6
  0
CIRCLE
  5
14F
  8
LAYER_02
 10
596.5
 20
777.5
 30
0.0
 40
11.25
  0
CIRCLE
  5
150
  8
LAYER_05
 10
596.5
 20
777.5
 30
0.0
 40
5.5
  0
ENDSEC
  0
EOF
