  0
SECTION
  2
HEADER
  9
$ACADVER
  1
AC1009
  9
$DWGCODEPAGE
  3
ansi_1252
  9
$INSBASE
 10
0.0
 20
0.0
 30
0.0
  9
$EXTMIN
 10
297.0
 20
-236.0000008493662
 30
0.0
  9
$EXTMAX
 10
899.517888232815
 20
517.6990809371961
 30
0.0
  9
$LIMMIN
 10
0.0
 20
0.0
  9
$LIMMAX
 10
12.0
 20
9.0
  9
$ORTHOMODE
 70
     0
  9
$REGENMODE
 70
     1
  9
$FILLMODE
 70
     1
  9
$QTEXTMODE
 70
     0
  9
$MIRRTEXT
 70
     1
  9
$DRAGMODE
 70
     2
  9
$LTSCALE
 40
1.0
  9
$OSMODE
 70
    37
  9
$ATTMODE
 70
     1
  9
$TEXTSIZE
 40
0.2
  9
$TRACEWID
 40
0.05
  9
$TEXTSTYLE
  7
STANDARD
  9
$CLAYER
  8
DEFAULT
  9
$CELTYPE
  6
BYLAYER
  9
$CECOLOR
 62
   256
  9
$DIMSCALE
 40
1.0
  9
$DIMASZ
 40
0.18
  9
$DIMEXO
 40
0.0625
  9
$DIMDLI
 40
0.38
  9
$DIMRND
 40
0.0
  9
$DIMDLE
 40
0.0
  9
$DIMEXE
 40
0.18
  9
$DIMTP
 40
0.0
  9
$DIMTM
 40
0.0
  9
$DIMTXT
 40
0.18
  9
$DIMCEN
 40
0.09
  9
$DIMTSZ
 40
0.0
  9
$DIMTOL
 70
     0
  9
$DIMLIM
 70
     0
  9
$DIMTIH
 70
     1
  9
$DIMTOH
 70
     1
  9
$DIMSE1
 70
     0
  9
$DIMSE2
 70
     0
  9
$DIMTAD
 70
     0
  9
$DIMZIN
 70
     0
  9
$DIMBLK
  1

  9
$DIMASO
 70
     1
  9
$DIMSHO
 70
     1
  9
$DIMPOST
  1

  9
$DIMAPOST
  1

  9
$DIMALT
 70
     0
  9
$DIMALTD
 70
     2
  9
$DIMALTF
 40
25.4
  9
$DIMLFAC
 40
1.0
  9
$DIMTOFL
 70
     0
  9
$DIMTVP
 40
0.0
  9
$DIMTIX
 70
     0
  9
$DIMSOXD
 70
     0
  9
$DIMSAH
 70
     0
  9
$DIMBLK1
  1

  9
$DIMBLK2
  1

  9
$DIMSTYLE
  2
STANDARD
  9
$DIMCLRD
 70
     0
  9
$DIMCLRE
 70
     0
  9
$DIMCLRT
 70
     0
  9
$DIMTFAC
 40
1.0
  9
$DIMGAP
 40
0.09
  9
$LUNITS
 70
     2
  9
$LUPREC
 70
     3
  9
$SKETCHINC
 40
0.1
  9
$FILLETRAD
 40
0.5
  9
$AUNITS
 70
     0
  9
$AUPREC
 70
     0
  9
$MENU
  1
.
  9
$ELEVATION
 40
0.0
  9
$PELEVATION
 40
0.0
  9
$THICKNESS
 40
0.0
  9
$LIMCHECK
 70
     0
  9
$CHAMFERA
 40
0.0
  9
$CHAMFERB
 40
0.0
  9
$SKPOLY
 70
     0
  9
$TDCREATE
 40
2458263.751359167
  9
$TDUPDATE
 40
2458263.751376134
  9
$TDINDWG
 40
0.0000000116
  9
$TDUSRTIMER
 40
0.0000000116
  9
$USRTIMER
 70
     1
  9
$ANGBASE
 50
0.0
  9
$ANGDIR
 70
     0
  9
$PDMODE
 70
     0
  9
$PDSIZE
 40
0.0
  9
$PLINEWID
 40
0.0
  9
$COORDS
 70
     1
  9
$SPLFRAME
 70
     0
  9
$SPLINETYPE
 70
     6
  9
$SPLINESEGS
 70
     8
  9
$ATTDIA
 70
     0
  9
$ATTREQ
 70
     1
  9
$HANDLING
 70
     1
  9
$HANDSEED
  5
427
  9
$SURFTAB1
 70
     6
  9
$SURFTAB2
 70
     6
  9
$SURFTYPE
 70
     6
  9
$SURFU
 70
     6
  9
$SURFV
 70
     6
  9
$UCSNAME
  2

  9
$UCSORG
 10
0.0
 20
0.0
 30
0.0
  9
$UCSXDIR
 10
1.0
 20
0.0
 30
0.0
  9
$UCSYDIR
 10
0.0
 20
1.0
 30
0.0
  9
$PUCSNAME
  2

  9
$PUCSORG
 10
0.0
 20
0.0
 30
0.0
  9
$PUCSXDIR
 10
1.0
 20
0.0
 30
0.0
  9
$PUCSYDIR
 10
0.0
 20
1.0
 30
0.0
  9
$USERI1
 70
     0
  9
$USERI2
 70
     0
  9
$USERI3
 70
     0
  9
$USERI4
 70
     0
  9
$USERI5
 70
     0
  9
$USERR1
 40
0.0
  9
$USERR2
 40
0.0
  9
$USERR3
 40
0.0
  9
$USERR4
 40
0.0
  9
$USERR5
 40
0.0
  9
$WORLDVIEW
 70
     1
  9
$SHADEDGE
 70
     3
  9
$SHADEDIF
 70
    70
  9
$TILEMODE
 70
     1
  9
$MAXACTVP
 70
    64
  9
$PLIMCHECK
 70
     0
  9
$PEXTMIN
 10
1.000000000000000E+20
 20
1.000000000000000E+20
 30
1.000000000000000E+20
  9
$PEXTMAX
 10
-1.000000000000000E+20
 20
-1.000000000000000E+20
 30
-1.000000000000000E+20
  9
$PLIMMIN
 10
0.0
 20
0.0
  9
$PLIMMAX
 10
12.0
 20
9.0
  9
$UNITMODE
 70
     0
  9
$VISRETAIN
 70
     1
  9
$PLINEGEN
 70
     0
  9
$PSLTSCALE
 70
     1
  0
ENDSEC
  0
SECTION
  2
TABLES
  0
TABLE
  2
VPORT
 70
     1
  0
VPORT
  2
*ACTIVE
 70
     0
 10
0.0
 20
0.0
 11
1.0
 21
1.0
 12
598.2589441164075
 22
140.8495400439149
 13
0.0
 23
0.0
 14
0.5
 24
0.5
 15
0.5
 25
0.5
 16
0.0
 26
0.0
 36
1.0
 17
0.0
 27
0.0
 37
0.0
 40
768.7730634222935
 41
0.7994143853865543
 42
50.0
 43
0.0
 44
0.0
 50
0.0
 51
0.0
 71
     0
 72
   100
 73
     1
 74
     3
 75
     0
 76
     0
 77
     0
 78
     0
  0
ENDTAB
  0
TABLE
  2
LTYPE
 70
     1
  0
LTYPE
  2
CONTINUOUS
 70
     0
  3
Solid line
 72
    65
 73
     0
 40
0.0
  0
ENDTAB
  0
TABLE
  2
LAYER
 70
     2
  0
LAYER
  2
0
 70
     0
 62
     7
  6
CONTINUOUS
  0
LAYER
  2
DEFAULT
 70
     0
 62
     7
  6
CONTINUOUS
  0
ENDTAB
  0
TABLE
  2
STYLE
 70
     1
  0
STYLE
  2
STANDARD
 70
     0
 40
0.0
 41
1.0
 50
0.0
 71
     0
 42
0.2
  3
txt
  4

  0
ENDTAB
  0
TABLE
  2
VIEW
 70
     0
  0
ENDTAB
  0
TABLE
  2
UCS
 70
     0
  0
ENDTAB
  0
TABLE
  2
APPID
 70
     1
  0
APPID
  2
ACAD
 70
     0
  0
ENDTAB
  0
TABLE
  2
DIMSTYLE
 70
     1
  0
DIMSTYLE
  2
STANDARD
 70
     0
  3

  4

  5

  6

  7

 40
1.0
 41
0.18
 42
0.0625
 43
0.38
 44
0.18
 45
0.0
 46
0.0
 47
0.0
 48
0.0
140
0.18
141
0.09
142
0.0
143
25.4
144
1.0
145
0.0
146
1.0
147
0.09
 71
     0
 72
     0
 73
     1
 74
     1
 75
     0
 76
     0
 77
     0
 78
     0
170
     0
171
     2
172
     0
173
     0
174
     0
175
     0
176
     0
177
     0
178
     0
  0
ENDTAB
  0
ENDSEC
  0
SECTION
  2
BLOCKS
  0
BLOCK
  8
0
  2
$MODEL_SPACE
 70
     0
 10
0.0
 20
0.0
 30
0.0
  3
$MODEL_SPACE
  1

  0
ENDBLK
  5
21
  8
0
  0
BLOCK
 67
     1
  8
0
  2
$PAPER_SPACE
 70
     0
 10
0.0
 20
0.0
 30
0.0
  3
$PAPER_SPACE
  1

  0
ENDBLK
  5
1D
 67
     1
  8
0
  0
ENDSEC
  0
SECTION
  2
ENTITIES
  0
ARC
  5
6E
  8
0
 10
446.9999999999998
 20
42.21164121829121
 30
0.0
 40
150.0
 50
58.47193140538908
 51
167.2770138765696
  0
LINE
  5
6F
  8
0
 10
525.437430206044
 20
170.069255550297
 30
0.0
 11
475.383973203892
 21
83.37412492810557
 31
0.0
  0
ARC
  5
70
  8
0
 10
447.0
 20
42.21164121829109
 30
0.0
 40
49.99999999999999
 50
55.41143426421419
 51
182.3336826578052
  0
LINE
  5
71
  8
0
 10
397.0414684975485
 20
40.17568195579157
 30
0.0
 11
300.6830599852082
 21
75.24727447554646
 31
0.0
  0
ARC
  5
72
  8
0
 10
749.517888232814
 20
367.6990809371951
 30
0.0
 40
150.000000000001
 50
298.4719314053884
 51
167.2770138765704
  0
LINE
  5
73
  8
0
 10
821.0271152085807
 20
235.8414666051872
 30
0.0
 11
770.9736582064288
 21
322.5365972273788
 31
0.0
  0
ARC
  5
74
  8
0
 10
749.5178882328123
 20
367.6990809371932
 30
0.0
 40
49.99999999999997
 50
295.4114342642142
 51
182.3336826578052
  0
LINE
  5
75
  8
0
 10
699.5593567303608
 20
365.6631216746937
 30
0.0
 11
603.2009482180209
 21
400.7347141944485
 31
0.0
  0
LINE
  5
76
  8
0
 10
661.2689111988815
 20
302.9673685335426
 30
0.0
 11
661.2689111988815
 21
305.1023685335426
 31
0.0
  0
LINE
  5
77
  8
0
 10
661.2689111988815
 20
305.1023685335426
 30
0.0
 11
670.2689113329919
 21
305.1023685335426
 31
0.0
  0
LINE
  5
78
  8
0
 10
670.2689113329919
 20
305.1023685335426
 30
0.0
 11
670.2689113329919
 21
302.9673685335426
 31
0.0
  0
LINE
  5
79
  8
0
 10
670.2689113329919
 20
302.9673685335426
 30
0.0
 11
673.2689111541779
 21
302.9673685335426
 31
0.0
  0
LINE
  5
7A
  8
0
 10
673.2689111541779
 20
302.9673685335426
 30
0.0
 11
673.2689111541779
 21
227.9673676841764
 31
0.0
  0
LINE
  5
7B
  8
0
 10
673.2689111541779
 20
227.9673676841764
 30
0.0
 11
658.2689111541779
 21
227.9673676841764
 31
0.0
  0
LINE
  5
7C
  8
0
 10
658.2689111541779
 20
227.9673676841764
 30
0.0
 11
658.2689111541779
 21
302.9673685335426
 31
0.0
  0
LINE
  5
7D
  8
0
 10
658.2689111541779
 20
302.9673685335426
 30
0.0
 11
661.2689111988815
 21
302.9673685335426
 31
0.0
  0
LINE
  5
7E
  8
0
 10
686.6539354073292
 20
302.9673685335426
 30
0.0
 11
686.6539354073292
 21
305.1023685335426
 31
0.0
  0
LINE
  5
7F
  8
0
 10
686.6539354073292
 20
305.1023685335426
 30
0.0
 11
695.6539355414396
 21
305.1023685335426
 31
0.0
  0
LINE
  5
80
  8
0
 10
695.6539355414396
 20
305.1023685335426
 30
0.0
 11
695.6539355414396
 21
302.9673685335426
 31
0.0
  0
LINE
  5
81
  8
0
 10
695.6539355414396
 20
302.9673685335426
 30
0.0
 11
698.6539353626256
 21
302.9673685335426
 31
0.0
  0
LINE
  5
82
  8
0
 10
698.6539353626256
 20
302.9673685335426
 30
0.0
 11
698.6539353626256
 21
227.9673676841764
 31
0.0
  0
LINE
  5
83
  8
0
 10
698.6539353626256
 20
227.9673676841764
 30
0.0
 11
683.6539353626256
 21
227.9673676841764
 31
0.0
  0
LINE
  5
84
  8
0
 10
683.6539353626256
 20
227.9673676841764
 30
0.0
 11
683.6539353626256
 21
302.9673685335426
 31
0.0
  0
LINE
  5
85
  8
0
 10
683.6539353626256
 20
302.9673685335426
 30
0.0
 11
686.6539354073292
 21
302.9673685335426
 31
0.0
  0
LINE
  5
86
  8
0
 10
326.1357150760096
 20
24.41749252437398
 30
0.0
 11
329.1357148971956
 21
24.41749252437398
 31
0.0
  0
LINE
  5
87
  8
0
 10
329.1357148971956
 20
24.41749252437398
 30
0.0
 11
329.1357148971956
 21
-68.3525083249922
 31
0.0
  0
LINE
  5
88
  8
0
 10
329.1357148971956
 20
-68.3525083249922
 30
0.0
 11
325.1357148971956
 21
-68.35250832499221
 31
0.0
  0
LINE
  5
89
  8
0
 10
325.1357148971956
 20
-68.35250832499221
 30
0.0
 11
325.1357148971956
 21
-71.0825083249922
 31
0.0
  0
LINE
  5
8A
  8
0
 10
325.1357148971956
 20
-71.0825083249922
 30
0.0
 11
329.1357148971956
 21
-71.0825083249922
 31
0.0
  0
LINE
  5
8B
  8
0
 10
329.1357148971956
 20
-71.0825083249922
 30
0.0
 11
329.1357148971956
 21
-170.5825083249922
 31
0.0
  0
LINE
  5
8C
  8
0
 10
329.1357148971956
 20
-170.5825083249922
 30
0.0
 11
314.1357148971956
 21
-170.5825083249922
 31
0.0
  0
LINE
  5
8D
  8
0
 10
314.1357148971956
 20
-170.5825083249922
 30
0.0
 11
314.1357148971956
 21
24.41749252437398
 31
0.0
  0
LINE
  5
8E
  8
0
 10
314.1357148971956
 20
24.41749252437398
 30
0.0
 11
317.1357149418991
 21
24.41749252437398
 31
0.0
  0
LINE
  5
8F
  8
0
 10
317.1357149418991
 20
24.41749252437398
 30
0.0
 11
317.1357149418991
 21
26.55249252437397
 31
0.0
  0
LINE
  5
90
  8
0
 10
317.1357149418991
 20
26.55249252437397
 30
0.0
 11
326.1357150760096
 21
26.55249252437397
 31
0.0
  0
LINE
  5
91
  8
0
 10
326.1357150760096
 20
26.55249252437397
 30
0.0
 11
326.1357150760096
 21
24.41749252437398
 31
0.0
  0
LINE
  5
92
  8
0
 10
345.6469908640766
 20
24.41749252437398
 30
0.0
 11
348.6469906852626
 21
24.41749252437398
 31
0.0
  0
LINE
  5
93
  8
0
 10
348.6469906852626
 20
24.41749252437398
 30
0.0
 11
348.6469906852626
 21
-68.3525083249922
 31
0.0
  0
LINE
  5
94
  8
0
 10
348.6469906852626
 20
-68.3525083249922
 30
0.0
 11
344.6469906852626
 21
-68.35250832499221
 31
0.0
  0
LINE
  5
95
  8
0
 10
344.6469906852626
 20
-68.35250832499221
 30
0.0
 11
344.6469906852626
 21
-71.0825083249922
 31
0.0
  0
LINE
  5
96
  8
0
 10
344.6469906852626
 20
-71.0825083249922
 30
0.0
 11
348.6469906852626
 21
-71.0825083249922
 31
0.0
  0
LINE
  5
97
  8
0
 10
348.6469906852626
 20
-71.0825083249922
 30
0.0
 11
348.6469906852626
 21
-170.5825083249922
 31
0.0
  0
LINE
  5
98
  8
0
 10
348.6469906852626
 20
-170.5825083249922
 30
0.0
 11
333.6469906852626
 21
-170.5825083249922
 31
0.0
  0
LINE
  5
99
  8
0
 10
333.6469906852626
 20
-170.5825083249922
 30
0.0
 11
333.6469906852626
 21
24.41749252437398
 31
0.0
  0
LINE
  5
9A
  8
0
 10
333.6469906852626
 20
24.41749252437398
 30
0.0
 11
336.6469907299661
 21
24.41749252437398
 31
0.0
  0
LINE
  5
9B
  8
0
 10
336.6469907299661
 20
24.41749252437398
 30
0.0
 11
336.6469907299661
 21
26.55249252437397
 31
0.0
  0
LINE
  5
9C
  8
0
 10
336.6469907299661
 20
26.55249252437397
 30
0.0
 11
345.6469908640766
 21
26.55249252437397
 31
0.0
  0
LINE
  5
9D
  8
0
 10
345.6469908640766
 20
26.55249252437397
 30
0.0
 11
345.6469908640766
 21
24.41749252437398
 31
0.0
  0
LINE
  5
9E
  8
0
 10
383.570747158783
 20
65.2980012342391
 30
0.0
 11
378.4404450088979
 21
51.20261192245047
 31
0.0
  0
LINE
  5
9F
  8
0
 10
378.4404450088979
 20
51.20261192245047
 30
0.0
 11
381.2595228992607
 21
50.17655148228047
 31
0.0
  0
LINE
  5
A0
  8
0
 10
381.2595228992607
 20
50.17655148228047
 30
0.0
 11
386.3898250491457
 21
64.27194079406908
 31
0.0
  0
LINE
  5
A1
  8
0
 10
386.3898250491457
 20
64.27194079406908
 30
0.0
 11
383.570747158783
 21
65.2980012342391
 31
0.0
  0
LINE
  5
A2
  8
0
 10
633.0647880967707
 20
301.0693165120962
 30
0.0
 11
633.0647880967707
 21
303.2043165120962
 31
0.0
  0
LINE
  5
A3
  8
0
 10
633.0647880967707
 20
303.2043165120962
 30
0.0
 11
642.064788230881
 21
303.2043165120962
 31
0.0
  0
LINE
  5
A4
  8
0
 10
642.064788230881
 20
303.2043165120962
 30
0.0
 11
642.064788230881
 21
301.0693165120962
 31
0.0
  0
LINE
  5
A5
  8
0
 10
642.064788230881
 20
301.0693165120962
 30
0.0
 11
645.0647880520672
 21
301.0693165120962
 31
0.0
  0
LINE
  5
A6
  8
0
 10
645.0647880520672
 20
301.0693165120962
 30
0.0
 11
645.0647880520672
 21
241.06931566273
 31
0.0
  0
LINE
  5
A7
  8
0
 10
645.0647880520672
 20
241.06931566273
 30
0.0
 11
630.0647880520672
 21
241.06931566273
 31
0.0
  0
LINE
  5
A8
  8
0
 10
630.0647880520672
 20
241.06931566273
 30
0.0
 11
630.0647880520672
 21
301.0693165120962
 31
0.0
  0
LINE
  5
A9
  8
0
 10
630.0647880520672
 20
301.0693165120962
 30
0.0
 11
633.0647880967707
 21
301.0693165120962
 31
0.0
  0
LINE
  5
AA
  8
0
 10
392.9503145598808
 20
26.48813793224863
 30
0.0
 11
395.9503143810668
 21
26.48813793224863
 31
0.0
  0
LINE
  5
AB
  8
0
 10
395.9503143810668
 20
26.48813793224863
 30
0.0
 11
395.9503143810668
 21
-81.28186291711755
 31
0.0
  0
LINE
  5
AC
  8
0
 10
395.9503143810668
 20
-81.28186291711755
 30
0.0
 11
391.9503143810668
 21
-81.28186291711756
 31
0.0
  0
LINE
  5
AD
  8
0
 10
391.9503143810668
 20
-81.28186291711756
 30
0.0
 11
391.9503143810668
 21
-84.01186291711755
 31
0.0
  0
LINE
  5
AE
  8
0
 10
391.9503143810668
 20
-84.01186291711755
 30
0.0
 11
395.9503143810668
 21
-84.01186291711755
 31
0.0
  0
LINE
  5
AF
  8
0
 10
395.9503143810668
 20
-84.01186291711755
 30
0.0
 11
395.9503143810668
 21
-183.5118629171176
 31
0.0
  0
LINE
  5
B0
  8
0
 10
395.9503143810668
 20
-183.5118629171176
 30
0.0
 11
380.9503143810668
 21
-183.5118629171176
 31
0.0
  0
LINE
  5
B1
  8
0
 10
380.9503143810668
 20
-183.5118629171176
 30
0.0
 11
380.9503143810668
 21
26.48813793224863
 31
0.0
  0
LINE
  5
B2
  8
0
 10
380.9503143810668
 20
26.48813793224863
 30
0.0
 11
383.9503144257703
 21
26.48813793224863
 31
0.0
  0
LINE
  5
B3
  8
0
 10
383.9503144257703
 20
26.48813793224863
 30
0.0
 11
383.9503144257704
 21
28.62313793224862
 31
0.0
  0
LINE
  5
B4
  8
0
 10
383.9503144257704
 20
28.62313793224862
 30
0.0
 11
392.9503145598808
 21
28.62313793224862
 31
0.0
  0
LINE
  5
B5
  8
0
 10
392.9503145598808
 20
28.62313793224862
 30
0.0
 11
392.9503145598808
 21
26.48813793224863
 31
0.0
  0
LINE
  5
B6
  8
0
 10
446.860512789419
 20
36.08423703524193
 30
0.0
 11
449.860512610605
 21
36.08423703524193
 31
0.0
  0
LINE
  5
B7
  8
0
 10
449.860512610605
 20
36.08423703524193
 30
0.0
 11
449.860512610605
 21
-86.68576381412426
 31
0.0
  0
LINE
  5
B8
  8
0
 10
449.860512610605
 20
-86.68576381412426
 30
0.0
 11
445.860512610605
 21
-86.68576381412427
 31
0.0
  0
LINE
  5
B9
  8
0
 10
445.860512610605
 20
-86.68576381412427
 30
0.0
 11
445.860512610605
 21
-89.41576381412426
 31
0.0
  0
LINE
  5
BA
  8
0
 10
445.860512610605
 20
-89.41576381412426
 30
0.0
 11
449.860512610605
 21
-89.41576381412426
 31
0.0
  0
LINE
  5
BB
  8
0
 10
449.860512610605
 20
-89.41576381412426
 30
0.0
 11
449.860512610605
 21
-188.9157638141243
 31
0.0
  0
LINE
  5
BC
  8
0
 10
449.860512610605
 20
-188.9157638141243
 30
0.0
 11
434.860512610605
 21
-188.9157638141243
 31
0.0
  0
LINE
  5
BD
  8
0
 10
434.860512610605
 20
-188.9157638141243
 30
0.0
 11
434.860512610605
 21
36.08423703524193
 31
0.0
  0
LINE
  5
BE
  8
0
 10
434.860512610605
 20
36.08423703524193
 30
0.0
 11
437.8605126553085
 21
36.08423703524193
 31
0.0
  0
LINE
  5
BF
  8
0
 10
437.8605126553085
 20
36.08423703524193
 30
0.0
 11
437.8605126553085
 21
38.21923703524192
 31
0.0
  0
LINE
  5
C0
  8
0
 10
437.8605126553085
 20
38.21923703524192
 30
0.0
 11
446.860512789419
 21
38.21923703524192
 31
0.0
  0
LINE
  5
C1
  8
0
 10
446.860512789419
 20
38.21923703524192
 30
0.0
 11
446.860512789419
 21
36.08423703524193
 31
0.0
  0
LINE
  5
C2
  8
0
 10
488.2050387005097
 20
1.54315188158867
 30
0.0
 11
492.2050387005096
 21
1.543151881588783
 31
0.0
  0
LINE
  5
C3
  8
0
 10
492.2050387005096
 20
1.543151881588783
 30
0.0
 11
492.2050387005096
 21
-95.72684811841133
 31
0.0
  0
LINE
  5
C4
  8
0
 10
492.2050387005096
 20
-95.72684811841133
 30
0.0
 11
488.2050387005096
 21
-95.72684811841134
 31
0.0
  0
LINE
  5
C5
  8
0
 10
488.2050387005096
 20
-95.72684811841134
 30
0.0
 11
488.2050387005097
 21
-98.45684811841133
 31
0.0
  0
LINE
  5
C6
  8
0
 10
488.2050387005097
 20
-98.45684811841133
 30
0.0
 11
492.2050387005096
 21
-98.45684811841133
 31
0.0
  0
LINE
  5
C7
  8
0
 10
492.2050387005096
 20
-98.45684811841133
 30
0.0
 11
492.2050387005096
 21
-197.9568481184113
 31
0.0
  0
LINE
  5
C8
  8
0
 10
492.2050387005096
 20
-197.9568481184113
 30
0.0
 11
477.2050387005096
 21
-197.9568481184113
 31
0.0
  0
LINE
  5
C9
  8
0
 10
477.2050387005096
 20
-197.9568481184113
 30
0.0
 11
477.2050387005096
 21
42.04315273095486
 31
0.0
  0
LINE
  5
CA
  8
0
 10
477.2050387005096
 20
42.04315273095486
 30
0.0
 11
480.2050387452131
 21
42.04315273095486
 31
0.0
  0
LINE
  5
CB
  8
0
 10
480.2050387452131
 20
42.04315273095486
 30
0.0
 11
480.2050387452132
 21
44.17815273095485
 31
0.0
  0
LINE
  5
CC
  8
0
 10
480.2050387452132
 20
44.17815273095485
 30
0.0
 11
489.2050388793236
 21
44.17815273095485
 31
0.0
  0
LINE
  5
CD
  8
0
 10
489.2050388793236
 20
44.17815273095485
 30
0.0
 11
489.2050388793236
 21
42.04315273095486
 31
0.0
  0
LINE
  5
CE
  8
0
 10
489.2050388793236
 20
42.04315273095486
 30
0.0
 11
492.2050387005096
 21
42.04315273095486
 31
0.0
  0
LINE
  5
CF
  8
0
 10
492.2050387005096
 20
42.04315273095486
 30
0.0
 11
492.2050387005096
 21
4.273151881588661
 31
0.0
  0
LINE
  5
D0
  8
0
 10
492.2050387005096
 20
4.273151881588661
 30
0.0
 11
488.2050387005096
 21
4.27315188158866
 31
0.0
  0
LINE
  5
D1
  8
0
 10
488.2050387005096
 20
4.27315188158866
 30
0.0
 11
488.2050387005097
 21
1.54315188158867
 31
0.0
  0
LINE
  5
D2
  8
0
 10
508.9646973567351
 20
-7.398399461142446
 30
0.0
 11
512.9646973567351
 21
-7.398399461142333
 31
0.0
  0
LINE
  5
D3
  8
0
 10
512.9646973567351
 20
-7.398399461142333
 30
0.0
 11
512.9646973567351
 21
-104.6683994611424
 31
0.0
  0
LINE
  5
D4
  8
0
 10
512.9646973567351
 20
-104.6683994611424
 30
0.0
 11
508.9646973567351
 21
-104.6683994611425
 31
0.0
  0
LINE
  5
D5
  8
0
 10
508.9646973567351
 20
-104.6683994611425
 30
0.0
 11
508.9646973567351
 21
-107.3983994611424
 31
0.0
  0
LINE
  5
D6
  8
0
 10
508.9646973567351
 20
-107.3983994611424
 30
0.0
 11
512.9646973567351
 21
-107.3983994611424
 31
0.0
  0
LINE
  5
D7
  8
0
 10
512.9646973567351
 20
-107.3983994611424
 30
0.0
 11
512.9646973567351
 21
-206.8983994611424
 31
0.0
  0
LINE
  5
D8
  8
0
 10
512.9646973567351
 20
-206.8983994611424
 30
0.0
 11
497.9646973567351
 21
-206.8983994611424
 31
0.0
  0
LINE
  5
D9
  8
0
 10
497.9646973567351
 20
-206.8983994611424
 30
0.0
 11
497.9646973567351
 21
48.10160138822374
 31
0.0
  0
LINE
  5
DA
  8
0
 10
497.9646973567351
 20
48.10160138822374
 30
0.0
 11
500.9646974014386
 21
48.10160138822374
 31
0.0
  0
LINE
  5
DB
  8
0
 10
500.9646974014386
 20
48.10160138822374
 30
0.0
 11
500.9646974014386
 21
50.23660138822373
 31
0.0
  0
LINE
  5
DC
  8
0
 10
500.9646974014386
 20
50.23660138822373
 30
0.0
 11
509.964697535549
 21
50.23660138822373
 31
0.0
  0
LINE
  5
DD
  8
0
 10
509.964697535549
 20
50.23660138822373
 30
0.0
 11
509.964697535549
 21
48.10160138822374
 31
0.0
  0
LINE
  5
DE
  8
0
 10
509.964697535549
 20
48.10160138822374
 30
0.0
 11
512.9646973567351
 21
48.10160138822374
 31
0.0
  0
LINE
  5
DF
  8
0
 10
512.9646973567351
 20
48.10160138822374
 30
0.0
 11
512.9646973567351
 21
-4.668399461142457
 31
0.0
  0
LINE
  5
E0
  8
0
 10
512.9646973567351
 20
-4.668399461142457
 30
0.0
 11
508.9646973567351
 21
-4.668399461142457
 31
0.0
  0
LINE
  5
E1
  8
0
 10
508.9646973567351
 20
-4.668399461142457
 30
0.0
 11
508.9646973567351
 21
-7.398399461142446
 31
0.0
  0
LINE
  5
E2
  8
0
 10
468.0683462335032
 20
1.54315188158867
 30
0.0
 11
472.0683462335032
 21
1.543151881588783
 31
0.0
  0
LINE
  5
E3
  8
0
 10
472.0683462335032
 20
1.543151881588783
 30
0.0
 11
472.0683462335032
 21
-95.72684811841133
 31
0.0
  0
LINE
  5
E4
  8
0
 10
472.0683462335032
 20
-95.72684811841133
 30
0.0
 11
468.0683462335032
 21
-95.72684811841134
 31
0.0
  0
LINE
  5
E5
  8
0
 10
468.0683462335032
 20
-95.72684811841134
 30
0.0
 11
468.0683462335032
 21
-98.45684811841133
 31
0.0
  0
LINE
  5
E6
  8
0
 10
468.0683462335032
 20
-98.45684811841133
 30
0.0
 11
472.0683462335032
 21
-98.45684811841133
 31
0.0
  0
LINE
  5
E7
  8
0
 10
472.0683462335032
 20
-98.45684811841133
 30
0.0
 11
472.0683462335032
 21
-197.9568481184113
 31
0.0
  0
LINE
  5
E8
  8
0
 10
472.0683462335032
 20
-197.9568481184113
 30
0.0
 11
457.0683462335032
 21
-197.9568481184113
 31
0.0
  0
LINE
  5
E9
  8
0
 10
457.0683462335032
 20
-197.9568481184113
 30
0.0
 11
457.0683462335032
 21
42.04315273095486
 31
0.0
  0
LINE
  5
EA
  8
0
 10
457.0683462335032
 20
42.04315273095486
 30
0.0
 11
460.0683462782067
 21
42.04315273095486
 31
0.0
  0
LINE
  5
EB
  8
0
 10
460.0683462782067
 20
42.04315273095486
 30
0.0
 11
460.0683462782067
 21
44.17815273095485
 31
0.0
  0
LINE
  5
EC
  8
0
 10
460.0683462782067
 20
44.17815273095485
 30
0.0
 11
469.0683464123172
 21
44.17815273095485
 31
0.0
  0
LINE
  5
ED
  8
0
 10
469.0683464123172
 20
44.17815273095485
 30
0.0
 11
469.0683464123172
 21
42.04315273095486
 31
0.0
  0
LINE
  5
EE
  8
0
 10
469.0683464123172
 20
42.04315273095486
 30
0.0
 11
472.0683462335032
 21
42.04315273095486
 31
0.0
  0
LINE
  5
EF
  8
0
 10
472.0683462335032
 20
42.04315273095486
 30
0.0
 11
472.0683462335032
 21
4.273151881588661
 31
0.0
  0
LINE
  5
F0
  8
0
 10
472.0683462335032
 20
4.273151881588661
 30
0.0
 11
468.0683462335032
 21
4.27315188158866
 31
0.0
  0
LINE
  5
F1
  8
0
 10
468.0683462335032
 20
4.27315188158866
 30
0.0
 11
468.0683462335032
 21
1.54315188158867
 31
0.0
  0
LINE
  5
F2
  8
0
 10
420.1536405327502
 20
36.08423703524193
 30
0.0
 11
423.1536403539363
 21
36.08423703524193
 31
0.0
  0
LINE
  5
F3
  8
0
 10
423.1536403539363
 20
36.08423703524193
 30
0.0
 11
423.1536403539363
 21
-86.68576381412426
 31
0.0
  0
LINE
  5
F4
  8
0
 10
423.1536403539363
 20
-86.68576381412426
 30
0.0
 11
419.1536403539363
 21
-86.68576381412427
 31
0.0
  0
LINE
  5
F5
  8
0
 10
419.1536403539363
 20
-86.68576381412427
 30
0.0
 11
419.1536403539363
 21
-89.41576381412426
 31
0.0
  0
LINE
  5
F6
  8
0
 10
419.1536403539363
 20
-89.41576381412426
 30
0.0
 11
423.1536403539363
 21
-89.41576381412426
 31
0.0
  0
LINE
  5
F7
  8
0
 10
423.1536403539363
 20
-89.41576381412426
 30
0.0
 11
423.1536403539362
 21
-188.9157638141243
 31
0.0
  0
LINE
  5
F8
  8
0
 10
423.1536403539362
 20
-188.9157638141243
 30
0.0
 11
408.1536403539362
 21
-188.9157638141243
 31
0.0
  0
LINE
  5
F9
  8
0
 10
408.1536403539362
 20
-188.9157638141243
 30
0.0
 11
408.1536403539362
 21
36.08423703524193
 31
0.0
  0
LINE
  5
FA
  8
0
 10
408.1536403539362
 20
36.08423703524193
 30
0.0
 11
411.1536403986397
 21
36.08423703524193
 31
0.0
  0
LINE
  5
FB
  8
0
 10
411.1536403986397
 20
36.08423703524193
 30
0.0
 11
411.1536403986397
 21
38.21923703524192
 31
0.0
  0
LINE
  5
FC
  8
0
 10
411.1536403986397
 20
38.21923703524192
 30
0.0
 11
420.1536405327502
 21
38.21923703524192
 31
0.0
  0
LINE
  5
FD
  8
0
 10
420.1536405327502
 20
38.21923703524192
 30
0.0
 11
420.1536405327502
 21
36.08423703524193
 31
0.0
  0
LINE
  5
FE
  8
0
 10
371.716622473156
 20
26.48813793224863
 30
0.0
 11
374.7166222943421
 21
26.48813793224863
 31
0.0
  0
LINE
  5
FF
  8
0
 10
374.7166222943421
 20
26.48813793224863
 30
0.0
 11
374.7166222943421
 21
-81.28186291711755
 31
0.0
  0
LINE
  5
100
  8
0
 10
374.7166222943421
 20
-81.28186291711755
 30
0.0
 11
370.7166222943421
 21
-81.28186291711756
 31
0.0
  0
LINE
  5
101
  8
0
 10
370.7166222943421
 20
-81.28186291711756
 30
0.0
 11
370.7166222943421
 21
-84.01186291711755
 31
0.0
  0
LINE
  5
102
  8
0
 10
370.7166222943421
 20
-84.01186291711755
 30
0.0
 11
374.7166222943421
 21
-84.01186291711755
 31
0.0
  0
LINE
  5
103
  8
0
 10
374.7166222943421
 20
-84.01186291711755
 30
0.0
 11
374.7166222943421
 21
-183.5118629171176
 31
0.0
  0
LINE
  5
104
  8
0
 10
374.7166222943421
 20
-183.5118629171176
 30
0.0
 11
359.7166222943421
 21
-183.5118629171176
 31
0.0
  0
LINE
  5
105
  8
0
 10
359.7166222943421
 20
-183.5118629171176
 30
0.0
 11
359.7166222943421
 21
26.48813793224863
 31
0.0
  0
LINE
  5
106
  8
0
 10
359.7166222943421
 20
26.48813793224863
 30
0.0
 11
362.7166223390456
 21
26.48813793224863
 31
0.0
  0
LINE
  5
107
  8
0
 10
362.7166223390456
 20
26.48813793224863
 30
0.0
 11
362.7166223390456
 21
28.62313793224862
 31
0.0
  0
LINE
  5
108
  8
0
 10
362.7166223390456
 20
28.62313793224862
 30
0.0
 11
371.716622473156
 21
28.62313793224862
 31
0.0
  0
LINE
  5
109
  8
0
 10
371.716622473156
 20
28.62313793224862
 30
0.0
 11
371.716622473156
 21
26.48813793224863
 31
0.0
  0
LINE
  5
10A
  8
0
 10
530.3787543012744
 20
-7.398399461142446
 30
0.0
 11
534.3787543012744
 21
-7.398399461142446
 31
0.0
  0
LINE
  5
10B
  8
0
 10
534.3787543012744
 20
-7.398399461142446
 30
0.0
 11
534.3787543012744
 21
-104.6683994611424
 31
0.0
  0
LINE
  5
10C
  8
0
 10
534.3787543012744
 20
-104.6683994611424
 30
0.0
 11
530.3787543012744
 21
-104.6683994611425
 31
0.0
  0
LINE
  5
10D
  8
0
 10
530.3787543012744
 20
-104.6683994611425
 30
0.0
 11
530.3787543012744
 21
-107.3983994611424
 31
0.0
  0
LINE
  5
10E
  8
0
 10
530.3787543012744
 20
-107.3983994611424
 30
0.0
 11
534.3787543012744
 21
-107.3983994611422
 31
0.0
  0
LINE
  5
10F
  8
0
 10
534.3787543012744
 20
-107.3983994611422
 30
0.0
 11
534.3787543012744
 21
-206.8983994611424
 31
0.0
  0
LINE
  5
110
  8
0
 10
534.3787543012744
 20
-206.8983994611424
 30
0.0
 11
519.3787543012744
 21
-206.8983994611424
 31
0.0
  0
LINE
  5
111
  8
0
 10
519.3787543012744
 20
-206.8983994611424
 30
0.0
 11
519.3787543012744
 21
48.10160138822374
 31
0.0
  0
LINE
  5
112
  8
0
 10
519.3787543012744
 20
48.10160138822374
 30
0.0
 11
522.3787543459779
 21
48.10160138822374
 31
0.0
  0
LINE
  5
113
  8
0
 10
522.3787543459779
 20
48.10160138822374
 30
0.0
 11
522.3787543459779
 21
50.23660138822373
 31
0.0
  0
LINE
  5
114
  8
0
 10
522.3787543459779
 20
50.23660138822373
 30
0.0
 11
531.3787544800883
 21
50.23660138822373
 31
0.0
  0
LINE
  5
115
  8
0
 10
531.3787544800883
 20
50.23660138822373
 30
0.0
 11
531.3787544800883
 21
48.10160138822374
 31
0.0
  0
LINE
  5
116
  8
0
 10
531.3787544800883
 20
48.10160138822374
 30
0.0
 11
534.3787543012744
 21
48.10160138822374
 31
0.0
  0
LINE
  5
117
  8
0
 10
534.3787543012744
 20
48.10160138822374
 30
0.0
 11
534.3787543012744
 21
-4.668399461142457
 31
0.0
  0
LINE
  5
118
  8
0
 10
534.3787543012744
 20
-4.668399461142457
 30
0.0
 11
530.3787543012744
 21
-4.668399461142457
 31
0.0
  0
LINE
  5
119
  8
0
 10
530.3787543012744
 20
-4.668399461142457
 30
0.0
 11
530.3787543012744
 21
-7.398399461142446
 31
0.0
  0
LINE
  5
11A
  8
0
 10
579.2394502142107
 20
322.2239374218692
 30
0.0
 11
576.67408933146
 21
323.1576524233413
 31
0.0
  0
LINE
  5
11B
  8
0
 10
576.67408933146
 20
323.1576524233413
 30
0.0
 11
571.7284780589708
 21
309.569697126777
 31
0.0
  0
LINE
  5
11C
  8
0
 10
571.7284780589708
 20
309.569697126777
 30
0.0
 11
574.2938389417214
 21
308.635982125305
 31
0.0
  0
LINE
  5
11D
  8
0
 10
574.2938389417214
 20
308.635982125305
 30
0.0
 11
579.2394502142107
 21
322.2239374218692
 31
0.0
  0
LINE
  5
11E
  8
0
 10
515.3403510485981
 20
345.4813075145765
 30
0.0
 11
512.7749901658475
 21
346.4150225160487
 31
0.0
  0
LINE
  5
11F
  8
0
 10
512.7749901658475
 20
346.4150225160487
 30
0.0
 11
507.8293788933584
 21
332.8270672194844
 31
0.0
  0
LINE
  5
120
  8
0
 10
507.8293788933584
 20
332.8270672194844
 30
0.0
 11
510.3947397761089
 21
331.8933522180124
 31
0.0
  0
LINE
  5
121
  8
0
 10
510.3947397761089
 20
331.8933522180124
 30
0.0
 11
515.3403510485981
 21
345.4813075145765
 31
0.0
  0
LINE
  5
122
  8
0
 10
508.0728461661944
 20
322.662269185863
 30
0.0
 11
505.9815448136497
 21
324.4170793794639
 31
0.0
  0
LINE
  5
123
  8
0
 10
505.9815448136497
 20
324.4170793794639
 30
0.0
 11
496.6868359775823
 21
313.3400767319635
 31
0.0
  0
LINE
  5
124
  8
0
 10
496.6868359775823
 20
313.3400767319635
 30
0.0
 11
498.7781373301271
 21
311.5852665383626
 31
0.0
  0
LINE
  5
125
  8
0
 10
498.7781373301271
 20
311.5852665383626
 30
0.0
 11
508.0728461661944
 21
322.662269185863
 31
0.0
  0
LINE
  5
126
  8
0
 10
473.2040278637691
 20
290.8960848991554
 30
0.0
 11
472.7299683335632
 21
293.5846100942283
 31
0.0
  0
LINE
  5
127
  8
0
 10
472.7299683335632
 20
293.5846100942283
 30
0.0
 11
458.4896482250067
 21
291.0736574451645
 31
0.0
  0
LINE
  5
128
  8
0
 10
458.4896482250067
 20
291.0736574451645
 30
0.0
 11
458.9637077552126
 21
288.3851322500916
 31
0.0
  0
LINE
  5
129
  8
0
 10
458.9637077552126
 20
288.3851322500916
 30
0.0
 11
473.2040278637691
 21
290.8960848991554
 31
0.0
  0
LINE
  5
12A
  8
0
 10
493.4390546969337
 20
303.7050203164399
 30
0.0
 11
492.0740546820325
 21
306.0692696945809
 31
0.0
  0
LINE
  5
12B
  8
0
 10
492.0740546820325
 20
306.0692696945809
 30
0.0
 11
479.5513273433095
 21
298.8392696945809
 31
0.0
  0
LINE
  5
12C
  8
0
 10
479.5513273433095
 20
298.8392696945809
 30
0.0
 11
480.9163273582107
 21
296.4750203164398
 31
0.0
  0
LINE
  5
12D
  8
0
 10
480.9163273582107
 20
296.4750203164398
 30
0.0
 11
493.4390546969337
 21
303.7050203164399
 31
0.0
  0
LINE
  5
12E
  8
0
 10
436.0421479616199
 20
290.9798874292243
 30
0.0
 11
435.568088431414
 21
288.2913622341515
 31
0.0
  0
LINE
  5
12F
  8
0
 10
435.568088431414
 20
288.2913622341515
 30
0.0
 11
449.8084085399706
 21
285.7804095850876
 31
0.0
  0
LINE
  5
130
  8
0
 10
449.8084085399706
 20
285.7804095850876
 30
0.0
 11
450.2824680701764
 21
288.4689347801605
 31
0.0
  0
LINE
  5
131
  8
0
 10
450.2824680701764
 20
288.4689347801605
 30
0.0
 11
436.0421479616199
 21
290.9798874292243
 31
0.0
  0
LINE
  5
132
  8
0
 10
413.9163263747341
 20
298.569269694581
 30
0.0
 11
412.5513263598329
 21
296.2050203164399
 31
0.0
  0
LINE
  5
133
  8
0
 10
412.5513263598329
 20
296.2050203164399
 30
0.0
 11
425.0740536985559
 21
288.9750203164399
 31
0.0
  0
LINE
  5
134
  8
0
 10
425.0740536985559
 20
288.9750203164399
 30
0.0
 11
426.439053713457
 21
291.339269694581
 31
0.0
  0
LINE
  5
135
  8
0
 10
426.439053713457
 20
291.339269694581
 30
0.0
 11
413.9163263747341
 21
298.569269694581
 31
0.0
  0
LINE
  5
136
  8
0
 10
345.5692464233411
 20
269.2168546226714
 30
0.0
 11
343.4779450707964
 21
267.4620444290705
 31
0.0
  0
LINE
  5
137
  8
0
 10
343.4779450707964
 20
267.4620444290705
 30
0.0
 11
352.7726539068638
 21
256.3850417815701
 31
0.0
  0
LINE
  5
138
  8
0
 10
352.7726539068638
 20
256.3850417815701
 30
0.0
 11
354.8639552594085
 21
258.139851975171
 31
0.0
  0
LINE
  5
139
  8
0
 10
354.8639552594085
 20
258.139851975171
 30
0.0
 11
345.5692464233411
 21
269.2168546226714
 31
0.0
  0
LINE
  5
13A
  8
0
 10
322.4562128184249
 20
309.0622631115527
 30
0.0
 11
319.8908519356744
 21
308.1285481100807
 31
0.0
  0
LINE
  5
13B
  8
0
 10
319.8908519356744
 20
308.1285481100807
 30
0.0
 11
324.8364632081635
 21
294.5405928135165
 31
0.0
  0
LINE
  5
13C
  8
0
 10
324.8364632081635
 20
294.5405928135165
 30
0.0
 11
327.4018240909141
 21
295.4743078149884
 31
0.0
  0
LINE
  5
13D
  8
0
 10
327.4018240909141
 20
295.4743078149884
 30
0.0
 11
322.4562128184249
 21
309.0622631115527
 31
0.0
  0
LINE
  5
13E
  8
0
 10
397.6602693316484
 20
312.9264127326792
 30
0.0
 11
395.5689679791037
 21
311.1716025390784
 31
0.0
  0
LINE
  5
13F
  8
0
 10
395.5689679791037
 20
311.1716025390784
 30
0.0
 11
404.863676815171
 21
300.094599891578
 31
0.0
  0
LINE
  5
140
  8
0
 10
404.863676815171
 20
300.094599891578
 30
0.0
 11
406.9549781677157
 21
301.8494100851788
 31
0.0
  0
LINE
  5
141
  8
0
 10
406.9549781677157
 20
301.8494100851788
 30
0.0
 11
397.6602693316484
 21
312.9264127326792
 31
0.0
  0
LINE
  5
142
  8
0
 10
386.3553119840375
 20
332.3196332042601
 30
0.0
 11
383.789951101287
 21
331.3859182027879
 31
0.0
  0
LINE
  5
143
  8
0
 10
383.789951101287
 20
331.3859182027879
 30
0.0
 11
388.7355623737761
 21
317.7979629062238
 31
0.0
  0
LINE
  5
144
  8
0
 10
388.7355623737761
 20
317.7979629062238
 30
0.0
 11
391.3009232565267
 21
318.7316779076959
 31
0.0
  0
LINE
  5
145
  8
0
 10
391.3009232565267
 20
318.7316779076959
 30
0.0
 11
386.3553119840375
 21
332.3196332042601
 31
0.0
  0
LINE
  5
146
  8
0
 10
548.7778588858896
 20
269.6305186219556
 30
0.0
 11
550.8691602384342
 21
267.8757084283548
 31
0.0
  0
LINE
  5
147
  8
0
 10
550.8691602384342
 20
267.8757084283548
 30
0.0
 11
560.1638690745017
 21
278.9527110758552
 31
0.0
  0
LINE
  5
148
  8
0
 10
560.1638690745017
 20
278.9527110758552
 30
0.0
 11
558.072567721957
 21
280.707521269456
 31
0.0
  0
LINE
  5
149
  8
0
 10
558.072567721957
 20
280.707521269456
 30
0.0
 11
548.7778588858896
 21
269.6305186219556
 31
0.0
  0
LINE
  5
14A
  8
0
 10
379.9163258680945
 20
239.6795413597138
 30
0.0
 11
378.5513258531934
 21
237.3152919815728
 31
0.0
  0
LINE
  5
14B
  8
0
 10
378.5513258531934
 20
237.3152919815728
 30
0.0
 11
391.0740531919164
 21
230.0852919815728
 31
0.0
  0
LINE
  5
14C
  8
0
 10
391.0740531919164
 20
230.0852919815728
 30
0.0
 11
392.4390532068176
 21
232.4495413597138
 31
0.0
  0
LINE
  5
14D
  8
0
 10
392.4390532068176
 20
232.4495413597138
 30
0.0
 11
379.9163258680945
 21
239.6795413597138
 31
0.0
  0
LINE
  5
14E
  8
0
 10
514.9163278648501
 20
237.5852919815727
 30
0.0
 11
527.4390552035732
 21
244.8152919815727
 31
0.0
  0
LINE
  5
14F
  8
0
 10
527.4390552035732
 20
244.8152919815727
 30
0.0
 11
526.074055188672
 21
247.1795413597138
 31
0.0
  0
LINE
  5
150
  8
0
 10
526.074055188672
 20
247.1795413597138
 30
0.0
 11
513.551327849949
 21
239.9495413597138
 31
0.0
  0
LINE
  5
151
  8
0
 10
513.551327849949
 20
239.9495413597138
 30
0.0
 11
514.9163278648501
 21
237.5852919815727
 31
0.0
  0
LINE
  5
152
  8
0
 10
484.5380445908685
 20
226.6176818915131
 30
0.0
 11
470.297724482312
 21
224.1067292424493
 31
0.0
  0
LINE
  5
153
  8
0
 10
470.297724482312
 20
224.1067292424493
 30
0.0
 11
470.7717840125179
 21
221.4182040473765
 31
0.0
  0
LINE
  5
154
  8
0
 10
470.7717840125179
 20
221.4182040473765
 30
0.0
 11
485.0121041210744
 21
223.9291566964403
 31
0.0
  0
LINE
  5
155
  8
0
 10
485.0121041210744
 20
223.9291566964403
 30
0.0
 11
484.5380445908685
 21
226.6176818915131
 31
0.0
  0
LINE
  5
156
  8
0
 10
438.4743918128711
 20
221.5020065774454
 30
0.0
 11
424.2340717043145
 21
224.0129592265092
 31
0.0
  0
LINE
  5
157
  8
0
 10
424.2340717043145
 20
224.0129592265092
 30
0.0
 11
423.7600121741087
 21
221.3244340314363
 31
0.0
  0
LINE
  5
158
  8
0
 10
423.7600121741087
 20
221.3244340314363
 30
0.0
 11
438.0003322826652
 21
218.8134813823725
 31
0.0
  0
LINE
  5
159
  8
0
 10
438.0003322826652
 20
218.8134813823725
 30
0.0
 11
438.4743918128711
 21
221.5020065774454
 31
0.0
  0
LINE
  5
15A
  8
0
 10
423.4706715768104
 20
175.6530937325405
 30
0.0
 11
408.6985552816274
 21
173.0483710675365
 31
0.0
  0
LINE
  5
15B
  8
0
 10
408.6985552816274
 20
173.0483710675365
 30
0.0
 11
409.2194998198032
 21
170.0939477791504
 31
0.0
  0
LINE
  5
15C
  8
0
 10
409.2194998198032
 20
170.0939477791504
 30
0.0
 11
423.9916161149864
 21
172.6986704441543
 31
0.0
  0
LINE
  5
15D
  8
0
 10
423.9916161149864
 20
172.6986704441543
 30
0.0
 11
423.4706715768104
 21
175.6530937325405
 31
0.0
  0
LINE
  5
15E
  8
0
 10
514.7500010058285
 20
159.5580851732284
 30
0.0
 11
501.7596199490619
 21
167.0580851732284
 31
0.0
  0
LINE
  5
15F
  8
0
 10
501.7596199490619
 20
167.0580851732284
 30
0.0
 11
500.2596199341607
 21
164.4600089360655
 31
0.0
  0
LINE
  5
160
  8
0
 10
500.2596199341607
 20
164.4600089360655
 30
0.0
 11
513.2500009909273
 21
156.9600089360655
 31
0.0
  0
LINE
  5
161
  8
0
 10
513.2500009909273
 20
156.9600089360655
 30
0.0
 11
514.7500010058285
 21
159.5580851732284
 31
0.0
  0
LINE
  5
162
  8
0
 10
470.5293284231896
 20
175.6530937325405
 30
0.0
 11
455.7572121280065
 21
178.2578163975444
 31
0.0
  0
LINE
  5
163
  8
0
 10
455.7572121280065
 20
178.2578163975444
 30
0.0
 11
455.2362675898306
 21
175.3033931091583
 31
0.0
  0
LINE
  5
164
  8
0
 10
455.2362675898306
 20
175.3033931091583
 30
0.0
 11
470.0083838850137
 21
172.6986704441543
 31
0.0
  0
LINE
  5
165
  8
0
 10
470.0083838850137
 20
172.6986704441543
 30
0.0
 11
470.5293284231896
 21
175.6530937325405
 31
0.0
  0
LINE
  5
166
  8
0
 10
319.6716479931704
 20
88.55537132694643
 30
0.0
 11
314.5413458432854
 21
74.4599820151578
 31
0.0
  0
LINE
  5
167
  8
0
 10
314.5413458432854
 20
74.4599820151578
 30
0.0
 11
317.3604237336482
 21
73.4339215749878
 31
0.0
  0
LINE
  5
168
  8
0
 10
317.3604237336482
 20
73.4339215749878
 30
0.0
 11
322.4907258835332
 21
87.52931088677643
 31
0.0
  0
LINE
  5
169
  8
0
 10
322.4907258835332
 20
87.52931088677643
 30
0.0
 11
319.6716479931704
 21
88.55537132694643
 31
0.0
  0
LINE
  5
16A
  8
0
 10
343.20097641636
 20
129.3093636238853
 30
0.0
 11
333.5591622710619
 21
117.8186969771006
 31
0.0
  0
LINE
  5
16B
  8
0
 10
333.5591622710619
 20
117.8186969771006
 30
0.0
 11
335.8572956232488
 21
115.8903341288844
 31
0.0
  0
LINE
  5
16C
  8
0
 10
335.8572956232488
 20
115.8903341288844
 30
0.0
 11
345.4991097685469
 21
127.381000775669
 31
0.0
  0
LINE
  5
16D
  8
0
 10
345.4991097685469
 20
127.381000775669
 30
0.0
 11
343.20097641636
 21
129.3093636238853
 31
0.0
  0
LINE
  5
16E
  8
0
 10
379.2499989941716
 20
159.5580851732284
 30
0.0
 11
366.259617937405
 21
152.0580851732284
 31
0.0
  0
LINE
  5
16F
  8
0
 10
366.259617937405
 20
152.0580851732284
 30
0.0
 11
367.7596179523062
 21
149.4600089360655
 31
0.0
  0
LINE
  5
170
  8
0
 10
367.7596179523062
 20
149.4600089360655
 30
0.0
 11
380.7499990090728
 21
156.9600089360655
 31
0.0
  0
LINE
  5
171
  8
0
 10
380.7499990090728
 20
156.9600089360655
 30
0.0
 11
379.2499989941716
 21
159.5580851732284
 31
0.0
  0
LINE
  5
172
  8
0
 10
466.2596194275212
 20
105.5702806011984
 30
0.0
 11
479.2500004842877
 21
98.07028060119835
 31
0.0
  0
LINE
  5
173
  8
0
 10
479.2500004842877
 20
98.07028060119835
 30
0.0
 11
480.750000499189
 21
100.6683568383612
 31
0.0
  0
LINE
  5
174
  8
0
 10
480.750000499189
 20
100.6683568383612
 30
0.0
 11
467.7596194424224
 21
108.1683568383612
 31
0.0
  0
LINE
  5
175
  8
0
 10
467.7596194424224
 20
108.1683568383612
 30
0.0
 11
466.2596194275212
 21
105.5702806011984
 31
0.0
  0
LINE
  5
176
  8
0
 10
443.4281913325253
 20
108.3364649064431
 30
0.0
 11
458.2003076277084
 21
105.7317422414392
 31
0.0
  0
LINE
  5
177
  8
0
 10
458.2003076277084
 20
105.7317422414392
 30
0.0
 11
458.7212521658843
 21
108.6861655298253
 31
0.0
  0
LINE
  5
178
  8
0
 10
458.7212521658843
 20
108.6861655298253
 30
0.0
 11
443.9491358707012
 21
111.2908881948293
 31
0.0
  0
LINE
  5
179
  8
0
 10
443.9491358707012
 20
111.2908881948293
 30
0.0
 11
443.4281913325253
 21
108.3364649064431
 31
0.0
  0
LINE
  5
17A
  8
0
 10
435.2787478341157
 20
108.6861655298253
 30
0.0
 11
420.5066315389327
 21
106.0814428648214
 31
0.0
  0
LINE
  5
17B
  8
0
 10
420.5066315389327
 20
106.0814428648214
 30
0.0
 11
421.0275760771085
 21
103.1270195764352
 31
0.0
  0
LINE
  5
17C
  8
0
 10
421.0275760771085
 20
103.1270195764352
 30
0.0
 11
435.7996923722916
 21
105.7317422414392
 31
0.0
  0
LINE
  5
17D
  8
0
 10
435.7996923722916
 20
105.7317422414392
 30
0.0
 11
435.2787478341157
 21
108.6861655298253
 31
0.0
  0
LINE
  5
17E
  8
0
 10
413.2499995008111
 20
100.6683568383612
 30
0.0
 11
400.2596184440445
 21
93.16835683836123
 31
0.0
  0
LINE
  5
17F
  8
0
 10
400.2596184440445
 20
93.16835683836123
 30
0.0
 11
401.7596184589457
 21
90.57028060119835
 31
0.0
  0
LINE
  5
180
  8
0
 10
401.7596184589457
 20
90.57028060119835
 30
0.0
 11
414.7499995157123
 21
98.07028060119835
 31
0.0
  0
LINE
  5
181
  8
0
 10
414.7499995157123
 20
98.07028060119835
 30
0.0
 11
413.2499995008111
 21
100.6683568383612
 31
0.0
  0
LINE
  5
182
  8
0
 10
395.2919993246672
 20
85.5998055138774
 30
0.0
 11
385.6501851793691
 21
74.10913886709272
 31
0.0
  0
LINE
  5
183
  8
0
 10
385.6501851793691
 20
74.10913886709272
 30
0.0
 11
387.948318531556
 21
72.18077601887654
 31
0.0
  0
LINE
  5
184
  8
0
 10
387.948318531556
 20
72.18077601887654
 30
0.0
 11
397.5901326768541
 21
83.67144266566122
 31
0.0
  0
LINE
  5
185
  8
0
 10
397.5901326768541
 20
83.67144266566122
 30
0.0
 11
395.2919993246672
 21
85.5998055138774
 31
0.0
  0
LINE
  5
186
  8
0
 10
668.5517602390685
 20
82.20819642276666
 30
0.0
 11
668.5517602390685
 21
217.2081972721328
 31
0.0
  0
LINE
  5
187
  8
0
 10
668.5517602390685
 20
217.2081972721328
 30
0.0
 11
671.551760283772
 21
217.2081972721328
 31
0.0
  0
LINE
  5
188
  8
0
 10
671.551760283772
 20
217.2081972721328
 30
0.0
 11
671.551760283772
 21
219.3431972721328
 31
0.0
  0
LINE
  5
189
  8
0
 10
671.551760283772
 20
219.3431972721328
 30
0.0
 11
680.5517604178824
 21
219.3431972721328
 31
0.0
  0
LINE
  5
18A
  8
0
 10
680.5517604178824
 20
219.3431972721328
 30
0.0
 11
680.5517604178824
 21
217.2081972721328
 31
0.0
  0
LINE
  5
18B
  8
0
 10
680.5517604178824
 20
217.2081972721328
 30
0.0
 11
683.5517602390685
 21
217.2081972721328
 31
0.0
  0
LINE
  5
18C
  8
0
 10
683.5517602390685
 20
217.2081972721328
 30
0.0
 11
683.5517602390685
 21
82.20819642276666
 31
0.0
  0
LINE
  5
18D
  8
0
 10
683.5517602390685
 20
82.20819642276666
 30
0.0
 11
668.5517602390685
 21
82.20819642276666
 31
0.0
  0
LINE
  5
18E
  8
0
 10
382.3649990314245
 20
354.4098225069991
 30
0.0
 11
379.6349990016222
 21
354.4098225069991
 31
0.0
  0
LINE
  5
18F
  8
0
 10
379.6349990016222
 20
354.4098225069991
 30
0.0
 11
379.6349990016222
 21
339.9498225069991
 31
0.0
  0
LINE
  5
190
  8
0
 10
379.6349990016222
 20
339.9498225069991
 30
0.0
 11
382.3649990314245
 21
339.9498225069991
 31
0.0
  0
LINE
  5
191
  8
0
 10
382.3649990314245
 20
339.9498225069991
 30
0.0
 11
382.3649990314245
 21
354.4098225069991
 31
0.0
  0
LINE
  5
192
  8
0
 10
314.3649980181456
 20
354.4098225069991
 30
0.0
 11
311.6349979883432
 21
354.4098225069991
 31
0.0
  0
LINE
  5
193
  8
0
 10
311.6349979883432
 20
354.4098225069991
 30
0.0
 11
311.6349979883432
 21
339.9498225069991
 31
0.0
  0
LINE
  5
194
  8
0
 10
311.6349979883432
 20
339.9498225069991
 30
0.0
 11
314.3649980181456
 21
339.9498225069991
 31
0.0
  0
LINE
  5
195
  8
0
 10
314.3649980181456
 20
339.9498225069991
 30
0.0
 11
314.3649980181456
 21
354.4098225069991
 31
0.0
  0
LINE
  5
196
  8
0
 10
668.7775061702173
 20
477.5455248921304
 30
0.0
 11
670.2775061851185
 21
474.9474486549676
 31
0.0
  0
LINE
  5
197
  8
0
 10
670.2775061851185
 20
474.9474486549676
 30
0.0
 11
683.267887241885
 21
482.4474486549676
 31
0.0
  0
LINE
  5
198
  8
0
 10
683.267887241885
 20
482.4474486549676
 30
0.0
 11
681.7678872269839
 21
485.0455248921304
 31
0.0
  0
LINE
  5
199
  8
0
 10
681.7678872269839
 20
485.0455248921304
 30
0.0
 11
668.7775061702173
 21
477.5455248921304
 31
0.0
  0
LINE
  5
19A
  8
0
 10
541.2273460931362
 20
452.9746032324282
 30
0.0
 11
539.1360447405915
 21
451.2197930388273
 31
0.0
  0
LINE
  5
19B
  8
0
 10
539.1360447405915
 20
451.2197930388273
 30
0.0
 11
548.430753576659
 21
440.1427903913269
 31
0.0
  0
LINE
  5
19C
  8
0
 10
548.430753576659
 20
440.1427903913269
 30
0.0
 11
550.5220549292036
 21
441.8976005849277
 31
0.0
  0
LINE
  5
19D
  8
0
 10
550.5220549292036
 20
441.8976005849277
 30
0.0
 11
541.2273460931362
 21
452.9746032324282
 31
0.0
  0
LINE
  5
19E
  8
0
 10
582.3650020116568
 20
369.4098225069991
 30
0.0
 11
579.6350019818544
 21
369.4098225069991
 31
0.0
  0
LINE
  5
19F
  8
0
 10
579.6350019818544
 20
369.4098225069991
 30
0.0
 11
579.6350019818544
 21
354.9498225069991
 31
0.0
  0
LINE
  5
1A0
  8
0
 10
579.6350019818544
 20
354.9498225069991
 30
0.0
 11
582.3650020116568
 21
354.9498225069991
 31
0.0
  0
LINE
  5
1A1
  8
0
 10
582.3650020116568
 20
354.9498225069991
 30
0.0
 11
582.3650020116568
 21
369.4098225069991
 31
0.0
  0
LINE
  5
1A2
  8
0
 10
569.1635367918365
 20
414.8190522004818
 30
0.0
 11
566.5981759090859
 21
413.8853371990097
 31
0.0
  0
LINE
  5
1A3
  8
0
 10
566.5981759090859
 20
413.8853371990097
 30
0.0
 11
571.543787181575
 21
400.2973819024455
 31
0.0
  0
LINE
  5
1A4
  8
0
 10
571.543787181575
 20
400.2973819024455
 30
0.0
 11
574.1091480643256
 21
401.2310969039175
 31
0.0
  0
LINE
  5
1A5
  8
0
 10
574.1091480643256
 20
401.2310969039175
 30
0.0
 11
569.1635367918365
 21
414.8190522004818
 31
0.0
  0
LINE
  5
1A6
  8
0
 10
636.0770505038743
 20
443.3061366960027
 30
0.0
 11
638.375183856061
 21
441.3777738477864
 31
0.0
  0
LINE
  5
1A7
  8
0
 10
638.375183856061
 20
441.3777738477864
 30
0.0
 11
648.0169980013591
 21
452.8684404945711
 31
0.0
  0
LINE
  5
1A8
  8
0
 10
648.0169980013591
 20
452.8684404945711
 30
0.0
 11
645.7188646491722
 21
454.7968033427874
 31
0.0
  0
LINE
  5
1A9
  8
0
 10
645.7188646491722
 20
454.7968033427874
 30
0.0
 11
636.0770505038743
 21
443.3061366960027
 31
0.0
  0
LINE
  5
1AA
  8
0
 10
617.0592340760976
 20
399.9474217340598
 30
0.0
 11
619.8783119664604
 21
398.9213612938898
 31
0.0
  0
LINE
  5
1AB
  8
0
 10
619.8783119664604
 20
398.9213612938898
 30
0.0
 11
625.0086141163455
 21
413.0167506056785
 31
0.0
  0
LINE
  5
1AC
  8
0
 10
625.0086141163455
 20
413.0167506056785
 30
0.0
 11
622.1895362259827
 21
414.0428110458485
 31
0.0
  0
LINE
  5
1AD
  8
0
 10
622.1895362259827
 20
414.0428110458485
 30
0.0
 11
617.0592340760976
 21
399.9474217340598
 31
0.0
  0
LINE
  5
1AE
  8
0
 10
457.9578520383801
 20
418.3797575847739
 30
0.0
 11
458.431911568586
 21
421.0682827798468
 31
0.0
  0
LINE
  5
1AF
  8
0
 10
458.431911568586
 20
421.0682827798468
 30
0.0
 11
444.1915914600294
 21
423.5792354289106
 31
0.0
  0
LINE
  5
1B0
  8
0
 10
444.1915914600294
 20
423.5792354289106
 30
0.0
 11
443.7175319298236
 21
420.8907102338378
 31
0.0
  0
LINE
  5
1B1
  8
0
 10
443.7175319298236
 20
420.8907102338378
 30
0.0
 11
457.9578520383801
 21
418.3797575847739
 31
0.0
  0
LINE
  5
1B2
  8
0
 10
479.083673625266
 20
410.7903753194173
 30
0.0
 11
480.4486736401672
 21
413.1546246975583
 31
0.0
  0
LINE
  5
1B3
  8
0
 10
480.4486736401672
 20
413.1546246975583
 30
0.0
 11
467.9259463014442
 21
420.3846246975584
 31
0.0
  0
LINE
  5
1B4
  8
0
 10
467.9259463014442
 20
420.3846246975584
 30
0.0
 11
466.560946286543
 21
418.0203753194173
 31
0.0
  0
LINE
  5
1B5
  8
0
 10
466.560946286543
 20
418.0203753194173
 30
0.0
 11
479.083673625266
 21
410.7903753194173
 31
0.0
  0
LINE
  5
1B6
  8
0
 10
489.136323184829
 20
409.2650451224203
 30
0.0
 11
487.0450218322843
 21
407.5102349288194
 31
0.0
  0
LINE
  5
1B7
  8
0
 10
487.0450218322843
 20
407.5102349288194
 30
0.0
 11
496.3397306683516
 21
396.433232281319
 31
0.0
  0
LINE
  5
1B8
  8
0
 10
496.3397306683516
 20
396.433232281319
 30
0.0
 11
498.4310320208963
 21
398.1880424749199
 31
0.0
  0
LINE
  5
1B9
  8
0
 10
498.4310320208963
 20
398.1880424749199
 30
0.0
 11
489.136323184829
 21
409.2650451224203
 31
0.0
  0
LINE
  5
1BA
  8
0
 10
505.2644376262239
 20
391.5616821077746
 30
0.0
 11
502.6990767434733
 21
390.6279671063024
 31
0.0
  0
LINE
  5
1BB
  8
0
 10
502.6990767434733
 20
390.6279671063024
 30
0.0
 11
507.6446880159625
 21
377.0400118097383
 31
0.0
  0
LINE
  5
1BC
  8
0
 10
507.6446880159625
 20
377.0400118097383
 30
0.0
 11
510.210048898713
 21
377.9737268112104
 31
0.0
  0
LINE
  5
1BD
  8
0
 10
510.210048898713
 20
377.9737268112104
 30
0.0
 11
505.2644376262239
 21
391.5616821077746
 31
0.0
  0
LINE
  5
1BE
  8
0
 10
514.3650009983778
 20
369.4098225069991
 30
0.0
 11
511.6350009685755
 21
369.4098225069991
 31
0.0
  0
LINE
  5
1BF
  8
0
 10
511.6350009685755
 20
369.4098225069991
 30
0.0
 11
511.6350009685755
 21
354.9498225069991
 31
0.0
  0
LINE
  5
1C0
  8
0
 10
511.6350009685755
 20
354.9498225069991
 30
0.0
 11
514.3650009983778
 21
354.9498225069991
 31
0.0
  0
LINE
  5
1C1
  8
0
 10
514.3650009983778
 20
354.9498225069991
 30
0.0
 11
514.3650009983778
 21
369.4098225069991
 31
0.0
  0
LINE
  5
1C2
  8
0
 10
501.9259468080837
 20
479.2743530324255
 30
0.0
 11
500.5609467931825
 21
476.9101036542845
 31
0.0
  0
LINE
  5
1C3
  8
0
 10
500.5609467931825
 20
476.9101036542845
 30
0.0
 11
513.0836741319055
 21
469.6801036542844
 31
0.0
  0
LINE
  5
1C4
  8
0
 10
513.0836741319055
 20
469.6801036542844
 30
0.0
 11
514.4486741468066
 21
472.0443530324255
 31
0.0
  0
LINE
  5
1C5
  8
0
 10
514.4486741468066
 20
472.0443530324255
 30
0.0
 11
501.9259468080837
 21
479.2743530324255
 31
0.0
  0
LINE
  5
1C6
  8
0
 10
455.9996677173347
 20
490.5461636316257
 30
0.0
 11
455.5256081871289
 21
487.8576384365529
 31
0.0
  0
LINE
  5
1C7
  8
0
 10
455.5256081871289
 20
487.8576384365529
 30
0.0
 11
469.7659282956854
 21
485.3466857874891
 31
0.0
  0
LINE
  5
1C8
  8
0
 10
469.7659282956854
 20
485.3466857874891
 30
0.0
 11
470.2399878258913
 21
488.0352109825619
 31
0.0
  0
LINE
  5
1C9
  8
0
 10
470.2399878258913
 20
488.0352109825619
 30
0.0
 11
455.9996677173347
 21
490.5461636316257
 31
0.0
  0
LINE
  5
1CA
  8
0
 10
423.702275517688
 20
485.2529157715489
 30
0.0
 11
423.2282159874822
 21
487.9414409666218
 31
0.0
  0
LINE
  5
1CB
  8
0
 10
423.2282159874822
 20
487.9414409666218
 30
0.0
 11
408.9878958789257
 21
485.4304883175579
 31
0.0
  0
LINE
  5
1CC
  8
0
 10
408.9878958789257
 20
485.4304883175579
 30
0.0
 11
409.4619554091315
 21
482.7419631224851
 31
0.0
  0
LINE
  5
1CD
  8
0
 10
409.4619554091315
 20
482.7419631224851
 30
0.0
 11
423.702275517688
 21
485.2529157715489
 31
0.0
  0
LINE
  5
1CE
  8
0
 10
380.4486721500509
 20
469.4101036542845
 30
0.0
 11
379.0836721351498
 21
471.7743530324255
 31
0.0
  0
LINE
  5
1CF
  8
0
 10
379.0836721351498
 20
471.7743530324255
 30
0.0
 11
366.5609447964268
 21
464.5443530324255
 31
0.0
  0
LINE
  5
1D0
  8
0
 10
366.5609447964268
 20
464.5443530324255
 30
0.0
 11
367.925944811328
 21
462.1801036542844
 31
0.0
  0
LINE
  5
1D1
  8
0
 10
367.925944811328
 20
462.1801036542844
 30
0.0
 11
380.4486721500509
 21
469.4101036542845
 31
0.0
  0
LINE
  5
1D2
  8
0
 10
435.5103517749933
 20
418.2859875688338
 30
0.0
 11
435.0362922447875
 21
420.9745127639067
 31
0.0
  0
LINE
  5
1D3
  8
0
 10
435.0362922447875
 20
420.9745127639067
 30
0.0
 11
420.7959721362309
 21
418.4635601148428
 31
0.0
  0
LINE
  5
1D4
  8
0
 10
420.7959721362309
 20
418.4635601148428
 30
0.0
 11
421.2700316664368
 21
415.77503491977
 31
0.0
  0
LINE
  5
1D5
  8
0
 10
421.2700316664368
 20
415.77503491977
 30
0.0
 11
435.5103517749933
 21
418.2859875688338
 31
0.0
  0
LINE
  5
1D6
  8
0
 10
414.4486726566905
 20
410.5203753194173
 30
0.0
 11
413.0836726417893
 21
412.8846246975584
 31
0.0
  0
LINE
  5
1D7
  8
0
 10
413.0836726417893
 20
412.8846246975584
 30
0.0
 11
400.5609453030663
 21
405.6546246975583
 31
0.0
  0
LINE
  5
1D8
  8
0
 10
400.5609453030663
 20
405.6546246975583
 30
0.0
 11
401.9259453179675
 21
403.2903753194173
 31
0.0
  0
LINE
  5
1D9
  8
0
 10
401.9259453179675
 20
403.2903753194173
 30
0.0
 11
414.4486726566905
 21
410.5203753194173
 31
0.0
  0
LINE
  5
1DA
  8
0
 10
397.3131640224177
 20
396.0195682820348
 30
0.0
 11
395.221862669873
 21
397.7743784756357
 31
0.0
  0
LINE
  5
1DB
  8
0
 10
395.221862669873
 20
397.7743784756357
 30
0.0
 11
385.9271538338056
 21
386.6973758281353
 31
0.0
  0
LINE
  5
1DC
  8
0
 10
385.9271538338056
 20
386.6973758281353
 30
0.0
 11
388.0184551863503
 21
384.9425656345344
 31
0.0
  0
LINE
  5
1DD
  8
0
 10
388.0184551863503
 20
384.9425656345344
 30
0.0
 11
397.3131640224177
 21
396.0195682820348
 31
0.0
  0
LINE
  5
1DE
  8
0
 10
386.1706211066416
 20
376.5325777945138
 30
0.0
 11
383.6052602238911
 21
377.466292795986
 31
0.0
  0
LINE
  5
1DF
  8
0
 10
383.6052602238911
 20
377.466292795986
 30
0.0
 11
378.6596489514019
 21
363.8783374994217
 31
0.0
  0
LINE
  5
1E0
  8
0
 10
378.6596489514019
 20
363.8783374994217
 30
0.0
 11
381.2250098341525
 21
362.9446224979496
 31
0.0
  0
LINE
  5
1E1
  8
0
 10
381.2250098341525
 20
362.9446224979496
 30
0.0
 11
386.1706211066416
 21
376.5325777945138
 31
0.0
  0
LINE
  5
1E2
  8
0
 10
345.2221411141104
 20
439.7291263920426
 30
0.0
 11
343.1308397615657
 21
441.4839365856435
 31
0.0
  0
LINE
  5
1E3
  8
0
 10
343.1308397615657
 20
441.4839365856435
 30
0.0
 11
333.8361309254984
 21
430.4069339381431
 31
0.0
  0
LINE
  5
1E4
  8
0
 10
333.8361309254984
 20
430.4069339381431
 30
0.0
 11
335.9274322780431
 21
428.6521237445422
 31
0.0
  0
LINE
  5
1E5
  8
0
 10
335.9274322780431
 20
428.6521237445422
 30
0.0
 11
345.2221411141104
 21
439.7291263920426
 31
0.0
  0
LINE
  5
1E6
  8
0
 10
322.2715219410292
 20
399.7899478872213
 30
0.0
 11
319.7061610582787
 21
400.7236628886933
 31
0.0
  0
LINE
  5
1E7
  8
0
 10
319.7061610582787
 20
400.7236628886933
 30
0.0
 11
314.7605497857894
 21
387.1357075921291
 31
0.0
  0
LINE
  5
1E8
  8
0
 10
314.7605497857894
 20
387.1357075921291
 30
0.0
 11
317.32591066854
 21
386.201992590657
 31
0.0
  0
LINE
  5
1E9
  8
0
 10
317.32591066854
 20
386.201992590657
 30
0.0
 11
322.2715219410292
 21
399.7899478872213
 31
0.0
  0
LINE
  5
1EA
  8
0
 10
680.9583332417101
 20
376.6900516413525
 30
0.0
 11
683.777411132073
 21
375.6639912011826
 31
0.0
  0
LINE
  5
1EB
  8
0
 10
683.777411132073
 20
375.6639912011826
 30
0.0
 11
688.907713281958
 21
389.7593805129711
 31
0.0
  0
LINE
  5
1EC
  8
0
 10
688.907713281958
 20
389.7593805129711
 30
0.0
 11
686.0886353915953
 21
390.7854409531413
 31
0.0
  0
LINE
  5
1ED
  8
0
 10
686.0886353915953
 20
390.7854409531413
 30
0.0
 11
680.9583332417101
 21
376.6900516413525
 31
0.0
  0
LINE
  5
1EE
  8
0
 10
688.1680734121815
 20
399.5965785859949
 30
0.0
 11
690.4662067643682
 21
397.6682157377786
 31
0.0
  0
LINE
  5
1EF
  8
0
 10
690.4662067643682
 20
397.6682157377786
 30
0.0
 11
700.1080209096663
 21
409.1588823845633
 31
0.0
  0
LINE
  5
1F0
  8
0
 10
700.1080209096663
 20
409.1588823845633
 30
0.0
 11
697.8098875574796
 21
411.0872452327795
 31
0.0
  0
LINE
  5
1F1
  8
0
 10
697.8098875574796
 20
411.0872452327795
 30
0.0
 11
688.1680734121815
 21
399.5965785859949
 31
0.0
  0
LINE
  5
1F2
  8
0
 10
608.4986356369825
 20
301.0693165120962
 30
0.0
 11
608.4986356369825
 21
303.2043165120962
 31
0.0
  0
LINE
  5
1F3
  8
0
 10
608.4986356369825
 20
303.2043165120962
 30
0.0
 11
617.498635771093
 21
303.2043165120962
 31
0.0
  0
LINE
  5
1F4
  8
0
 10
617.498635771093
 20
303.2043165120962
 30
0.0
 11
617.498635771093
 21
301.0693165120962
 31
0.0
  0
LINE
  5
1F5
  8
0
 10
617.498635771093
 20
301.0693165120962
 30
0.0
 11
620.498635592279
 21
301.0693165120962
 31
0.0
  0
LINE
  5
1F6
  8
0
 10
620.498635592279
 20
301.0693165120962
 30
0.0
 11
620.498635592279
 21
241.06931566273
 31
0.0
  0
LINE
  5
1F7
  8
0
 10
620.498635592279
 20
241.06931566273
 30
0.0
 11
605.498635592279
 21
241.06931566273
 31
0.0
  0
LINE
  5
1F8
  8
0
 10
605.498635592279
 20
241.06931566273
 30
0.0
 11
605.498635592279
 21
301.0693165120962
 31
0.0
  0
LINE
  5
1F9
  8
0
 10
605.498635592279
 20
301.0693165120962
 30
0.0
 11
608.4986356369825
 21
301.0693165120962
 31
0.0
  0
LINE
  5
1FA
  8
0
 10
725.9885598096228
 20
501.1405334514425
 30
0.0
 11
711.2164435144397
 21
498.5358107864386
 31
0.0
  0
LINE
  5
1FB
  8
0
 10
711.2164435144397
 20
498.5358107864386
 30
0.0
 11
711.7373880526154
 21
495.5813874980524
 31
0.0
  0
LINE
  5
1FC
  8
0
 10
711.7373880526154
 20
495.5813874980524
 30
0.0
 11
726.5095043477986
 21
498.1861101630564
 31
0.0
  0
LINE
  5
1FD
  8
0
 10
726.5095043477986
 20
498.1861101630564
 30
0.0
 11
725.9885598096228
 21
501.1405334514425
 31
0.0
  0
LINE
  5
1FE
  8
0
 10
760.7181958605206
 20
431.2191819603412
 30
0.0
 11
761.2391403986966
 21
434.1736052487274
 31
0.0
  0
LINE
  5
1FF
  8
0
 10
761.2391403986966
 20
434.1736052487274
 30
0.0
 11
746.4670241035133
 21
436.7783279137314
 31
0.0
  0
LINE
  5
200
  8
0
 10
746.4670241035133
 20
436.7783279137314
 30
0.0
 11
745.9460795653375
 21
433.8239046253452
 31
0.0
  0
LINE
  5
201
  8
0
 10
745.9460795653375
 20
433.8239046253452
 30
0.0
 11
760.7181958605206
 21
431.2191819603412
 31
0.0
  0
LINE
  5
202
  8
0
 10
758.2751003608187
 20
503.7452561164465
 30
0.0
 11
757.7541558226428
 21
500.7908328280603
 31
0.0
  0
LINE
  5
203
  8
0
 10
757.7541558226428
 20
500.7908328280603
 30
0.0
 11
772.526272117826
 21
498.1861101630564
 31
0.0
  0
LINE
  5
204
  8
0
 10
772.526272117826
 20
498.1861101630564
 30
0.0
 11
773.0472166560019
 21
501.1405334514425
 31
0.0
  0
LINE
  5
205
  8
0
 10
773.0472166560019
 20
501.1405334514425
 30
0.0
 11
758.2751003608187
 21
503.7452561164465
 31
0.0
  0
LINE
  5
206
  8
0
 10
815.7678892237395
 20
482.4474486549676
 30
0.0
 11
817.2678892386407
 21
485.0455248921304
 31
0.0
  0
LINE
  5
207
  8
0
 10
817.2678892386407
 20
485.0455248921304
 30
0.0
 11
804.277508181874
 21
492.5455248921304
 31
0.0
  0
LINE
  5
208
  8
0
 10
804.277508181874
 20
492.5455248921304
 30
0.0
 11
802.777508166973
 21
489.9474486549676
 31
0.0
  0
LINE
  5
209
  8
0
 10
802.777508166973
 20
489.9474486549676
 30
0.0
 11
815.7678892237395
 21
482.4474486549676
 31
0.0
  0
LINE
  5
20A
  8
0
 10
851.0187784642654
 20
452.8684404945711
 30
0.0
 11
853.3169118164523
 21
454.7968033427873
 31
0.0
  0
LINE
  5
20B
  8
0
 10
853.3169118164523
 20
454.7968033427873
 30
0.0
 11
843.6750976711542
 21
466.287469989572
 31
0.0
  0
LINE
  5
20C
  8
0
 10
843.6750976711542
 20
466.287469989572
 30
0.0
 11
841.3769643189673
 21
464.3591071413558
 31
0.0
  0
LINE
  5
20D
  8
0
 10
841.3769643189673
 20
464.3591071413558
 30
0.0
 11
851.0187784642654
 21
452.8684404945711
 31
0.0
  0
LINE
  5
20E
  8
0
 10
781.7678887171
 20
423.5577203201004
 30
0.0
 11
783.2678887320012
 21
426.1557965572633
 31
0.0
  0
LINE
  5
20F
  8
0
 10
783.2678887320012
 20
426.1557965572633
 30
0.0
 11
770.2775076752346
 21
433.6557965572633
 31
0.0
  0
LINE
  5
210
  8
0
 10
770.2775076752346
 20
433.6557965572633
 30
0.0
 11
768.7775076603335
 21
431.0577203201004
 31
0.0
  0
LINE
  5
211
  8
0
 10
768.7775076603335
 20
431.0577203201004
 30
0.0
 11
781.7678887171
 21
423.5577203201004
 31
0.0
  0
LINE
  5
212
  8
0
 10
798.9277555559582
 20
409.1588823845632
 30
0.0
 11
801.225888908145
 21
411.0872452327795
 31
0.0
  0
LINE
  5
213
  8
0
 10
801.225888908145
 20
411.0872452327795
 30
0.0
 11
791.584074762847
 21
422.5779118795642
 31
0.0
  0
LINE
  5
214
  8
0
 10
791.584074762847
 20
422.5779118795642
 30
0.0
 11
789.2859414106601
 21
420.6495490313479
 31
0.0
  0
LINE
  5
215
  8
0
 10
789.2859414106601
 20
420.6495490313479
 30
0.0
 11
798.9277555559582
 21
409.1588823845632
 31
0.0
  0
LINE
  5
216
  8
0
 10
874.0271623492791
 20
413.0167506056783
 30
0.0
 11
876.8462402396418
 21
414.0428110458484
 31
0.0
  0
LINE
  5
217
  8
0
 10
876.8462402396418
 20
414.0428110458484
 30
0.0
 11
871.7159380897568
 21
428.138200357637
 31
0.0
  0
LINE
  5
218
  8
0
 10
871.7159380897568
 20
428.138200357637
 30
0.0
 11
868.896860199394
 21
427.1121399174671
 31
0.0
  0
LINE
  5
219
  8
0
 10
868.896860199394
 20
427.1121399174671
 30
0.0
 11
874.0271623492791
 21
413.0167506056783
 31
0.0
  0
LINE
  5
21A
  8
0
 10
810.1280631836665
 20
389.7593805129711
 30
0.0
 11
812.9471410740293
 21
390.7854409531411
 31
0.0
  0
LINE
  5
21B
  8
0
 10
812.9471410740293
 20
390.7854409531411
 30
0.0
 11
807.8168389241443
 21
404.8808302649297
 31
0.0
  0
LINE
  5
21C
  8
0
 10
807.8168389241443
 20
404.8808302649297
 30
0.0
 11
804.9977610337816
 21
403.8547698247598
 31
0.0
  0
LINE
  5
21D
  8
0
 10
804.9977610337816
 20
403.8547698247598
 30
0.0
 11
810.1280631836665
 21
389.7593805129711
 31
0.0
  0
LINE
  5
21E
  8
0
 10
814.5178892013877
 20
367.6990809371932
 30
0.0
 11
817.5178892311901
 21
367.6990809371932
 31
0.0
  0
LINE
  5
21F
  8
0
 10
817.5178892311901
 20
367.6990809371932
 30
0.0
 11
817.5178892311901
 21
382.6990809371932
 31
0.0
  0
LINE
  5
220
  8
0
 10
817.5178892311901
 20
382.6990809371932
 30
0.0
 11
814.5178892013877
 21
382.6990809371932
 31
0.0
  0
LINE
  5
221
  8
0
 10
814.5178892013877
 20
382.6990809371932
 30
0.0
 11
814.5178892013877
 21
367.6990809371932
 31
0.0
  0
LINE
  5
222
  8
0
 10
810.1280631836665
 20
345.6387813614153
 30
0.0
 11
812.9471410740293
 21
344.6127209212452
 31
0.0
  0
LINE
  5
223
  8
0
 10
812.9471410740293
 20
344.6127209212452
 30
0.0
 11
818.0774432239143
 21
358.7081102330338
 31
0.0
  0
LINE
  5
224
  8
0
 10
818.0774432239143
 20
358.7081102330338
 30
0.0
 11
815.2583653335516
 21
359.7341706732038
 31
0.0
  0
LINE
  5
225
  8
0
 10
815.2583653335516
 20
359.7341706732038
 30
0.0
 11
810.1280631836665
 21
345.6387813614153
 31
0.0
  0
LINE
  5
226
  8
0
 10
781.7678887171
 20
311.8404415542859
 30
0.0
 11
783.2678887320012
 21
309.242365317123
 31
0.0
  0
LINE
  5
227
  8
0
 10
783.2678887320012
 20
309.242365317123
 30
0.0
 11
796.2582697887676
 21
316.742365317123
 31
0.0
  0
LINE
  5
228
  8
0
 10
796.2582697887676
 20
316.742365317123
 30
0.0
 11
794.7582697738666
 21
319.3404415542859
 31
0.0
  0
LINE
  5
229
  8
0
 10
794.7582697738666
 20
319.3404415542859
 30
0.0
 11
781.7678887171
 21
311.8404415542859
 31
0.0
  0
LINE
  5
22A
  8
0
 10
798.9277555559582
 20
326.2392794898231
 30
0.0
 11
801.225888908145
 21
324.3109166416068
 31
0.0
  0
LINE
  5
22B
  8
0
 10
801.225888908145
 20
324.3109166416068
 30
0.0
 11
810.8677030534432
 21
335.8015832883915
 31
0.0
  0
LINE
  5
22C
  8
0
 10
810.8677030534432
 20
335.8015832883915
 30
0.0
 11
808.5695697012563
 21
337.7299461366077
 31
0.0
  0
LINE
  5
22D
  8
0
 10
808.5695697012563
 20
337.7299461366077
 30
0.0
 11
798.9277555559582
 21
326.2392794898231
 31
0.0
  0
LINE
  5
22E
  8
0
 10
882.0178902146667
 20
367.6990809371932
 30
0.0
 11
885.0178902444691
 21
367.6990809371932
 31
0.0
  0
LINE
  5
22F
  8
0
 10
885.0178902444691
 20
367.6990809371932
 30
0.0
 11
885.0178902444691
 21
382.6990809371932
 31
0.0
  0
LINE
  5
230
  8
0
 10
885.0178902444691
 20
382.6990809371932
 30
0.0
 11
882.0178902146667
 21
382.6990809371932
 31
0.0
  0
LINE
  5
231
  8
0
 10
882.0178902146667
 20
382.6990809371932
 30
0.0
 11
882.0178902146667
 21
367.6990809371932
 31
0.0
  0
LINE
  5
232
  8
0
 10
874.0271623492791
 20
322.3814112687079
 30
0.0
 11
876.8462402396418
 21
321.355350828538
 31
0.0
  0
LINE
  5
233
  8
0
 10
876.8462402396418
 20
321.355350828538
 30
0.0
 11
881.9765423895269
 21
335.4507401403266
 31
0.0
  0
LINE
  5
234
  8
0
 10
881.9765423895269
 20
335.4507401403266
 30
0.0
 11
879.1574644991642
 21
336.4768005804966
 31
0.0
  0
LINE
  5
235
  8
0
 10
879.1574644991642
 20
336.4768005804966
 30
0.0
 11
874.0271623492791
 21
322.3814112687079
 31
0.0
  0
LINE
  5
236
  8
0
 10
815.7678892237395
 20
252.9507132194187
 30
0.0
 11
817.2678892386406
 21
250.3526369822559
 31
0.0
  0
LINE
  5
237
  8
0
 10
817.2678892386406
 20
250.3526369822559
 30
0.0
 11
830.2582702954072
 21
257.8526369822559
 31
0.0
  0
LINE
  5
238
  8
0
 10
830.2582702954072
 20
257.8526369822559
 30
0.0
 11
828.7582702805062
 21
260.4507132194187
 31
0.0
  0
LINE
  5
239
  8
0
 10
828.7582702805062
 20
260.4507132194187
 30
0.0
 11
815.7678892237395
 21
252.9507132194187
 31
0.0
  0
LINE
  5
23A
  8
0
 10
851.0187784642654
 20
282.5297213798152
 30
0.0
 11
853.3169118164523
 21
280.601358531599
 31
0.0
  0
LINE
  5
23B
  8
0
 10
853.3169118164523
 20
280.601358531599
 30
0.0
 11
862.9587259617504
 21
292.0920251783838
 31
0.0
  0
LINE
  5
23C
  8
0
 10
862.9587259617504
 20
292.0920251783838
 30
0.0
 11
860.6605926095635
 21
294.0203880265999
 31
0.0
  0
LINE
  5
23D
  8
0
 10
860.6605926095635
 20
294.0203880265999
 30
0.0
 11
851.0187784642654
 21
282.5297213798152
 31
0.0
  0
LINE
  5
23E
  8
0
 10
717.2678877485246
 20
423.5577203201004
 30
0.0
 11
715.7678877336234
 21
426.1557965572633
 31
0.0
  0
LINE
  5
23F
  8
0
 10
715.7678877336234
 20
426.1557965572633
 30
0.0
 11
702.7775066768568
 21
418.6557965572633
 31
0.0
  0
LINE
  5
240
  8
0
 10
702.7775066768568
 20
418.6557965572633
 30
0.0
 11
704.2775066917579
 21
416.0577203201004
 31
0.0
  0
LINE
  5
241
  8
0
 10
704.2775066917579
 20
416.0577203201004
 30
0.0
 11
717.2678877485246
 21
423.5577203201004
 31
0.0
  0
LINE
  5
242
  8
0
 10
723.024519771745
 20
431.5688825837234
 30
0.0
 11
723.5454643099208
 21
428.6144592953373
 31
0.0
  0
LINE
  5
243
  8
0
 10
723.5454643099208
 20
428.6144592953373
 30
0.0
 11
738.3175806051038
 21
431.2191819603412
 31
0.0
  0
LINE
  5
244
  8
0
 10
738.3175806051038
 20
431.2191819603412
 30
0.0
 11
737.7966360669279
 21
434.1736052487274
 31
0.0
  0
LINE
  5
245
  8
0
 10
737.7966360669279
 20
434.1736052487274
 30
0.0
 11
723.024519771745
 21
431.5688825837234
 31
0.0
  0
LINE
  5
246
  8
0
 10
618.0
 20
-32.50000084936619
 30
0.0
 11
618.0
 21
-129.7700008493662
 31
0.0
  0
LINE
  5
247
  8
0
 10
618.0
 20
-129.7700008493662
 30
0.0
 11
614.0
 21
-129.7700008493662
 31
0.0
  0
LINE
  5
248
  8
0
 10
614.0
 20
-129.7700008493662
 30
0.0
 11
614.0
 21
-132.5000008493662
 31
0.0
  0
LINE
  5
249
  8
0
 10
614.0
 20
-132.5000008493662
 30
0.0
 11
618.0
 21
-132.5000008493662
 31
0.0
  0
LINE
  5
24A
  8
0
 10
618.0
 20
-132.5000008493662
 30
0.0
 11
618.0
 21
-232.0
 31
0.0
  0
LINE
  5
24B
  8
0
 10
618.0
 20
-232.0
 30
0.0
 11
603.0
 21
-232.0
 31
0.0
  0
LINE
  5
24C
  8
0
 10
603.0
 20
-232.0
 30
0.0
 11
603.0
 21
68.0
 31
0.0
  0
LINE
  5
24D
  8
0
 10
603.0
 20
68.0
 30
0.0
 11
606.0000000447035
 21
68.0
 31
0.0
  0
LINE
  5
24E
  8
0
 10
606.0000000447035
 20
68.0
 30
0.0
 11
606.0000000447035
 21
70.13499999999999
 31
0.0
  0
LINE
  5
24F
  8
0
 10
606.0000000447035
 20
70.13499999999999
 30
0.0
 11
615.0000001788139
 21
70.13499999999999
 31
0.0
  0
LINE
  5
250
  8
0
 10
615.0000001788139
 20
70.13499999999999
 30
0.0
 11
615.0000001788139
 21
68.0
 31
0.0
  0
LINE
  5
251
  8
0
 10
615.0000001788139
 20
68.0
 30
0.0
 11
618.0
 21
68.0
 31
0.0
  0
LINE
  5
252
  8
0
 10
618.0
 20
68.0
 30
0.0
 11
618.0
 21
-29.7700008493662
 31
0.0
  0
LINE
  5
253
  8
0
 10
618.0
 20
-29.7700008493662
 30
0.0
 11
614.0
 21
-29.7700008493662
 31
0.0
  0
LINE
  5
254
  8
0
 10
614.0
 20
-29.7700008493662
 30
0.0
 11
614.0
 21
-32.50000084936619
 31
0.0
  0
LINE
  5
255
  8
0
 10
614.0
 20
-32.50000084936619
 30
0.0
 11
618.0
 21
-32.50000084936619
 31
0.0
  0
LINE
  5
256
  8
0
 10
702.0
 20
-36.50000084936619
 30
0.0
 11
702.0
 21
-133.7700008493662
 31
0.0
  0
LINE
  5
257
  8
0
 10
702.0
 20
-133.7700008493662
 30
0.0
 11
698.0
 21
-133.7700008493662
 31
0.0
  0
LINE
  5
258
  8
0
 10
698.0
 20
-133.7700008493662
 30
0.0
 11
698.0
 21
-136.5000008493662
 31
0.0
  0
LINE
  5
259
  8
0
 10
698.0
 20
-136.5000008493662
 30
0.0
 11
702.0
 21
-136.5000008493661
 31
0.0
  0
LINE
  5
25A
  8
0
 10
702.0
 20
-136.5000008493661
 30
0.0
 11
702.0
 21
-236.0000008493662
 31
0.0
  0
LINE
  5
25B
  8
0
 10
702.0
 20
-236.0000008493662
 30
0.0
 11
687.0
 21
-236.0000008493662
 31
0.0
  0
LINE
  5
25C
  8
0
 10
687.0
 20
-236.0000008493662
 30
0.0
 11
687.0
 21
34.0
 31
0.0
  0
LINE
  5
25D
  8
0
 10
687.0
 20
34.0
 30
0.0
 11
690.0000000447035
 21
34.0
 31
0.0
  0
LINE
  5
25E
  8
0
 10
690.0000000447035
 20
34.0
 30
0.0
 11
690.0000000447035
 21
36.13499999999999
 31
0.0
  0
LINE
  5
25F
  8
0
 10
690.0000000447035
 20
36.13499999999999
 30
0.0
 11
699.0000001788139
 21
36.13499999999999
 31
0.0
  0
LINE
  5
260
  8
0
 10
699.0000001788139
 20
36.13499999999999
 30
0.0
 11
699.0000001788139
 21
34.0
 31
0.0
  0
LINE
  5
261
  8
0
 10
699.0000001788139
 20
34.0
 30
0.0
 11
702.0
 21
34.0
 31
0.0
  0
LINE
  5
262
  8
0
 10
702.0
 20
34.0
 30
0.0
 11
702.0
 21
-33.77000084936621
 31
0.0
  0
LINE
  5
263
  8
0
 10
702.0
 20
-33.77000084936621
 30
0.0
 11
698.0
 21
-33.7700008493662
 31
0.0
  0
LINE
  5
264
  8
0
 10
698.0
 20
-33.7700008493662
 30
0.0
 11
698.0
 21
-36.50000084936619
 31
0.0
  0
LINE
  5
265
  8
0
 10
698.0
 20
-36.50000084936619
 30
0.0
 11
702.0
 21
-36.50000084936619
 31
0.0
  0
LINE
  5
266
  8
0
 10
680.0
 20
-36.50000084936619
 30
0.0
 11
680.0
 21
-133.7700008493662
 31
0.0
  0
LINE
  5
267
  8
0
 10
680.0
 20
-133.7700008493662
 30
0.0
 11
676.0
 21
-133.7700008493662
 31
0.0
  0
LINE
  5
268
  8
0
 10
676.0
 20
-133.7700008493662
 30
0.0
 11
676.0
 21
-136.5000008493662
 31
0.0
  0
LINE
  5
269
  8
0
 10
676.0
 20
-136.5000008493662
 30
0.0
 11
680.0
 21
-136.5000008493661
 31
0.0
  0
LINE
  5
26A
  8
0
 10
680.0
 20
-136.5000008493661
 30
0.0
 11
680.0
 21
-236.0000008493662
 31
0.0
  0
LINE
  5
26B
  8
0
 10
680.0
 20
-236.0000008493662
 30
0.0
 11
665.0
 21
-236.0000008493662
 31
0.0
  0
LINE
  5
26C
  8
0
 10
665.0
 20
-236.0000008493662
 30
0.0
 11
665.0
 21
34.0
 31
0.0
  0
LINE
  5
26D
  8
0
 10
665.0
 20
34.0
 30
0.0
 11
668.0000000447035
 21
34.0
 31
0.0
  0
LINE
  5
26E
  8
0
 10
668.0000000447035
 20
34.0
 30
0.0
 11
668.0000000447035
 21
36.13499999999999
 31
0.0
  0
LINE
  5
26F
  8
0
 10
668.0000000447035
 20
36.13499999999999
 30
0.0
 11
677.0000001788139
 21
36.13499999999999
 31
0.0
  0
LINE
  5
270
  8
0
 10
677.0000001788139
 20
36.13499999999999
 30
0.0
 11
677.0000001788139
 21
34.0
 31
0.0
  0
LINE
  5
271
  8
0
 10
677.0000001788139
 20
34.0
 30
0.0
 11
680.0
 21
34.0
 31
0.0
  0
LINE
  5
272
  8
0
 10
680.0
 20
34.0
 30
0.0
 11
680.0
 21
-33.77000084936621
 31
0.0
  0
LINE
  5
273
  8
0
 10
680.0
 20
-33.77000084936621
 30
0.0
 11
676.0
 21
-33.7700008493662
 31
0.0
  0
LINE
  5
274
  8
0
 10
676.0
 20
-33.7700008493662
 30
0.0
 11
676.0
 21
-36.50000084936619
 31
0.0
  0
LINE
  5
275
  8
0
 10
676.0
 20
-36.50000084936619
 30
0.0
 11
680.0
 21
-36.50000084936619
 31
0.0
  0
LINE
  5
276
  8
0
 10
638.9999999999998
 20
-34.50000084936619
 30
0.0
 11
638.9999999999998
 21
-131.7700008493662
 31
0.0
  0
LINE
  5
277
  8
0
 10
638.9999999999998
 20
-131.7700008493662
 30
0.0
 11
634.9999999999998
 21
-131.7700008493662
 31
0.0
  0
LINE
  5
278
  8
0
 10
634.9999999999998
 20
-131.7700008493662
 30
0.0
 11
634.9999999999998
 21
-134.5000008493662
 31
0.0
  0
LINE
  5
279
  8
0
 10
634.9999999999998
 20
-134.5000008493662
 30
0.0
 11
638.9999999999998
 21
-134.5000008493661
 31
0.0
  0
LINE
  5
27A
  8
0
 10
638.9999999999998
 20
-134.5000008493661
 30
0.0
 11
638.9999999999998
 21
-234.0000008493662
 31
0.0
  0
LINE
  5
27B
  8
0
 10
638.9999999999998
 20
-234.0000008493662
 30
0.0
 11
623.9999999999998
 21
-234.0000008493662
 31
0.0
  0
LINE
  5
27C
  8
0
 10
623.9999999999998
 20
-234.0000008493662
 30
0.0
 11
623.9999999999998
 21
51.0
 31
0.0
  0
LINE
  5
27D
  8
0
 10
623.9999999999998
 20
51.0
 30
0.0
 11
627.0000000447033
 21
51.0
 31
0.0
  0
LINE
  5
27E
  8
0
 10
627.0000000447033
 20
51.0
 30
0.0
 11
627.0000000447033
 21
53.13499999999999
 31
0.0
  0
LINE
  5
27F
  8
0
 10
627.0000000447033
 20
53.13499999999999
 30
0.0
 11
636.0000001788137
 21
53.13499999999999
 31
0.0
  0
LINE
  5
280
  8
0
 10
636.0000001788137
 20
53.13499999999999
 30
0.0
 11
636.0000001788137
 21
51.0
 31
0.0
  0
LINE
  5
281
  8
0
 10
636.0000001788137
 20
51.0
 30
0.0
 11
638.9999999999998
 21
51.0
 31
0.0
  0
LINE
  5
282
  8
0
 10
638.9999999999998
 20
51.0
 30
0.0
 11
638.9999999999998
 21
-31.77000084936621
 31
0.0
  0
LINE
  5
283
  8
0
 10
638.9999999999998
 20
-31.77000084936621
 30
0.0
 11
634.9999999999998
 21
-31.7700008493662
 31
0.0
  0
LINE
  5
284
  8
0
 10
634.9999999999998
 20
-31.7700008493662
 30
0.0
 11
634.9999999999998
 21
-34.50000084936619
 31
0.0
  0
LINE
  5
285
  8
0
 10
634.9999999999998
 20
-34.50000084936619
 30
0.0
 11
638.9999999999998
 21
-34.50000084936619
 31
0.0
  0
LINE
  5
286
  8
0
 10
657.9999999999998
 20
-34.50000084936619
 30
0.0
 11
657.9999999999998
 21
-131.7700008493662
 31
0.0
  0
LINE
  5
287
  8
0
 10
657.9999999999998
 20
-131.7700008493662
 30
0.0
 11
653.9999999999998
 21
-131.7700008493662
 31
0.0
  0
LINE
  5
288
  8
0
 10
653.9999999999998
 20
-131.7700008493662
 30
0.0
 11
653.9999999999998
 21
-134.5000008493662
 31
0.0
  0
LINE
  5
289
  8
0
 10
653.9999999999998
 20
-134.5000008493662
 30
0.0
 11
657.9999999999998
 21
-134.5000008493661
 31
0.0
  0
LINE
  5
28A
  8
0
 10
657.9999999999998
 20
-134.5000008493661
 30
0.0
 11
657.9999999999998
 21
-234.0000008493662
 31
0.0
  0
LINE
  5
28B
  8
0
 10
657.9999999999998
 20
-234.0000008493662
 30
0.0
 11
642.9999999999998
 21
-234.0000008493662
 31
0.0
  0
LINE
  5
28C
  8
0
 10
642.9999999999998
 20
-234.0000008493662
 30
0.0
 11
642.9999999999998
 21
51.0
 31
0.0
  0
LINE
  5
28D
  8
0
 10
642.9999999999998
 20
51.0
 30
0.0
 11
646.0000000447033
 21
51.0
 31
0.0
  0
LINE
  5
28E
  8
0
 10
646.0000000447033
 20
51.0
 30
0.0
 11
646.0000000447033
 21
53.13499999999999
 31
0.0
  0
LINE
  5
28F
  8
0
 10
646.0000000447033
 20
53.13499999999999
 30
0.0
 11
655.0000001788137
 21
53.13499999999999
 31
0.0
  0
LINE
  5
290
  8
0
 10
655.0000001788137
 20
53.13499999999999
 30
0.0
 11
655.0000001788137
 21
51.0
 31
0.0
  0
LINE
  5
291
  8
0
 10
655.0000001788137
 20
51.0
 30
0.0
 11
657.9999999999998
 21
51.0
 31
0.0
  0
LINE
  5
292
  8
0
 10
657.9999999999998
 20
51.0
 30
0.0
 11
657.9999999999998
 21
-31.77000084936621
 31
0.0
  0
LINE
  5
293
  8
0
 10
657.9999999999998
 20
-31.77000084936621
 30
0.0
 11
653.9999999999998
 21
-31.7700008493662
 31
0.0
  0
LINE
  5
294
  8
0
 10
653.9999999999998
 20
-31.7700008493662
 30
0.0
 11
653.9999999999998
 21
-34.50000084936619
 31
0.0
  0
LINE
  5
295
  8
0
 10
653.9999999999998
 20
-34.50000084936619
 30
0.0
 11
657.9999999999998
 21
-34.50000084936619
 31
0.0
  0
LINE
  5
296
  8
0
 10
597.0
 20
-32.50000084936619
 30
0.0
 11
597.0
 21
-129.7700008493662
 31
0.0
  0
LINE
  5
297
  8
0
 10
597.0
 20
-129.7700008493662
 30
0.0
 11
593.0
 21
-129.7700008493662
 31
0.0
  0
LINE
  5
298
  8
0
 10
593.0
 20
-129.7700008493662
 30
0.0
 11
593.0
 21
-132.5000008493662
 31
0.0
  0
LINE
  5
299
  8
0
 10
593.0
 20
-132.5000008493662
 30
0.0
 11
597.0
 21
-132.5000008493662
 31
0.0
  0
LINE
  5
29A
  8
0
 10
597.0
 20
-132.5000008493662
 30
0.0
 11
597.0
 21
-232.0
 31
0.0
  0
LINE
  5
29B
  8
0
 10
597.0
 20
-232.0
 30
0.0
 11
582.0
 21
-232.0
 31
0.0
  0
LINE
  5
29C
  8
0
 10
582.0
 20
-232.0
 30
0.0
 11
582.0
 21
68.0
 31
0.0
  0
LINE
  5
29D
  8
0
 10
582.0
 20
68.0
 30
0.0
 11
585.0000000447035
 21
68.0
 31
0.0
  0
LINE
  5
29E
  8
0
 10
585.0000000447035
 20
68.0
 30
0.0
 11
585.0000000447035
 21
70.13499999999999
 31
0.0
  0
LINE
  5
29F
  8
0
 10
585.0000000447035
 20
70.13499999999999
 30
0.0
 11
594.0000001788139
 21
70.13499999999999
 31
0.0
  0
LINE
  5
2A0
  8
0
 10
594.0000001788139
 20
70.13499999999999
 30
0.0
 11
594.0000001788139
 21
68.0
 31
0.0
  0
LINE
  5
2A1
  8
0
 10
594.0000001788139
 20
68.0
 30
0.0
 11
597.0
 21
68.0
 31
0.0
  0
LINE
  5
2A2
  8
0
 10
597.0
 20
68.0
 30
0.0
 11
597.0
 21
-29.7700008493662
 31
0.0
  0
LINE
  5
2A3
  8
0
 10
597.0
 20
-29.7700008493662
 30
0.0
 11
593.0
 21
-29.7700008493662
 31
0.0
  0
LINE
  5
2A4
  8
0
 10
593.0
 20
-29.7700008493662
 30
0.0
 11
593.0
 21
-32.50000084936619
 31
0.0
  0
LINE
  5
2A5
  8
0
 10
593.0
 20
-32.50000084936619
 30
0.0
 11
597.0
 21
-32.50000084936619
 31
0.0
  0
LINE
  5
2A6
  8
0
 10
575.0
 20
-32.50000084936619
 30
0.0
 11
575.0
 21
-129.7700008493662
 31
0.0
  0
LINE
  5
2A7
  8
0
 10
575.0
 20
-129.7700008493662
 30
0.0
 11
571.0
 21
-129.7700008493662
 31
0.0
  0
LINE
  5
2A8
  8
0
 10
571.0
 20
-129.7700008493662
 30
0.0
 11
571.0
 21
-132.5000008493662
 31
0.0
  0
LINE
  5
2A9
  8
0
 10
571.0
 20
-132.5000008493662
 30
0.0
 11
575.0
 21
-132.5000008493662
 31
0.0
  0
LINE
  5
2AA
  8
0
 10
575.0
 20
-132.5000008493662
 30
0.0
 11
575.0
 21
-232.0
 31
0.0
  0
LINE
  5
2AB
  8
0
 10
575.0
 20
-232.0
 30
0.0
 11
560.0
 21
-232.0
 31
0.0
  0
LINE
  5
2AC
  8
0
 10
560.0
 20
-232.0
 30
0.0
 11
560.0
 21
68.0
 31
0.0
  0
LINE
  5
2AD
  8
0
 10
560.0
 20
68.0
 30
0.0
 11
563.0000000447035
 21
68.0
 31
0.0
  0
LINE
  5
2AE
  8
0
 10
563.0000000447035
 20
68.0
 30
0.0
 11
563.0000000447035
 21
70.13499999999999
 31
0.0
  0
LINE
  5
2AF
  8
0
 10
563.0000000447035
 20
70.13499999999999
 30
0.0
 11
572.0000001788139
 21
70.13499999999999
 31
0.0
  0
LINE
  5
2B0
  8
0
 10
572.0000001788139
 20
70.13499999999999
 30
0.0
 11
572.0000001788139
 21
68.0
 31
0.0
  0
LINE
  5
2B1
  8
0
 10
572.0000001788139
 20
68.0
 30
0.0
 11
575.0
 21
68.0
 31
0.0
  0
LINE
  5
2B2
  8
0
 10
575.0
 20
68.0
 30
0.0
 11
575.0
 21
-29.7700008493662
 31
0.0
  0
LINE
  5
2B3
  8
0
 10
575.0
 20
-29.7700008493662
 30
0.0
 11
571.0
 21
-29.7700008493662
 31
0.0
  0
LINE
  5
2B4
  8
0
 10
571.0
 20
-29.7700008493662
 30
0.0
 11
571.0
 21
-32.50000084936619
 31
0.0
  0
LINE
  5
2B5
  8
0
 10
571.0
 20
-32.50000084936619
 30
0.0
 11
575.0
 21
-32.50000084936619
 31
0.0
  0
LINE
  5
2B6
  8
0
 10
555.0
 20
-32.50000084936619
 30
0.0
 11
555.0
 21
-129.7700008493662
 31
0.0
  0
LINE
  5
2B7
  8
0
 10
555.0
 20
-129.7700008493662
 30
0.0
 11
551.0
 21
-129.7700008493662
 31
0.0
  0
LINE
  5
2B8
  8
0
 10
551.0
 20
-129.7700008493662
 30
0.0
 11
551.0
 21
-132.5000008493662
 31
0.0
  0
LINE
  5
2B9
  8
0
 10
551.0
 20
-132.5000008493662
 30
0.0
 11
555.0
 21
-132.5000008493662
 31
0.0
  0
LINE
  5
2BA
  8
0
 10
555.0
 20
-132.5000008493662
 30
0.0
 11
555.0
 21
-232.0
 31
0.0
  0
LINE
  5
2BB
  8
0
 10
555.0
 20
-232.0
 30
0.0
 11
540.0
 21
-232.0
 31
0.0
  0
LINE
  5
2BC
  8
0
 10
540.0
 20
-232.0
 30
0.0
 11
540.0
 21
68.0
 31
0.0
  0
LINE
  5
2BD
  8
0
 10
540.0
 20
68.0
 30
0.0
 11
543.0000000447035
 21
68.0
 31
0.0
  0
LINE
  5
2BE
  8
0
 10
543.0000000447035
 20
68.0
 30
0.0
 11
543.0000000447035
 21
70.13499999999999
 31
0.0
  0
LINE
  5
2BF
  8
0
 10
543.0000000447035
 20
70.13499999999999
 30
0.0
 11
552.0000001788139
 21
70.13499999999999
 31
0.0
  0
LINE
  5
2C0
  8
0
 10
552.0000001788139
 20
70.13499999999999
 30
0.0
 11
552.0000001788139
 21
68.0
 31
0.0
  0
LINE
  5
2C1
  8
0
 10
552.0000001788139
 20
68.0
 30
0.0
 11
555.0
 21
68.0
 31
0.0
  0
LINE
  5
2C2
  8
0
 10
555.0
 20
68.0
 30
0.0
 11
555.0
 21
-29.7700008493662
 31
0.0
  0
LINE
  5
2C3
  8
0
 10
555.0
 20
-29.7700008493662
 30
0.0
 11
551.0
 21
-29.7700008493662
 31
0.0
  0
LINE
  5
2C4
  8
0
 10
551.0
 20
-29.7700008493662
 30
0.0
 11
551.0
 21
-32.50000084936619
 31
0.0
  0
LINE
  5
2C5
  8
0
 10
551.0
 20
-32.50000084936619
 30
0.0
 11
555.0
 21
-32.50000084936619
 31
0.0
  0
LINE
  5
2C6
  8
0
 10
704.2990329456798
 20
195.0373533364719
 30
0.0
 11
704.2990329456798
 21
192.9023533364719
 31
0.0
  0
LINE
  5
2C7
  8
0
 10
704.2990329456798
 20
192.9023533364719
 30
0.0
 11
707.2990327668658
 21
192.9023533364719
 31
0.0
  0
LINE
  5
2C8
  8
0
 10
707.2990327668658
 20
192.9023533364719
 30
0.0
 11
707.2990327668658
 21
145.1323524871057
 31
0.0
  0
LINE
  5
2C9
  8
0
 10
707.2990327668658
 20
145.1323524871057
 30
0.0
 11
703.2990327668658
 21
145.1323524871057
 31
0.0
  0
LINE
  5
2CA
  8
0
 10
703.2990327668658
 20
145.1323524871057
 30
0.0
 11
703.2990327668658
 21
142.4023524871057
 31
0.0
  0
LINE
  5
2CB
  8
0
 10
703.2990327668658
 20
142.4023524871057
 30
0.0
 11
707.2990327668658
 21
142.4023524871057
 31
0.0
  0
LINE
  5
2CC
  8
0
 10
707.2990327668658
 20
142.4023524871057
 30
0.0
 11
707.2990327668658
 21
42.90235248710567
 31
0.0
  0
LINE
  5
2CD
  8
0
 10
707.2990327668658
 20
42.90235248710567
 30
0.0
 11
692.2990327668659
 21
42.90235248710567
 31
0.0
  0
LINE
  5
2CE
  8
0
 10
692.2990327668659
 20
42.90235248710567
 30
0.0
 11
692.2990327668659
 21
192.9023533364719
 31
0.0
  0
LINE
  5
2CF
  8
0
 10
692.2990327668659
 20
192.9023533364719
 30
0.0
 11
695.2990328115694
 21
192.9023533364719
 31
0.0
  0
LINE
  5
2D0
  8
0
 10
695.2990328115694
 20
192.9023533364719
 30
0.0
 11
695.2990328115694
 21
195.0373533364719
 31
0.0
  0
LINE
  5
2D1
  8
0
 10
695.2990328115694
 20
195.0373533364719
 30
0.0
 11
704.2990329456798
 21
195.0373533364719
 31
0.0
  0
LINE
  5
2D2
  8
0
 10
729.560221080425
 20
192.9023533364719
 30
0.0
 11
729.560221080425
 21
145.1323524871057
 31
0.0
  0
LINE
  5
2D3
  8
0
 10
729.560221080425
 20
145.1323524871057
 30
0.0
 11
725.560221080425
 21
145.1323524871057
 31
0.0
  0
LINE
  5
2D4
  8
0
 10
725.560221080425
 20
145.1323524871057
 30
0.0
 11
725.560221080425
 21
142.4023524871057
 31
0.0
  0
LINE
  5
2D5
  8
0
 10
725.560221080425
 20
142.4023524871057
 30
0.0
 11
729.560221080425
 21
142.4023524871057
 31
0.0
  0
LINE
  5
2D6
  8
0
 10
729.560221080425
 20
142.4023524871057
 30
0.0
 11
729.560221080425
 21
42.90235248710567
 31
0.0
  0
LINE
  5
2D7
  8
0
 10
729.560221080425
 20
42.90235248710567
 30
0.0
 11
714.560221080425
 21
42.90235248710567
 31
0.0
  0
LINE
  5
2D8
  8
0
 10
714.560221080425
 20
42.90235248710567
 30
0.0
 11
714.560221080425
 21
192.9023533364719
 31
0.0
  0
LINE
  5
2D9
  8
0
 10
714.560221080425
 20
192.9023533364719
 30
0.0
 11
717.5602211251285
 21
192.9023533364719
 31
0.0
  0
LINE
  5
2DA
  8
0
 10
717.5602211251285
 20
192.9023533364719
 30
0.0
 11
717.5602211251285
 21
195.0373533364719
 31
0.0
  0
LINE
  5
2DB
  8
0
 10
717.5602211251285
 20
195.0373533364719
 30
0.0
 11
726.5602212592389
 21
195.0373533364719
 31
0.0
  0
LINE
  5
2DC
  8
0
 10
726.5602212592389
 20
195.0373533364719
 30
0.0
 11
726.5602212592389
 21
192.9023533364719
 31
0.0
  0
LINE
  5
2DD
  8
0
 10
726.5602212592389
 20
192.9023533364719
 30
0.0
 11
729.560221080425
 21
192.9023533364719
 31
0.0
  0
LINE
  5
2DE
  8
0
 10
747.242855706995
 20
202.6675075985353
 30
0.0
 11
747.242855706995
 21
200.5325075985353
 31
0.0
  0
LINE
  5
2DF
  8
0
 10
747.242855706995
 20
200.5325075985353
 30
0.0
 11
750.242855528181
 21
200.5325075985353
 31
0.0
  0
LINE
  5
2E0
  8
0
 10
750.242855528181
 20
200.5325075985353
 30
0.0
 11
750.242855528181
 21
137.7625067491692
 31
0.0
  0
LINE
  5
2E1
  8
0
 10
750.242855528181
 20
137.7625067491692
 30
0.0
 11
746.242855528181
 21
137.7625067491692
 31
0.0
  0
LINE
  5
2E2
  8
0
 10
746.242855528181
 20
137.7625067491692
 30
0.0
 11
746.242855528181
 21
135.0325067491692
 31
0.0
  0
LINE
  5
2E3
  8
0
 10
746.242855528181
 20
135.0325067491692
 30
0.0
 11
750.242855528181
 21
135.0325067491692
 31
0.0
  0
LINE
  5
2E4
  8
0
 10
750.242855528181
 20
135.0325067491692
 30
0.0
 11
750.242855528181
 21
35.53250674916916
 31
0.0
  0
LINE
  5
2E5
  8
0
 10
750.242855528181
 20
35.53250674916916
 30
0.0
 11
735.242855528181
 21
35.53250674916916
 31
0.0
  0
LINE
  5
2E6
  8
0
 10
735.242855528181
 20
35.53250674916916
 30
0.0
 11
735.242855528181
 21
200.5325075985353
 31
0.0
  0
LINE
  5
2E7
  8
0
 10
735.242855528181
 20
200.5325075985353
 30
0.0
 11
738.2428555728845
 21
200.5325075985353
 31
0.0
  0
LINE
  5
2E8
  8
0
 10
738.2428555728845
 20
200.5325075985353
 30
0.0
 11
738.2428555728845
 21
202.6675075985353
 31
0.0
  0
LINE
  5
2E9
  8
0
 10
738.2428555728845
 20
202.6675075985353
 30
0.0
 11
747.242855706995
 21
202.6675075985353
 31
0.0
  0
LINE
  5
2EA
  8
0
 10
556.9419691893892
 20
189.6648125181117
 30
0.0
 11
556.9419691893892
 21
84.6648116687455
 31
0.0
  0
LINE
  5
2EB
  8
0
 10
556.9419691893892
 20
84.6648116687455
 30
0.0
 11
541.9419691893893
 21
84.6648116687455
 31
0.0
  0
LINE
  5
2EC
  8
0
 10
541.9419691893893
 20
84.6648116687455
 30
0.0
 11
541.9419691893893
 21
189.6648125181117
 31
0.0
  0
LINE
  5
2ED
  8
0
 10
541.9419691893893
 20
189.6648125181117
 30
0.0
 11
544.9419692340928
 21
189.6648125181117
 31
0.0
  0
LINE
  5
2EE
  8
0
 10
544.9419692340928
 20
189.6648125181117
 30
0.0
 11
544.9419692340928
 21
191.7998125181117
 31
0.0
  0
LINE
  5
2EF
  8
0
 10
544.9419692340928
 20
191.7998125181117
 30
0.0
 11
553.9419693682032
 21
191.7998125181117
 31
0.0
  0
LINE
  5
2F0
  8
0
 10
553.9419693682032
 20
191.7998125181117
 30
0.0
 11
553.9419693682032
 21
189.6648125181117
 31
0.0
  0
LINE
  5
2F1
  8
0
 10
553.9419693682032
 20
189.6648125181117
 30
0.0
 11
556.9419691893892
 21
189.6648125181117
 31
0.0
  0
LINE
  5
2F2
  8
0
 10
576.870378330672
 20
191.7998125181117
 30
0.0
 11
576.870378330672
 21
189.6648125181117
 31
0.0
  0
LINE
  5
2F3
  8
0
 10
576.870378330672
 20
189.6648125181117
 30
0.0
 11
579.8703781518581
 21
189.6648125181117
 31
0.0
  0
LINE
  5
2F4
  8
0
 10
579.8703781518581
 20
189.6648125181117
 30
0.0
 11
579.8703781518581
 21
84.6648116687455
 31
0.0
  0
LINE
  5
2F5
  8
0
 10
579.8703781518581
 20
84.6648116687455
 30
0.0
 11
564.8703781518581
 21
84.6648116687455
 31
0.0
  0
LINE
  5
2F6
  8
0
 10
564.8703781518581
 20
84.6648116687455
 30
0.0
 11
564.8703781518581
 21
189.6648125181117
 31
0.0
  0
LINE
  5
2F7
  8
0
 10
564.8703781518581
 20
189.6648125181117
 30
0.0
 11
567.8703781965617
 21
189.6648125181117
 31
0.0
  0
LINE
  5
2F8
  8
0
 10
567.8703781965617
 20
189.6648125181117
 30
0.0
 11
567.8703781965617
 21
191.7998125181117
 31
0.0
  0
LINE
  5
2F9
  8
0
 10
567.8703781965617
 20
191.7998125181117
 30
0.0
 11
576.870378330672
 21
191.7998125181117
 31
0.0
  0
LINE
  5
2FA
  8
0
 10
770.7146492446714
 20
200.5325075985353
 30
0.0
 11
770.7146492446714
 21
137.7625067491692
 31
0.0
  0
LINE
  5
2FB
  8
0
 10
770.7146492446714
 20
137.7625067491692
 30
0.0
 11
766.7146492446714
 21
137.7625067491692
 31
0.0
  0
LINE
  5
2FC
  8
0
 10
766.7146492446714
 20
137.7625067491692
 30
0.0
 11
766.7146492446714
 21
135.0325067491692
 31
0.0
  0
LINE
  5
2FD
  8
0
 10
766.7146492446714
 20
135.0325067491692
 30
0.0
 11
770.7146492446714
 21
135.0325067491692
 31
0.0
  0
LINE
  5
2FE
  8
0
 10
770.7146492446714
 20
135.0325067491692
 30
0.0
 11
770.7146492446714
 21
35.53250674916916
 31
0.0
  0
LINE
  5
2FF
  8
0
 10
770.7146492446714
 20
35.53250674916916
 30
0.0
 11
755.7146492446714
 21
35.53250674916916
 31
0.0
  0
LINE
  5
300
  8
0
 10
755.7146492446714
 20
35.53250674916916
 30
0.0
 11
755.7146492446714
 21
200.5325075985353
 31
0.0
  0
LINE
  5
301
  8
0
 10
755.7146492446714
 20
200.5325075985353
 30
0.0
 11
758.7146492893746
 21
200.5325075985353
 31
0.0
  0
LINE
  5
302
  8
0
 10
758.7146492893746
 20
200.5325075985353
 30
0.0
 11
758.7146492893746
 21
202.6675075985353
 31
0.0
  0
LINE
  5
303
  8
0
 10
758.7146492893746
 20
202.6675075985353
 30
0.0
 11
767.7146494234852
 21
202.6675075985353
 31
0.0
  0
LINE
  5
304
  8
0
 10
767.7146494234852
 20
202.6675075985353
 30
0.0
 11
767.7146494234852
 21
200.5325075985353
 31
0.0
  0
LINE
  5
305
  8
0
 10
767.7146494234852
 20
200.5325075985353
 30
0.0
 11
770.7146492446714
 21
200.5325075985353
 31
0.0
  0
LINE
  5
306
  8
0
 10
708.676475923389
 20
214.8654197056228
 30
0.0
 11
708.676475923389
 21
304.865420554989
 31
0.0
  0
LINE
  5
307
  8
0
 10
708.676475923389
 20
304.865420554989
 30
0.0
 11
711.6764759680925
 21
304.865420554989
 31
0.0
  0
LINE
  5
308
  8
0
 10
711.6764759680925
 20
304.865420554989
 30
0.0
 11
711.6764759680925
 21
307.000420554989
 31
0.0
  0
LINE
  5
309
  8
0
 10
711.6764759680925
 20
307.000420554989
 30
0.0
 11
720.6764761022031
 21
307.000420554989
 31
0.0
  0
LINE
  5
30A
  8
0
 10
720.6764761022031
 20
307.000420554989
 30
0.0
 11
720.6764761022031
 21
304.865420554989
 31
0.0
  0
LINE
  5
30B
  8
0
 10
720.6764761022031
 20
304.865420554989
 30
0.0
 11
723.676475923389
 21
304.865420554989
 31
0.0
  0
LINE
  5
30C
  8
0
 10
723.676475923389
 20
304.865420554989
 30
0.0
 11
723.676475923389
 21
214.8654197056228
 31
0.0
  0
LINE
  5
30D
  8
0
 10
723.676475923389
 20
214.8654197056228
 30
0.0
 11
708.676475923389
 21
214.8654197056228
 31
0.0
  0
LINE
  5
30E
  8
0
 10
734.061500131837
 20
214.8654197056228
 30
0.0
 11
734.061500131837
 21
304.865420554989
 31
0.0
  0
LINE
  5
30F
  8
0
 10
734.061500131837
 20
304.865420554989
 30
0.0
 11
737.0615001765404
 21
304.865420554989
 31
0.0
  0
LINE
  5
310
  8
0
 10
737.0615001765404
 20
304.865420554989
 30
0.0
 11
737.0615001765404
 21
307.000420554989
 31
0.0
  0
LINE
  5
311
  8
0
 10
737.0615001765404
 20
307.000420554989
 30
0.0
 11
746.0615003106508
 21
307.000420554989
 31
0.0
  0
LINE
  5
312
  8
0
 10
746.0615003106508
 20
307.000420554989
 30
0.0
 11
746.0615003106508
 21
304.865420554989
 31
0.0
  0
LINE
  5
313
  8
0
 10
746.0615003106508
 20
304.865420554989
 30
0.0
 11
749.061500131837
 21
304.865420554989
 31
0.0
  0
LINE
  5
314
  8
0
 10
749.061500131837
 20
304.865420554989
 30
0.0
 11
749.061500131837
 21
214.8654197056228
 31
0.0
  0
LINE
  5
315
  8
0
 10
749.061500131837
 20
214.8654197056228
 30
0.0
 11
734.061500131837
 21
214.8654197056228
 31
0.0
  0
LINE
  5
316
  8
0
 10
621.6005836155362
 20
204.6648125181116
 30
0.0
 11
621.6005836155362
 21
206.7998125181116
 31
0.0
  0
LINE
  5
317
  8
0
 10
621.6005836155362
 20
206.7998125181116
 30
0.0
 11
630.6005837496466
 21
206.7998125181116
 31
0.0
  0
LINE
  5
318
  8
0
 10
630.6005837496466
 20
206.7998125181116
 30
0.0
 11
630.6005837496466
 21
204.6648125181116
 31
0.0
  0
LINE
  5
319
  8
0
 10
630.6005837496466
 20
204.6648125181116
 30
0.0
 11
633.6005835708327
 21
204.6648125181116
 31
0.0
  0
LINE
  5
31A
  8
0
 10
633.6005835708327
 20
204.6648125181116
 30
0.0
 11
633.6005835708327
 21
84.66481166874544
 31
0.0
  0
LINE
  5
31B
  8
0
 10
633.6005835708327
 20
84.66481166874544
 30
0.0
 11
618.6005835708327
 21
84.66481166874544
 31
0.0
  0
LINE
  5
31C
  8
0
 10
618.6005835708327
 20
84.66481166874544
 30
0.0
 11
618.6005835708327
 21
204.6648125181116
 31
0.0
  0
LINE
  5
31D
  8
0
 10
618.6005835708327
 20
204.6648125181116
 30
0.0
 11
621.6005836155362
 21
204.6648125181116
 31
0.0
  0
LINE
  5
31E
  8
0
 10
597.034431155748
 20
204.6648125181116
 30
0.0
 11
597.034431155748
 21
206.7998125181116
 31
0.0
  0
LINE
  5
31F
  8
0
 10
597.034431155748
 20
206.7998125181116
 30
0.0
 11
606.0344312898584
 21
206.7998125181116
 31
0.0
  0
LINE
  5
320
  8
0
 10
606.0344312898584
 20
206.7998125181116
 30
0.0
 11
606.0344312898584
 21
204.6648125181116
 31
0.0
  0
LINE
  5
321
  8
0
 10
606.0344312898584
 20
204.6648125181116
 30
0.0
 11
609.0344311110446
 21
204.6648125181116
 31
0.0
  0
LINE
  5
322
  8
0
 10
609.0344311110446
 20
204.6648125181116
 30
0.0
 11
609.0344311110446
 21
84.66481166874544
 31
0.0
  0
LINE
  5
323
  8
0
 10
609.0344311110446
 20
84.66481166874544
 30
0.0
 11
594.0344311110446
 21
84.66481166874544
 31
0.0
  0
LINE
  5
324
  8
0
 10
594.0344311110446
 20
84.66481166874544
 30
0.0
 11
594.0344311110446
 21
204.6648125181116
 31
0.0
  0
LINE
  5
325
  8
0
 10
594.0344311110446
 20
204.6648125181116
 30
0.0
 11
597.034431155748
 21
204.6648125181116
 31
0.0
  0
LINE
  5
326
  8
0
 10
645.1669631756242
 20
82.20819642276666
 30
0.0
 11
645.1669631756242
 21
217.2081972721328
 31
0.0
  0
LINE
  5
327
  8
0
 10
645.1669631756242
 20
217.2081972721328
 30
0.0
 11
648.1669632203277
 21
217.2081972721328
 31
0.0
  0
LINE
  5
328
  8
0
 10
648.1669632203277
 20
217.2081972721328
 30
0.0
 11
648.1669632203277
 21
219.3431972721328
 31
0.0
  0
LINE
  5
329
  8
0
 10
648.1669632203277
 20
219.3431972721328
 30
0.0
 11
657.1669633544382
 21
219.3431972721328
 31
0.0
  0
LINE
  5
32A
  8
0
 10
657.1669633544382
 20
219.3431972721328
 30
0.0
 11
657.1669633544382
 21
217.2081972721328
 31
0.0
  0
LINE
  5
32B
  8
0
 10
657.1669633544382
 20
217.2081972721328
 30
0.0
 11
660.1669631756242
 21
217.2081972721328
 31
0.0
  0
LINE
  5
32C
  8
0
 10
660.1669631756242
 20
217.2081972721328
 30
0.0
 11
660.1669631756242
 21
82.20819642276666
 31
0.0
  0
LINE
  5
32D
  8
0
 10
660.1669631756242
 20
82.20819642276666
 30
0.0
 11
645.1669631756242
 21
82.20819642276666
 31
0.0
  0
LINE
  5
32E
  8
0
 10
794.918318056775
 20
213.8947641012162
 30
0.0
 11
794.918318056775
 21
136.12476325185
 31
0.0
  0
LINE
  5
32F
  8
0
 10
794.918318056775
 20
136.12476325185
 30
0.0
 11
790.918318056775
 21
136.12476325185
 31
0.0
  0
LINE
  5
330
  8
0
 10
790.918318056775
 20
136.12476325185
 30
0.0
 11
790.918318056775
 21
133.39476325185
 31
0.0
  0
LINE
  5
331
  8
0
 10
790.918318056775
 20
133.39476325185
 30
0.0
 11
794.918318056775
 21
133.39476325185
 31
0.0
  0
LINE
  5
332
  8
0
 10
794.918318056775
 20
133.39476325185
 30
0.0
 11
794.918318056775
 21
33.89476325185004
 31
0.0
  0
LINE
  5
333
  8
0
 10
794.918318056775
 20
33.89476325185004
 30
0.0
 11
779.918318056775
 21
33.89476325185004
 31
0.0
  0
LINE
  5
334
  8
0
 10
779.918318056775
 20
33.89476325185004
 30
0.0
 11
779.918318056775
 21
213.8947641012162
 31
0.0
  0
LINE
  5
335
  8
0
 10
779.918318056775
 20
213.8947641012162
 30
0.0
 11
782.9183181014785
 21
213.8947641012162
 31
0.0
  0
LINE
  5
336
  8
0
 10
782.9183181014785
 20
213.8947641012162
 30
0.0
 11
782.9183181014785
 21
216.0297641012162
 31
0.0
  0
LINE
  5
337
  8
0
 10
782.9183181014785
 20
216.0297641012162
 30
0.0
 11
791.9183182355889
 21
216.0297641012162
 31
0.0
  0
LINE
  5
338
  8
0
 10
791.9183182355889
 20
216.0297641012162
 30
0.0
 11
791.9183182355889
 21
213.8947641012162
 31
0.0
  0
LINE
  5
339
  8
0
 10
791.9183182355889
 20
213.8947641012162
 30
0.0
 11
794.918318056775
 21
213.8947641012162
 31
0.0
  0
LINE
  5
33A
  8
0
 10
814.0278554493982
 20
216.0297641012162
 30
0.0
 11
814.0278554493982
 21
213.8947641012162
 31
0.0
  0
LINE
  5
33B
  8
0
 10
814.0278554493982
 20
213.8947641012162
 30
0.0
 11
817.0278552705843
 21
213.8947641012162
 31
0.0
  0
LINE
  5
33C
  8
0
 10
817.0278552705843
 20
213.8947641012162
 30
0.0
 11
817.0278552705843
 21
136.12476325185
 31
0.0
  0
LINE
  5
33D
  8
0
 10
817.0278552705843
 20
136.12476325185
 30
0.0
 11
813.0278552705843
 21
136.12476325185
 31
0.0
  0
LINE
  5
33E
  8
0
 10
813.0278552705843
 20
136.12476325185
 30
0.0
 11
813.0278552705843
 21
133.39476325185
 31
0.0
  0
LINE
  5
33F
  8
0
 10
813.0278552705843
 20
133.39476325185
 30
0.0
 11
817.0278552705843
 21
133.39476325185
 31
0.0
  0
LINE
  5
340
  8
0
 10
817.0278552705843
 20
133.39476325185
 30
0.0
 11
817.0278552705843
 21
33.89476325185004
 31
0.0
  0
LINE
  5
341
  8
0
 10
817.0278552705843
 20
33.89476325185004
 30
0.0
 11
802.0278552705843
 21
33.89476325185004
 31
0.0
  0
LINE
  5
342
  8
0
 10
802.0278552705843
 20
33.89476325185004
 30
0.0
 11
802.0278552705843
 21
213.8947641012162
 31
0.0
  0
LINE
  5
343
  8
0
 10
802.0278552705843
 20
213.8947641012162
 30
0.0
 11
805.0278553152878
 21
213.8947641012162
 31
0.0
  0
LINE
  5
344
  8
0
 10
805.0278553152878
 20
213.8947641012162
 30
0.0
 11
805.0278553152878
 21
216.0297641012162
 31
0.0
  0
LINE
  5
345
  8
0
 10
805.0278553152878
 20
216.0297641012162
 30
0.0
 11
814.0278554493982
 21
216.0297641012162
 31
0.0
  0
LINE
  5
347
  8
DEFAULT
 10
869.9195519481974
 20
-106.7849864949781
 30
0.0
 11
869.9195519481974
 21
-115.5149866290885
 31
0.0
  0
LINE
  5
348
  8
DEFAULT
 10
869.9195519481974
 20
-115.5149866290885
 30
0.0
 11
872.9195519779997
 21
-115.5149866290885
 31
0.0
  0
LINE
  5
349
  8
DEFAULT
 10
872.9195519779997
 20
-115.5149866290885
 30
0.0
 11
872.9195519779997
 21
-106.7849864949781
 31
0.0
  0
LINE
  5
34A
  8
DEFAULT
 10
872.9195519779997
 20
-106.7849864949781
 30
0.0
 11
869.9195519481974
 21
-106.7849864949781
 31
0.0
  0
LINE
  5
34B
  8
DEFAULT
 10
801.9195509349184
 20
-106.7849864949781
 30
0.0
 11
801.9195509349184
 21
-115.5149866290885
 31
0.0
  0
LINE
  5
34C
  8
DEFAULT
 10
801.9195509349184
 20
-115.5149866290885
 30
0.0
 11
804.9195509647208
 21
-115.5149866290885
 31
0.0
  0
LINE
  5
34D
  8
DEFAULT
 10
804.9195509647208
 20
-115.5149866290885
 30
0.0
 11
804.9195509647208
 21
-106.7849864949781
 31
0.0
  0
LINE
  5
34E
  8
DEFAULT
 10
804.9195509647208
 20
-106.7849864949781
 30
0.0
 11
801.9195509349184
 21
-106.7849864949781
 31
0.0
  0
LINE
  5
34F
  8
0
 10
797.4195529465752
 20
-118.6499864502746
 30
0.0
 11
797.4195529465752
 21
-103.6499864502746
 31
0.0
  0
LINE
  5
350
  8
0
 10
797.4195529465752
 20
-103.6499864502746
 30
0.0
 11
877.4195529465752
 21
-103.6499864502746
 31
0.0
  0
LINE
  5
351
  8
0
 10
877.4195529465752
 20
-103.6499864502746
 30
0.0
 11
877.4195529465752
 21
-118.6499864502746
 31
0.0
  0
LINE
  5
352
  8
0
 10
877.4195529465752
 20
-118.6499864502746
 30
0.0
 11
797.4195529465752
 21
-118.6499864502746
 31
0.0
  0
LINE
  5
353
  8
DEFAULT
 10
869.9195519481974
 20
-89.78036989755404
 30
0.0
 11
869.9195519481974
 21
-98.51037003166448
 31
0.0
  0
LINE
  5
354
  8
DEFAULT
 10
869.9195519481974
 20
-98.51037003166448
 30
0.0
 11
872.9195519779997
 21
-98.51037003166448
 31
0.0
  0
LINE
  5
355
  8
DEFAULT
 10
872.9195519779997
 20
-98.51037003166448
 30
0.0
 11
872.9195519779997
 21
-89.78036989755404
 31
0.0
  0
LINE
  5
356
  8
DEFAULT
 10
872.9195519779997
 20
-89.78036989755404
 30
0.0
 11
869.9195519481974
 21
-89.78036989755404
 31
0.0
  0
LINE
  5
357
  8
DEFAULT
 10
801.9195509349184
 20
-89.78036989755404
 30
0.0
 11
801.9195509349184
 21
-98.51037003166448
 31
0.0
  0
LINE
  5
358
  8
DEFAULT
 10
801.9195509349184
 20
-98.51037003166448
 30
0.0
 11
804.9195509647208
 21
-98.51037003166448
 31
0.0
  0
LINE
  5
359
  8
DEFAULT
 10
804.9195509647208
 20
-98.51037003166448
 30
0.0
 11
804.9195509647208
 21
-89.78036989755404
 31
0.0
  0
LINE
  5
35A
  8
DEFAULT
 10
804.9195509647208
 20
-89.78036989755404
 30
0.0
 11
801.9195509349184
 21
-89.78036989755404
 31
0.0
  0
LINE
  5
35B
  8
0
 10
797.4195529465752
 20
-101.6453698528506
 30
0.0
 11
797.4195529465752
 21
-86.64536985285058
 31
0.0
  0
LINE
  5
35C
  8
0
 10
797.4195529465752
 20
-86.64536985285058
 30
0.0
 11
877.4195529465752
 21
-86.64536985285058
 31
0.0
  0
LINE
  5
35D
  8
0
 10
877.4195529465752
 20
-86.64536985285058
 30
0.0
 11
877.4195529465752
 21
-101.6453698528506
 31
0.0
  0
LINE
  5
35E
  8
0
 10
877.4195529465752
 20
-101.6453698528506
 30
0.0
 11
797.4195529465752
 21
-101.6453698528506
 31
0.0
  0
LINE
  5
35F
  8
DEFAULT
 10
869.9195519481974
 20
-73.53151403779327
 30
0.0
 11
869.9195519481974
 21
-82.26151417190368
 31
0.0
  0
LINE
  5
360
  8
DEFAULT
 10
869.9195519481974
 20
-82.26151417190368
 30
0.0
 11
872.9195519779997
 21
-82.26151417190368
 31
0.0
  0
LINE
  5
361
  8
DEFAULT
 10
872.9195519779997
 20
-82.26151417190368
 30
0.0
 11
872.9195519779997
 21
-73.53151403779327
 31
0.0
  0
LINE
  5
362
  8
DEFAULT
 10
872.9195519779997
 20
-73.53151403779327
 30
0.0
 11
869.9195519481974
 21
-73.53151403779327
 31
0.0
  0
LINE
  5
363
  8
DEFAULT
 10
801.9195509349184
 20
-73.53151403779327
 30
0.0
 11
801.9195509349184
 21
-82.26151417190368
 31
0.0
  0
LINE
  5
364
  8
DEFAULT
 10
801.9195509349184
 20
-82.26151417190368
 30
0.0
 11
804.9195509647208
 21
-82.26151417190368
 31
0.0
  0
LINE
  5
365
  8
DEFAULT
 10
804.9195509647208
 20
-82.26151417190368
 30
0.0
 11
804.9195509647208
 21
-73.53151403779327
 31
0.0
  0
LINE
  5
366
  8
DEFAULT
 10
804.9195509647208
 20
-73.53151403779327
 30
0.0
 11
801.9195509349184
 21
-73.53151403779327
 31
0.0
  0
LINE
  5
367
  8
0
 10
797.4195529465752
 20
-85.3965139930898
 30
0.0
 11
797.4195529465752
 21
-70.3965139930898
 31
0.0
  0
LINE
  5
368
  8
0
 10
797.4195529465752
 20
-70.3965139930898
 30
0.0
 11
877.4195529465752
 21
-70.3965139930898
 31
0.0
  0
LINE
  5
369
  8
0
 10
877.4195529465752
 20
-70.3965139930898
 30
0.0
 11
877.4195529465752
 21
-85.3965139930898
 31
0.0
  0
LINE
  5
36A
  8
0
 10
877.4195529465752
 20
-85.3965139930898
 30
0.0
 11
797.4195529465752
 21
-85.3965139930898
 31
0.0
  0
LINE
  5
36B
  8
DEFAULT
 10
869.9195519481974
 20
-56.14901707153754
 30
0.0
 11
869.9195519481974
 21
-64.87901720564795
 31
0.0
  0
LINE
  5
36C
  8
DEFAULT
 10
869.9195519481974
 20
-64.87901720564795
 30
0.0
 11
872.9195519779997
 21
-64.87901720564795
 31
0.0
  0
LINE
  5
36D
  8
DEFAULT
 10
872.9195519779997
 20
-64.87901720564795
 30
0.0
 11
872.9195519779997
 21
-56.14901707153754
 31
0.0
  0
LINE
  5
36E
  8
DEFAULT
 10
872.9195519779997
 20
-56.14901707153754
 30
0.0
 11
869.9195519481974
 21
-56.14901707153754
 31
0.0
  0
LINE
  5
36F
  8
DEFAULT
 10
801.9195509349184
 20
-56.14901707153754
 30
0.0
 11
801.9195509349184
 21
-64.87901720564795
 31
0.0
  0
LINE
  5
370
  8
DEFAULT
 10
801.9195509349184
 20
-64.87901720564795
 30
0.0
 11
804.9195509647208
 21
-64.87901720564795
 31
0.0
  0
LINE
  5
371
  8
DEFAULT
 10
804.9195509647208
 20
-64.87901720564795
 30
0.0
 11
804.9195509647208
 21
-56.14901707153754
 31
0.0
  0
LINE
  5
372
  8
DEFAULT
 10
804.9195509647208
 20
-56.14901707153754
 30
0.0
 11
801.9195509349184
 21
-56.14901707153754
 31
0.0
  0
LINE
  5
373
  8
0
 10
797.4195529465752
 20
-68.01401702683407
 30
0.0
 11
797.4195529465752
 21
-53.01401702683407
 31
0.0
  0
LINE
  5
374
  8
0
 10
797.4195529465752
 20
-53.01401702683407
 30
0.0
 11
877.4195529465752
 21
-53.01401702683407
 31
0.0
  0
LINE
  5
375
  8
0
 10
877.4195529465752
 20
-53.01401702683407
 30
0.0
 11
877.4195529465752
 21
-68.01401702683407
 31
0.0
  0
LINE
  5
376
  8
0
 10
877.4195529465752
 20
-68.01401702683407
 30
0.0
 11
797.4195529465752
 21
-68.01401702683407
 31
0.0
  0
LINE
  5
377
  8
DEFAULT
 10
869.9195519481974
 20
-39.52228084294513
 30
0.0
 11
869.9195519481974
 21
-48.25228097705556
 31
0.0
  0
LINE
  5
378
  8
DEFAULT
 10
869.9195519481974
 20
-48.25228097705556
 30
0.0
 11
872.9195519779997
 21
-48.25228097705556
 31
0.0
  0
LINE
  5
379
  8
DEFAULT
 10
872.9195519779997
 20
-48.25228097705556
 30
0.0
 11
872.9195519779997
 21
-39.52228084294513
 31
0.0
  0
LINE
  5
37A
  8
DEFAULT
 10
872.9195519779997
 20
-39.52228084294513
 30
0.0
 11
869.9195519481974
 21
-39.52228084294513
 31
0.0
  0
LINE
  5
37B
  8
DEFAULT
 10
801.9195509349184
 20
-39.52228084294513
 30
0.0
 11
801.9195509349184
 21
-48.25228097705556
 31
0.0
  0
LINE
  5
37C
  8
DEFAULT
 10
801.9195509349184
 20
-48.25228097705556
 30
0.0
 11
804.9195509647208
 21
-48.25228097705556
 31
0.0
  0
LINE
  5
37D
  8
DEFAULT
 10
804.9195509647208
 20
-48.25228097705556
 30
0.0
 11
804.9195509647208
 21
-39.52228084294513
 31
0.0
  0
LINE
  5
37E
  8
DEFAULT
 10
804.9195509647208
 20
-39.52228084294513
 30
0.0
 11
801.9195509349184
 21
-39.52228084294513
 31
0.0
  0
LINE
  5
37F
  8
0
 10
797.4195529465752
 20
-51.38728079824166
 30
0.0
 11
797.4195529465752
 21
-36.38728079824166
 31
0.0
  0
LINE
  5
380
  8
0
 10
797.4195529465752
 20
-36.38728079824166
 30
0.0
 11
877.4195529465752
 21
-36.38728079824166
 31
0.0
  0
LINE
  5
381
  8
0
 10
877.4195529465752
 20
-36.38728079824166
 30
0.0
 11
877.4195529465752
 21
-51.38728079824166
 31
0.0
  0
LINE
  5
382
  8
0
 10
877.4195529465752
 20
-51.38728079824166
 30
0.0
 11
797.4195529465752
 21
-51.38728079824166
 31
0.0
  0
LINE
  5
383
  8
DEFAULT
 10
869.9195519481974
 20
-22.51766424552107
 30
0.0
 11
869.9195519481974
 21
-31.24766437963149
 31
0.0
  0
LINE
  5
384
  8
DEFAULT
 10
869.9195519481974
 20
-31.24766437963149
 30
0.0
 11
872.9195519779997
 21
-31.24766437963149
 31
0.0
  0
LINE
  5
385
  8
DEFAULT
 10
872.9195519779997
 20
-31.24766437963149
 30
0.0
 11
872.9195519779997
 21
-22.51766424552107
 31
0.0
  0
LINE
  5
386
  8
DEFAULT
 10
872.9195519779997
 20
-22.51766424552107
 30
0.0
 11
869.9195519481974
 21
-22.51766424552107
 31
0.0
  0
LINE
  5
387
  8
DEFAULT
 10
801.9195509349184
 20
-22.51766424552107
 30
0.0
 11
801.9195509349184
 21
-31.24766437963149
 31
0.0
  0
LINE
  5
388
  8
DEFAULT
 10
801.9195509349184
 20
-31.24766437963149
 30
0.0
 11
804.9195509647208
 21
-31.24766437963149
 31
0.0
  0
LINE
  5
389
  8
DEFAULT
 10
804.9195509647208
 20
-31.24766437963149
 30
0.0
 11
804.9195509647208
 21
-22.51766424552107
 31
0.0
  0
LINE
  5
38A
  8
DEFAULT
 10
804.9195509647208
 20
-22.51766424552107
 30
0.0
 11
801.9195509349184
 21
-22.51766424552107
 31
0.0
  0
LINE
  5
38B
  8
0
 10
797.4195529465752
 20
-34.3826642008176
 30
0.0
 11
797.4195529465752
 21
-19.3826642008176
 31
0.0
  0
LINE
  5
38C
  8
0
 10
797.4195529465752
 20
-19.3826642008176
 30
0.0
 11
877.4195529465752
 21
-19.3826642008176
 31
0.0
  0
LINE
  5
38D
  8
0
 10
877.4195529465752
 20
-19.3826642008176
 30
0.0
 11
877.4195529465752
 21
-34.3826642008176
 31
0.0
  0
LINE
  5
38E
  8
0
 10
877.4195529465752
 20
-34.3826642008176
 30
0.0
 11
797.4195529465752
 21
-34.3826642008176
 31
0.0
  0
LINE
  5
38F
  8
DEFAULT
 10
869.9195519481974
 20
-5.513047648097029
 30
0.0
 11
869.9195519481974
 21
-14.24304778220746
 31
0.0
  0
LINE
  5
390
  8
DEFAULT
 10
869.9195519481974
 20
-14.24304778220746
 30
0.0
 11
872.9195519779997
 21
-14.24304778220746
 31
0.0
  0
LINE
  5
391
  8
DEFAULT
 10
872.9195519779997
 20
-14.24304778220746
 30
0.0
 11
872.9195519779997
 21
-5.513047648097029
 31
0.0
  0
LINE
  5
392
  8
DEFAULT
 10
872.9195519779997
 20
-5.513047648097029
 30
0.0
 11
869.9195519481974
 21
-5.513047648097029
 31
0.0
  0
LINE
  5
393
  8
DEFAULT
 10
801.9195509349184
 20
-5.513047648097029
 30
0.0
 11
801.9195509349184
 21
-14.24304778220746
 31
0.0
  0
LINE
  5
394
  8
DEFAULT
 10
801.9195509349184
 20
-14.24304778220746
 30
0.0
 11
804.9195509647208
 21
-14.24304778220746
 31
0.0
  0
LINE
  5
395
  8
DEFAULT
 10
804.9195509647208
 20
-14.24304778220746
 30
0.0
 11
804.9195509647208
 21
-5.513047648097029
 31
0.0
  0
LINE
  5
396
  8
DEFAULT
 10
804.9195509647208
 20
-5.513047648097029
 30
0.0
 11
801.9195509349184
 21
-5.513047648097029
 31
0.0
  0
LINE
  5
397
  8
0
 10
797.4195529465752
 20
-17.37804760339356
 30
0.0
 11
797.4195529465752
 21
-2.378047603393558
 31
0.0
  0
LINE
  5
398
  8
0
 10
797.4195529465752
 20
-2.378047603393558
 30
0.0
 11
877.4195529465752
 21
-2.378047603393558
 31
0.0
  0
LINE
  5
399
  8
0
 10
877.4195529465752
 20
-2.378047603393558
 30
0.0
 11
877.4195529465752
 21
-17.37804760339356
 31
0.0
  0
LINE
  5
39A
  8
0
 10
877.4195529465752
 20
-17.37804760339356
 30
0.0
 11
797.4195529465752
 21
-17.37804760339356
 31
0.0
  0
LINE
  5
39B
  8
DEFAULT
 10
869.9195519481974
 20
11.62514965970905
 30
0.0
 11
869.9195519481974
 21
2.895149525598622
 31
0.0
  0
LINE
  5
39C
  8
DEFAULT
 10
869.9195519481974
 20
2.895149525598622
 30
0.0
 11
872.9195519779997
 21
2.895149525598622
 31
0.0
  0
LINE
  5
39D
  8
DEFAULT
 10
872.9195519779997
 20
2.895149525598622
 30
0.0
 11
872.9195519779997
 21
11.62514965970905
 31
0.0
  0
LINE
  5
39E
  8
DEFAULT
 10
872.9195519779997
 20
11.62514965970905
 30
0.0
 11
869.9195519481974
 21
11.62514965970905
 31
0.0
  0
LINE
  5
39F
  8
DEFAULT
 10
801.9195509349184
 20
11.62514965970905
 30
0.0
 11
801.9195509349184
 21
2.895149525598622
 31
0.0
  0
LINE
  5
3A0
  8
DEFAULT
 10
801.9195509349184
 20
2.895149525598622
 30
0.0
 11
804.9195509647208
 21
2.895149525598622
 31
0.0
  0
LINE
  5
3A1
  8
DEFAULT
 10
804.9195509647208
 20
2.895149525598622
 30
0.0
 11
804.9195509647208
 21
11.62514965970905
 31
0.0
  0
LINE
  5
3A2
  8
DEFAULT
 10
804.9195509647208
 20
11.62514965970905
 30
0.0
 11
801.9195509349184
 21
11.62514965970905
 31
0.0
  0
LINE
  5
3A3
  8
0
 10
797.4195529465752
 20
-0.2398502955874804
 30
0.0
 11
797.4195529465752
 21
14.76014970441252
 31
0.0
  0
LINE
  5
3A4
  8
0
 10
797.4195529465752
 20
14.76014970441252
 30
0.0
 11
877.4195529465752
 21
14.76014970441252
 31
0.0
  0
LINE
  5
3A5
  8
0
 10
877.4195529465752
 20
14.76014970441252
 30
0.0
 11
877.4195529465752
 21
-0.2398502955874804
 31
0.0
  0
LINE
  5
3A6
  8
0
 10
877.4195529465752
 20
-0.2398502955874804
 30
0.0
 11
797.4195529465752
 21
-0.2398502955874804
 31
0.0
  0
LINE
  5
3A7
  8
DEFAULT
 10
869.9195519481974
 20
27.74042480908782
 30
0.0
 11
869.9195519481974
 21
19.01042467497739
 31
0.0
  0
LINE
  5
3A8
  8
DEFAULT
 10
869.9195519481974
 20
19.01042467497739
 30
0.0
 11
872.9195519779997
 21
19.01042467497739
 31
0.0
  0
LINE
  5
3A9
  8
DEFAULT
 10
872.9195519779997
 20
19.01042467497739
 30
0.0
 11
872.9195519779997
 21
27.74042480908782
 31
0.0
  0
LINE
  5
3AA
  8
DEFAULT
 10
872.9195519779997
 20
27.74042480908782
 30
0.0
 11
869.9195519481974
 21
27.74042480908782
 31
0.0
  0
LINE
  5
3AB
  8
DEFAULT
 10
801.9195509349184
 20
27.74042480908782
 30
0.0
 11
801.9195509349184
 21
19.01042467497739
 31
0.0
  0
LINE
  5
3AC
  8
DEFAULT
 10
801.9195509349184
 20
19.01042467497739
 30
0.0
 11
804.9195509647208
 21
19.01042467497739
 31
0.0
  0
LINE
  5
3AD
  8
DEFAULT
 10
804.9195509647208
 20
19.01042467497739
 30
0.0
 11
804.9195509647208
 21
27.74042480908782
 31
0.0
  0
LINE
  5
3AE
  8
DEFAULT
 10
804.9195509647208
 20
27.74042480908782
 30
0.0
 11
801.9195509349184
 21
27.74042480908782
 31
0.0
  0
LINE
  5
3AF
  8
0
 10
797.4195529465752
 20
15.87542485379129
 30
0.0
 11
797.4195529465752
 21
30.87542485379129
 31
0.0
  0
LINE
  5
3B0
  8
0
 10
797.4195529465752
 20
30.87542485379129
 30
0.0
 11
877.4195529465752
 21
30.87542485379129
 31
0.0
  0
LINE
  5
3B1
  8
0
 10
877.4195529465752
 20
30.87542485379129
 30
0.0
 11
877.4195529465752
 21
15.87542485379129
 31
0.0
  0
LINE
  5
3B2
  8
0
 10
877.4195529465752
 20
15.87542485379129
 30
0.0
 11
797.4195529465752
 21
15.87542485379129
 31
0.0
  0
LINE
  5
3B3
  8
DEFAULT
 10
786.4079904364037
 20
-106.7849864949781
 30
0.0
 11
786.4079904364037
 21
-115.5149866290885
 31
0.0
  0
LINE
  5
3B4
  8
DEFAULT
 10
786.4079904364037
 20
-115.5149866290885
 30
0.0
 11
789.407990466206
 21
-115.5149866290885
 31
0.0
  0
LINE
  5
3B5
  8
DEFAULT
 10
789.407990466206
 20
-115.5149866290885
 30
0.0
 11
789.407990466206
 21
-106.7849864949781
 31
0.0
  0
LINE
  5
3B6
  8
DEFAULT
 10
789.407990466206
 20
-106.7849864949781
 30
0.0
 11
786.4079904364037
 21
-106.7849864949781
 31
0.0
  0
LINE
  5
3B7
  8
DEFAULT
 10
718.4079894231247
 20
-106.7849864949781
 30
0.0
 11
718.4079894231247
 21
-115.5149866290885
 31
0.0
  0
LINE
  5
3B8
  8
DEFAULT
 10
718.4079894231247
 20
-115.5149866290885
 30
0.0
 11
721.407989452927
 21
-115.5149866290885
 31
0.0
  0
LINE
  5
3B9
  8
DEFAULT
 10
721.407989452927
 20
-115.5149866290885
 30
0.0
 11
721.407989452927
 21
-106.7849864949781
 31
0.0
  0
LINE
  5
3BA
  8
DEFAULT
 10
721.407989452927
 20
-106.7849864949781
 30
0.0
 11
718.4079894231247
 21
-106.7849864949781
 31
0.0
  0
LINE
  5
3BB
  8
0
 10
713.9079914347815
 20
-118.6499864502746
 30
0.0
 11
713.9079914347815
 21
-103.6499864502746
 31
0.0
  0
LINE
  5
3BC
  8
0
 10
713.9079914347815
 20
-103.6499864502746
 30
0.0
 11
793.9079914347815
 21
-103.6499864502746
 31
0.0
  0
LINE
  5
3BD
  8
0
 10
793.9079914347815
 20
-103.6499864502746
 30
0.0
 11
793.9079914347815
 21
-118.6499864502746
 31
0.0
  0
LINE
  5
3BE
  8
0
 10
793.9079914347815
 20
-118.6499864502746
 30
0.0
 11
713.9079914347815
 21
-118.6499864502746
 31
0.0
  0
LINE
  5
3BF
  8
DEFAULT
 10
786.4079904364037
 20
-89.78036989755404
 30
0.0
 11
786.4079904364037
 21
-98.51037003166448
 31
0.0
  0
LINE
  5
3C0
  8
DEFAULT
 10
786.4079904364037
 20
-98.51037003166448
 30
0.0
 11
789.407990466206
 21
-98.51037003166448
 31
0.0
  0
LINE
  5
3C1
  8
DEFAULT
 10
789.407990466206
 20
-98.51037003166448
 30
0.0
 11
789.407990466206
 21
-89.78036989755404
 31
0.0
  0
LINE
  5
3C2
  8
DEFAULT
 10
789.407990466206
 20
-89.78036989755404
 30
0.0
 11
786.4079904364037
 21
-89.78036989755404
 31
0.0
  0
LINE
  5
3C3
  8
DEFAULT
 10
718.4079894231247
 20
-89.78036989755404
 30
0.0
 11
718.4079894231247
 21
-98.51037003166448
 31
0.0
  0
LINE
  5
3C4
  8
DEFAULT
 10
718.4079894231247
 20
-98.51037003166448
 30
0.0
 11
721.407989452927
 21
-98.51037003166448
 31
0.0
  0
LINE
  5
3C5
  8
DEFAULT
 10
721.407989452927
 20
-98.51037003166448
 30
0.0
 11
721.407989452927
 21
-89.78036989755404
 31
0.0
  0
LINE
  5
3C6
  8
DEFAULT
 10
721.407989452927
 20
-89.78036989755404
 30
0.0
 11
718.4079894231247
 21
-89.78036989755404
 31
0.0
  0
LINE
  5
3C7
  8
0
 10
713.9079914347815
 20
-101.6453698528506
 30
0.0
 11
713.9079914347815
 21
-86.64536985285058
 31
0.0
  0
LINE
  5
3C8
  8
0
 10
713.9079914347815
 20
-86.64536985285058
 30
0.0
 11
793.9079914347815
 21
-86.64536985285058
 31
0.0
  0
LINE
  5
3C9
  8
0
 10
793.9079914347815
 20
-86.64536985285058
 30
0.0
 11
793.9079914347815
 21
-101.6453698528506
 31
0.0
  0
LINE
  5
3CA
  8
0
 10
793.9079914347815
 20
-101.6453698528506
 30
0.0
 11
713.9079914347815
 21
-101.6453698528506
 31
0.0
  0
LINE
  5
3CB
  8
DEFAULT
 10
786.4079904364037
 20
-73.53151403779327
 30
0.0
 11
786.4079904364037
 21
-82.26151417190368
 31
0.0
  0
LINE
  5
3CC
  8
DEFAULT
 10
786.4079904364037
 20
-82.26151417190368
 30
0.0
 11
789.407990466206
 21
-82.26151417190368
 31
0.0
  0
LINE
  5
3CD
  8
DEFAULT
 10
789.407990466206
 20
-82.26151417190368
 30
0.0
 11
789.407990466206
 21
-73.53151403779327
 31
0.0
  0
LINE
  5
3CE
  8
DEFAULT
 10
789.407990466206
 20
-73.53151403779327
 30
0.0
 11
786.4079904364037
 21
-73.53151403779327
 31
0.0
  0
LINE
  5
3CF
  8
DEFAULT
 10
718.4079894231247
 20
-73.53151403779327
 30
0.0
 11
718.4079894231247
 21
-82.26151417190368
 31
0.0
  0
LINE
  5
3D0
  8
DEFAULT
 10
718.4079894231247
 20
-82.26151417190368
 30
0.0
 11
721.407989452927
 21
-82.26151417190368
 31
0.0
  0
LINE
  5
3D1
  8
DEFAULT
 10
721.407989452927
 20
-82.26151417190368
 30
0.0
 11
721.407989452927
 21
-73.53151403779327
 31
0.0
  0
LINE
  5
3D2
  8
DEFAULT
 10
721.407989452927
 20
-73.53151403779327
 30
0.0
 11
718.4079894231247
 21
-73.53151403779327
 31
0.0
  0
LINE
  5
3D3
  8
0
 10
713.9079914347815
 20
-85.3965139930898
 30
0.0
 11
713.9079914347815
 21
-70.3965139930898
 31
0.0
  0
LINE
  5
3D4
  8
0
 10
713.9079914347815
 20
-70.3965139930898
 30
0.0
 11
793.9079914347815
 21
-70.3965139930898
 31
0.0
  0
LINE
  5
3D5
  8
0
 10
793.9079914347815
 20
-70.3965139930898
 30
0.0
 11
793.9079914347815
 21
-85.3965139930898
 31
0.0
  0
LINE
  5
3D6
  8
0
 10
793.9079914347815
 20
-85.3965139930898
 30
0.0
 11
713.9079914347815
 21
-85.3965139930898
 31
0.0
  0
LINE
  5
3D7
  8
DEFAULT
 10
786.4079904364037
 20
-56.14901707153754
 30
0.0
 11
786.4079904364037
 21
-64.87901720564795
 31
0.0
  0
LINE
  5
3D8
  8
DEFAULT
 10
786.4079904364037
 20
-64.87901720564795
 30
0.0
 11
789.407990466206
 21
-64.87901720564795
 31
0.0
  0
LINE
  5
3D9
  8
DEFAULT
 10
789.407990466206
 20
-64.87901720564795
 30
0.0
 11
789.407990466206
 21
-56.14901707153754
 31
0.0
  0
LINE
  5
3DA
  8
DEFAULT
 10
789.407990466206
 20
-56.14901707153754
 30
0.0
 11
786.4079904364037
 21
-56.14901707153754
 31
0.0
  0
LINE
  5
3DB
  8
DEFAULT
 10
718.4079894231247
 20
-56.14901707153754
 30
0.0
 11
718.4079894231247
 21
-64.87901720564795
 31
0.0
  0
LINE
  5
3DC
  8
DEFAULT
 10
718.4079894231247
 20
-64.87901720564795
 30
0.0
 11
721.407989452927
 21
-64.87901720564795
 31
0.0
  0
LINE
  5
3DD
  8
DEFAULT
 10
721.407989452927
 20
-64.87901720564795
 30
0.0
 11
721.407989452927
 21
-56.14901707153754
 31
0.0
  0
LINE
  5
3DE
  8
DEFAULT
 10
721.407989452927
 20
-56.14901707153754
 30
0.0
 11
718.4079894231247
 21
-56.14901707153754
 31
0.0
  0
LINE
  5
3DF
  8
0
 10
713.9079914347815
 20
-68.01401702683407
 30
0.0
 11
713.9079914347815
 21
-53.01401702683407
 31
0.0
  0
LINE
  5
3E0
  8
0
 10
713.9079914347815
 20
-53.01401702683407
 30
0.0
 11
793.9079914347815
 21
-53.01401702683407
 31
0.0
  0
LINE
  5
3E1
  8
0
 10
793.9079914347815
 20
-53.01401702683407
 30
0.0
 11
793.9079914347815
 21
-68.01401702683407
 31
0.0
  0
LINE
  5
3E2
  8
0
 10
793.9079914347815
 20
-68.01401702683407
 30
0.0
 11
713.9079914347815
 21
-68.01401702683407
 31
0.0
  0
LINE
  5
3E3
  8
DEFAULT
 10
786.4079904364037
 20
-39.52228084294513
 30
0.0
 11
786.4079904364037
 21
-48.25228097705556
 31
0.0
  0
LINE
  5
3E4
  8
DEFAULT
 10
786.4079904364037
 20
-48.25228097705556
 30
0.0
 11
789.407990466206
 21
-48.25228097705556
 31
0.0
  0
LINE
  5
3E5
  8
DEFAULT
 10
789.407990466206
 20
-48.25228097705556
 30
0.0
 11
789.407990466206
 21
-39.52228084294513
 31
0.0
  0
LINE
  5
3E6
  8
DEFAULT
 10
789.407990466206
 20
-39.52228084294513
 30
0.0
 11
786.4079904364037
 21
-39.52228084294513
 31
0.0
  0
LINE
  5
3E7
  8
DEFAULT
 10
718.4079894231247
 20
-39.52228084294513
 30
0.0
 11
718.4079894231247
 21
-48.25228097705556
 31
0.0
  0
LINE
  5
3E8
  8
DEFAULT
 10
718.4079894231247
 20
-48.25228097705556
 30
0.0
 11
721.407989452927
 21
-48.25228097705556
 31
0.0
  0
LINE
  5
3E9
  8
DEFAULT
 10
721.407989452927
 20
-48.25228097705556
 30
0.0
 11
721.407989452927
 21
-39.52228084294513
 31
0.0
  0
LINE
  5
3EA
  8
DEFAULT
 10
721.407989452927
 20
-39.52228084294513
 30
0.0
 11
718.4079894231247
 21
-39.52228084294513
 31
0.0
  0
LINE
  5
3EB
  8
0
 10
713.9079914347815
 20
-51.38728079824166
 30
0.0
 11
713.9079914347815
 21
-36.38728079824166
 31
0.0
  0
LINE
  5
3EC
  8
0
 10
713.9079914347815
 20
-36.38728079824166
 30
0.0
 11
793.9079914347815
 21
-36.38728079824166
 31
0.0
  0
LINE
  5
3ED
  8
0
 10
793.9079914347815
 20
-36.38728079824166
 30
0.0
 11
793.9079914347815
 21
-51.38728079824166
 31
0.0
  0
LINE
  5
3EE
  8
0
 10
793.9079914347815
 20
-51.38728079824166
 30
0.0
 11
713.9079914347815
 21
-51.38728079824166
 31
0.0
  0
LINE
  5
3EF
  8
DEFAULT
 10
786.4079904364037
 20
-22.51766424552107
 30
0.0
 11
786.4079904364037
 21
-31.24766437963149
 31
0.0
  0
LINE
  5
3F0
  8
DEFAULT
 10
786.4079904364037
 20
-31.24766437963149
 30
0.0
 11
789.407990466206
 21
-31.24766437963149
 31
0.0
  0
LINE
  5
3F1
  8
DEFAULT
 10
789.407990466206
 20
-31.24766437963149
 30
0.0
 11
789.407990466206
 21
-22.51766424552107
 31
0.0
  0
LINE
  5
3F2
  8
DEFAULT
 10
789.407990466206
 20
-22.51766424552107
 30
0.0
 11
786.4079904364037
 21
-22.51766424552107
 31
0.0
  0
LINE
  5
3F3
  8
DEFAULT
 10
718.4079894231247
 20
-22.51766424552107
 30
0.0
 11
718.4079894231247
 21
-31.24766437963149
 31
0.0
  0
LINE
  5
3F4
  8
DEFAULT
 10
718.4079894231247
 20
-31.24766437963149
 30
0.0
 11
721.407989452927
 21
-31.24766437963149
 31
0.0
  0
LINE
  5
3F5
  8
DEFAULT
 10
721.407989452927
 20
-31.24766437963149
 30
0.0
 11
721.407989452927
 21
-22.51766424552107
 31
0.0
  0
LINE
  5
3F6
  8
DEFAULT
 10
721.407989452927
 20
-22.51766424552107
 30
0.0
 11
718.4079894231247
 21
-22.51766424552107
 31
0.0
  0
LINE
  5
3F7
  8
0
 10
713.9079914347815
 20
-34.3826642008176
 30
0.0
 11
713.9079914347815
 21
-19.3826642008176
 31
0.0
  0
LINE
  5
3F8
  8
0
 10
713.9079914347815
 20
-19.3826642008176
 30
0.0
 11
793.9079914347815
 21
-19.3826642008176
 31
0.0
  0
LINE
  5
3F9
  8
0
 10
793.9079914347815
 20
-19.3826642008176
 30
0.0
 11
793.9079914347815
 21
-34.3826642008176
 31
0.0
  0
LINE
  5
3FA
  8
0
 10
793.9079914347815
 20
-34.3826642008176
 30
0.0
 11
713.9079914347815
 21
-34.3826642008176
 31
0.0
  0
LINE
  5
3FB
  8
DEFAULT
 10
786.4079904364037
 20
-5.513047648097029
 30
0.0
 11
786.4079904364037
 21
-14.24304778220746
 31
0.0
  0
LINE
  5
3FC
  8
DEFAULT
 10
786.4079904364037
 20
-14.24304778220746
 30
0.0
 11
789.407990466206
 21
-14.24304778220746
 31
0.0
  0
LINE
  5
3FD
  8
DEFAULT
 10
789.407990466206
 20
-14.24304778220746
 30
0.0
 11
789.407990466206
 21
-5.513047648097029
 31
0.0
  0
LINE
  5
3FE
  8
DEFAULT
 10
789.407990466206
 20
-5.513047648097029
 30
0.0
 11
786.4079904364037
 21
-5.513047648097029
 31
0.0
  0
LINE
  5
3FF
  8
DEFAULT
 10
718.4079894231247
 20
-5.513047648097029
 30
0.0
 11
718.4079894231247
 21
-14.24304778220746
 31
0.0
  0
LINE
  5
400
  8
DEFAULT
 10
718.4079894231247
 20
-14.24304778220746
 30
0.0
 11
721.407989452927
 21
-14.24304778220746
 31
0.0
  0
LINE
  5
401
  8
DEFAULT
 10
721.407989452927
 20
-14.24304778220746
 30
0.0
 11
721.407989452927
 21
-5.513047648097029
 31
0.0
  0
LINE
  5
402
  8
DEFAULT
 10
721.407989452927
 20
-5.513047648097029
 30
0.0
 11
718.4079894231247
 21
-5.513047648097029
 31
0.0
  0
LINE
  5
403
  8
0
 10
713.9079914347815
 20
-17.37804760339356
 30
0.0
 11
713.9079914347815
 21
-2.378047603393558
 31
0.0
  0
LINE
  5
404
  8
0
 10
713.9079914347815
 20
-2.378047603393558
 30
0.0
 11
793.9079914347815
 21
-2.378047603393558
 31
0.0
  0
LINE
  5
405
  8
0
 10
793.9079914347815
 20
-2.378047603393558
 30
0.0
 11
793.9079914347815
 21
-17.37804760339356
 31
0.0
  0
LINE
  5
406
  8
0
 10
793.9079914347815
 20
-17.37804760339356
 30
0.0
 11
713.9079914347815
 21
-17.37804760339356
 31
0.0
  0
LINE
  5
407
  8
DEFAULT
 10
786.4079904364037
 20
11.62514965970905
 30
0.0
 11
786.4079904364037
 21
2.895149525598622
 31
0.0
  0
LINE
  5
408
  8
DEFAULT
 10
786.4079904364037
 20
2.895149525598622
 30
0.0
 11
789.407990466206
 21
2.895149525598622
 31
0.0
  0
LINE
  5
409
  8
DEFAULT
 10
789.407990466206
 20
2.895149525598622
 30
0.0
 11
789.407990466206
 21
11.62514965970905
 31
0.0
  0
LINE
  5
40A
  8
DEFAULT
 10
789.407990466206
 20
11.62514965970905
 30
0.0
 11
786.4079904364037
 21
11.62514965970905
 31
0.0
  0
LINE
  5
40B
  8
DEFAULT
 10
718.4079894231247
 20
11.62514965970905
 30
0.0
 11
718.4079894231247
 21
2.895149525598622
 31
0.0
  0
LINE
  5
40C
  8
DEFAULT
 10
718.4079894231247
 20
2.895149525598622
 30
0.0
 11
721.407989452927
 21
2.895149525598622
 31
0.0
  0
LINE
  5
40D
  8
DEFAULT
 10
721.407989452927
 20
2.895149525598622
 30
0.0
 11
721.407989452927
 21
11.62514965970905
 31
0.0
  0
LINE
  5
40E
  8
DEFAULT
 10
721.407989452927
 20
11.62514965970905
 30
0.0
 11
718.4079894231247
 21
11.62514965970905
 31
0.0
  0
LINE
  5
40F
  8
0
 10
713.9079914347815
 20
-0.2398502955874804
 30
0.0
 11
713.9079914347815
 21
14.76014970441252
 31
0.0
  0
LINE
  5
410
  8
0
 10
713.9079914347815
 20
14.76014970441252
 30
0.0
 11
793.9079914347815
 21
14.76014970441252
 31
0.0
  0
LINE
  5
411
  8
0
 10
793.9079914347815
 20
14.76014970441252
 30
0.0
 11
793.9079914347815
 21
-0.2398502955874804
 31
0.0
  0
LINE
  5
412
  8
0
 10
793.9079914347815
 20
-0.2398502955874804
 30
0.0
 11
713.9079914347815
 21
-0.2398502955874804
 31
0.0
  0
LINE
  5
413
  8
DEFAULT
 10
786.4079904364037
 20
27.74042480908782
 30
0.0
 11
786.4079904364037
 21
19.01042467497739
 31
0.0
  0
LINE
  5
414
  8
DEFAULT
 10
786.4079904364037
 20
19.01042467497739
 30
0.0
 11
789.407990466206
 21
19.01042467497739
 31
0.0
  0
LINE
  5
415
  8
DEFAULT
 10
789.407990466206
 20
19.01042467497739
 30
0.0
 11
789.407990466206
 21
27.74042480908782
 31
0.0
  0
LINE
  5
416
  8
DEFAULT
 10
789.407990466206
 20
27.74042480908782
 30
0.0
 11
786.4079904364037
 21
27.74042480908782
 31
0.0
  0
LINE
  5
417
  8
DEFAULT
 10
718.4079894231247
 20
27.74042480908782
 30
0.0
 11
718.4079894231247
 21
19.01042467497739
 31
0.0
  0
LINE
  5
418
  8
DEFAULT
 10
718.4079894231247
 20
19.01042467497739
 30
0.0
 11
721.407989452927
 21
19.01042467497739
 31
0.0
  0
LINE
  5
419
  8
DEFAULT
 10
721.407989452927
 20
19.01042467497739
 30
0.0
 11
721.407989452927
 21
27.74042480908782
 31
0.0
  0
LINE
  5
41A
  8
DEFAULT
 10
721.407989452927
 20
27.74042480908782
 30
0.0
 11
718.4079894231247
 21
27.74042480908782
 31
0.0
  0
LINE
  5
41B
  8
0
 10
713.9079914347815
 20
15.87542485379129
 30
0.0
 11
713.9079914347815
 21
30.87542485379129
 31
0.0
  0
LINE
  5
41C
  8
0
 10
713.9079914347815
 20
30.87542485379129
 30
0.0
 11
793.9079914347815
 21
30.87542485379129
 31
0.0
  0
LINE
  5
41D
  8
0
 10
793.9079914347815
 20
30.87542485379129
 30
0.0
 11
793.9079914347815
 21
15.87542485379129
 31
0.0
  0
LINE
  5
41E
  8
0
 10
793.9079914347815
 20
15.87542485379129
 30
0.0
 11
713.9079914347815
 21
15.87542485379129
 31
0.0
  0
CIRCLE
  5
41F
  8
0
 10
447.0
 20
354.6798225069991
 30
0.0
 40
150.0
  0
ENDSEC
  0
EOF
