  0
SECTION
  2
HEADER
  9
$ACADVER
  1
AC1009
  9
$DWGCODEPAGE
  3
ansi_1252
  9
$INSBASE
 10
0.0
 20
0.0
 30
0.0
  9
$EXTMIN
 10
1.000000000000000E+20
 20
1.000000000000000E+20
 30
1.000000000000000E+20
  9
$EXTMAX
 10
-1.000000000000000E+20
 20
-1.000000000000000E+20
 30
-1.000000000000000E+20
  9
$LIMMIN
 10
0.0
 20
0.0
  9
$LIMMAX
 10
12.0
 20
9.0
  9
$ORTHOMODE
 70
     0
  9
$REGENMODE
 70
     1
  9
$FILLMODE
 70
     1
  9
$QTEXTMODE
 70
     0
  9
$MIRRTEXT
 70
     1
  9
$DRAGMODE
 70
     2
  9
$LTSCALE
 40
1.0
  9
$OSMODE
 70
    37
  9
$ATTMODE
 70
     1
  9
$TEXTSIZE
 40
0.2
  9
$TRACEWID
 40
0.05
  9
$TEXTSTYLE
  7
STANDARD
  9
$CLAYER
  8
DEFAULT
  9
$CELTYPE
  6
BYLAYER
  9
$CECOLOR
 62
   256
  9
$DIMSCALE
 40
1.0
  9
$DIMASZ
 40
0.18
  9
$DIMEXO
 40
0.0625
  9
$DIMDLI
 40
0.38
  9
$DIMRND
 40
0.0
  9
$DIMDLE
 40
0.0
  9
$DIMEXE
 40
0.18
  9
$DIMTP
 40
0.0
  9
$DIMTM
 40
0.0
  9
$DIMTXT
 40
0.18
  9
$DIMCEN
 40
0.09
  9
$DIMTSZ
 40
0.0
  9
$DIMTOL
 70
     0
  9
$DIMLIM
 70
     0
  9
$DIMTIH
 70
     1
  9
$DIMTOH
 70
     1
  9
$DIMSE1
 70
     0
  9
$DIMSE2
 70
     0
  9
$DIMTAD
 70
     0
  9
$DIMZIN
 70
     0
  9
$DIMBLK
  1

  9
$DIMASO
 70
     1
  9
$DIMSHO
 70
     1
  9
$DIMPOST
  1

  9
$DIMAPOST
  1

  9
$DIMALT
 70
     0
  9
$DIMALTD
 70
     2
  9
$DIMALTF
 40
25.4
  9
$DIMLFAC
 40
1.0
  9
$DIMTOFL
 70
     0
  9
$DIMTVP
 40
0.0
  9
$DIMTIX
 70
     0
  9
$DIMSOXD
 70
     0
  9
$DIMSAH
 70
     0
  9
$DIMBLK1
  1

  9
$DIMBLK2
  1

  9
$DIMSTYLE
  2
STANDARD_ACAD
  9
$DIMCLRD
 70
     0
  9
$DIMCLRE
 70
     0
  9
$DIMCLRT
 70
     0
  9
$DIMTFAC
 40
1.0
  9
$DIMGAP
 40
0.09
  9
$LUNITS
 70
     2
  9
$LUPREC
 70
     3
  9
$SKETCHINC
 40
0.1
  9
$FILLETRAD
 40
0.5
  9
$AUNITS
 70
     0
  9
$AUPREC
 70
     0
  9
$MENU
  1
.
  9
$ELEVATION
 40
0.0
  9
$PELEVATION
 40
0.0
  9
$THICKNESS
 40
0.0
  9
$LIMCHECK
 70
     0
  9
$CHAMFERA
 40
0.0
  9
$CHAMFERB
 40
0.0
  9
$SKPOLY
 70
     0
  9
$TDCREATE
 40
2458263.526272338
  9
$TDUPDATE
 40
2458263.52628963
  9
$TDINDWG
 40
0.0000000116
  9
$TDUSRTIMER
 40
0.0000000116
  9
$USRTIMER
 70
     1
  9
$ANGBASE
 50
0.0
  9
$ANGDIR
 70
     0
  9
$PDMODE
 70
     0
  9
$PDSIZE
 40
0.0
  9
$PLINEWID
 40
0.0
  9
$COORDS
 70
     1
  9
$SPLFRAME
 70
     0
  9
$SPLINETYPE
 70
     6
  9
$SPLINESEGS
 70
     8
  9
$ATTDIA
 70
     0
  9
$ATTREQ
 70
     1
  9
$HANDLING
 70
     1
  9
$HANDSEED
  5
D2
  9
$SURFTAB1
 70
     6
  9
$SURFTAB2
 70
     6
  9
$SURFTYPE
 70
     6
  9
$SURFU
 70
     6
  9
$SURFV
 70
     6
  9
$UCSNAME
  2

  9
$UCSORG
 10
0.0
 20
0.0
 30
0.0
  9
$UCSXDIR
 10
1.0
 20
0.0
 30
0.0
  9
$UCSYDIR
 10
0.0
 20
1.0
 30
0.0
  9
$PUCSNAME
  2

  9
$PUCSORG
 10
0.0
 20
0.0
 30
0.0
  9
$PUCSXDIR
 10
1.0
 20
0.0
 30
0.0
  9
$PUCSYDIR
 10
0.0
 20
1.0
 30
0.0
  9
$USERI1
 70
     0
  9
$USERI2
 70
     0
  9
$USERI3
 70
     0
  9
$USERI4
 70
     0
  9
$USERI5
 70
     0
  9
$USERR1
 40
0.0
  9
$USERR2
 40
0.0
  9
$USERR3
 40
0.0
  9
$USERR4
 40
0.0
  9
$USERR5
 40
0.0
  9
$WORLDVIEW
 70
     1
  9
$SHADEDGE
 70
     3
  9
$SHADEDIF
 70
    70
  9
$TILEMODE
 70
     1
  9
$MAXACTVP
 70
    64
  9
$PLIMCHECK
 70
     0
  9
$PEXTMIN
 10
1.000000000000000E+20
 20
1.000000000000000E+20
 30
1.000000000000000E+20
  9
$PEXTMAX
 10
-1.000000000000000E+20
 20
-1.000000000000000E+20
 30
-1.000000000000000E+20
  9
$PLIMMIN
 10
0.0
 20
0.0
  9
$PLIMMAX
 10
12.0
 20
9.0
  9
$UNITMODE
 70
     0
  9
$VISRETAIN
 70
     1
  9
$PLINEGEN
 70
     0
  9
$PSLTSCALE
 70
     1
  0
ENDSEC
  0
SECTION
  2
TABLES
  0
TABLE
  2
VPORT
 70
     1
  0
VPORT
  2
*ACTIVE
 70
     0
 10
0.0
 20
0.0
 11
1.0
 21
1.0
 12
10.42990654205607
 22
4.5
 13
0.0
 23
0.0
 14
0.5
 24
0.5
 15
0.5
 25
0.5
 16
0.0
 26
0.0
 36
1.0
 17
0.0
 27
0.0
 37
0.0
 40
9.0
 41
1.972972972850329
 42
50.0
 43
0.0
 44
0.0
 50
0.0
 51
0.0
 71
     0
 72
   100
 73
     1
 74
     3
 75
     0
 76
     0
 77
     0
 78
     0
  0
ENDTAB
  0
TABLE
  2
LTYPE
 70
     1
  0
LTYPE
  2
CONTINUOUS
 70
     0
  3
Solid line
 72
    65
 73
     0
 40
0.0
  0
ENDTAB
  0
TABLE
  2
LAYER
 70
     2
  0
LAYER
  2
0
 70
     0
 62
     7
  6
CONTINUOUS
  0
LAYER
  2
DEFAULT
 70
     0
 62
     7
  6
CONTINUOUS
  0
ENDTAB
  0
TABLE
  2
STYLE
 70
     1
  0
STYLE
  2
STANDARD
 70
     0
 40
0.0
 41
1.0
 50
0.0
 71
     0
 42
0.2
  3
txt
  4

  0
ENDTAB
  0
TABLE
  2
VIEW
 70
     0
  0
ENDTAB
  0
TABLE
  2
UCS
 70
     0
  0
ENDTAB
  0
TABLE
  2
APPID
 70
     1
  0
APPID
  2
ACAD
 70
     0
  0
ENDTAB
  0
TABLE
  2
DIMSTYLE
 70
     1
  0
DIMSTYLE
  2
STANDARD_ACAD
 70
     0
  3

  4

  5

  6

  7

 40
1.0
 41
0.18
 42
0.0625
 43
0.38
 44
0.18
 45
0.0
 46
0.0
 47
0.0
 48
0.0
140
0.18
141
0.09
142
0.0
143
25.4
144
1.0
145
0.0
146
1.0
147
0.09
 71
     0
 72
     0
 73
     1
 74
     1
 75
     0
 76
     0
 77
     0
 78
     0
170
     0
171
     2
172
     0
173
     0
174
     0
175
     0
176
     0
177
     0
178
     0
  0
ENDTAB
  0
ENDSEC
  0
SECTION
  2
BLOCKS
  0
BLOCK
  8
0
  2
$MODEL_SPACE
 70
     0
 10
0.0
 20
0.0
 30
0.0
  3
$MODEL_SPACE
  1

  0
ENDBLK
  5
21
  8
0
  0
BLOCK
 67
     1
  8
0
  2
$PAPER_SPACE
 70
     0
 10
0.0
 20
0.0
 30
0.0
  3
$PAPER_SPACE
  1

  0
ENDBLK
  5
1D
 67
     1
  8
0
  0
ENDSEC
  0
SECTION
  2
ENTITIES
  0
LINE
  5
6F
  8
DEFAULT
 10
8.0
 20
41.04824462727385
 30
0.0
 11
12.75
 21
41.04824462727385
 31
0.0
  0
LINE
  5
70
  8
DEFAULT
 10
12.75
 20
41.04824462727385
 30
0.0
 11
12.75
 21
50.5
 31
0.0
  0
LINE
  5
71
  8
DEFAULT
 10
12.75
 20
50.5
 30
0.0
 11
8.0
 21
50.5
 31
0.0
  0
LINE
  5
72
  8
DEFAULT
 10
8.0
 20
50.5
 30
0.0
 11
8.0
 21
41.04824462727385
 31
0.0
  0
LINE
  5
73
  8
DEFAULT
 10
8.0
 20
21.0
 30
0.0
 11
12.75
 21
21.0
 31
0.0
  0
LINE
  5
74
  8
DEFAULT
 10
12.75
 20
21.0
 30
0.0
 11
12.75
 21
30.5
 31
0.0
  0
LINE
  5
75
  8
DEFAULT
 10
12.75
 20
30.5
 30
0.0
 11
8.0
 21
30.5
 31
0.0
  0
LINE
  5
76
  8
DEFAULT
 10
8.0
 20
30.5
 30
0.0
 11
8.0
 21
21.0
 31
0.0
  0
LINE
  5
77
  8
DEFAULT
 10
20.62499999999998
 20
6.374999999999986
 30
0.0
 11
30.12499999999998
 21
6.374999999999986
 31
0.0
  0
LINE
  5
78
  8
DEFAULT
 10
30.12499999999998
 20
6.374999999999986
 30
0.0
 11
30.12499999999998
 21
11.12499999999997
 31
0.0
  0
LINE
  5
79
  8
DEFAULT
 10
30.12499999999998
 20
11.12499999999997
 30
0.0
 11
20.62499999999998
 21
11.12499999999997
 31
0.0
  0
LINE
  5
7A
  8
DEFAULT
 10
20.62499999999998
 20
11.12499999999997
 30
0.0
 11
20.62499999999998
 21
6.374999999999986
 31
0.0
  0
LINE
  5
7B
  8
DEFAULT
 10
40.67324462727382
 20
6.375
 30
0.0
 11
50.12499999999998
 21
6.375
 31
0.0
  0
LINE
  5
7C
  8
DEFAULT
 10
50.12499999999998
 20
6.375
 30
0.0
 11
50.12499999999998
 21
11.12499999999999
 31
0.0
  0
LINE
  5
7D
  8
DEFAULT
 10
50.12499999999998
 20
11.12499999999999
 30
0.0
 11
40.67324462727382
 21
11.12499999999999
 31
0.0
  0
LINE
  5
7E
  8
DEFAULT
 10
40.67324462727382
 20
11.12499999999999
 30
0.0
 11
40.67324462727382
 21
6.375
 31
0.0
  0
LINE
  5
7F
  8
DEFAULT
 10
60.62499999999998
 20
6.375000000000028
 30
0.0
 11
70.12499999999997
 21
6.375000000000028
 31
0.0
  0
LINE
  5
80
  8
DEFAULT
 10
70.12499999999997
 20
6.375000000000028
 30
0.0
 11
70.12499999999997
 21
11.12500000000001
 31
0.0
  0
LINE
  5
81
  8
DEFAULT
 10
70.12499999999997
 20
11.12500000000001
 30
0.0
 11
60.62499999999998
 21
11.12500000000001
 31
0.0
  0
LINE
  5
82
  8
DEFAULT
 10
60.62499999999998
 20
11.12500000000001
 30
0.0
 11
60.62499999999998
 21
6.375000000000028
 31
0.0
  0
LINE
  5
83
  8
DEFAULT
 10
8.0
 20
61.0
 30
0.0
 11
12.75
 21
61.0
 31
0.0
  0
LINE
  5
84
  8
DEFAULT
 10
12.75
 20
61.0
 30
0.0
 11
12.75
 21
70.5
 31
0.0
  0
LINE
  5
85
  8
DEFAULT
 10
12.75
 20
70.5
 30
0.0
 11
8.0
 21
70.5
 31
0.0
  0
LINE
  5
86
  8
DEFAULT
 10
8.0
 20
70.5
 30
0.0
 11
8.0
 21
61.0
 31
0.0
  0
LINE
  5
87
  8
DEFAULT
 10
89.00000000000004
 20
4.999999999999972
 30
0.0
 11
94.00000000000004
 21
4.999999999999972
 31
0.0
  0
LINE
  5
88
  8
DEFAULT
 10
94.00000000000004
 20
4.999999999999972
 30
0.0
 11
94.00000000000004
 21
-0.0000000000000284
 31
0.0
  0
LINE
  5
89
  8
DEFAULT
 10
94.00000000000004
 20
-0.0000000000000284
 30
0.0
 11
104.0000000000001
 21
-0.0000000000000284
 31
0.0
  0
LINE
  5
8A
  8
DEFAULT
 10
104.0000000000001
 20
-0.0000000000000284
 30
0.0
 11
104.0000000000001
 21
4.999999999999972
 31
0.0
  0
LINE
  5
8B
  8
DEFAULT
 10
104.0000000000001
 20
4.999999999999972
 30
0.0
 11
114.0482446272739
 21
5.0
 31
0.0
  0
LINE
  5
8C
  8
DEFAULT
 10
114.0482446272739
 20
5.0
 30
0.0
 11
114.0482446272739
 21
0.0
 31
0.0
  0
LINE
  5
8D
  8
DEFAULT
 10
114.0482446272739
 20
0.0
 30
0.0
 11
124.0000000000001
 21
0.0
 31
0.0
  0
LINE
  5
8E
  8
DEFAULT
 10
124.0000000000001
 20
0.0
 30
0.0
 11
124.0000000000001
 21
5.0
 31
0.0
  0
LINE
  5
8F
  8
DEFAULT
 10
124.0000000000001
 20
5.0
 30
0.0
 11
134.0000000000001
 21
5.0
 31
0.0
  0
LINE
  5
90
  8
DEFAULT
 10
134.0000000000001
 20
5.0
 30
0.0
 11
134.0000000000001
 21
0.0
 31
0.0
  0
LINE
  5
91
  8
DEFAULT
 10
134.0000000000001
 20
0.0
 30
0.0
 11
144.0000000000001
 21
0.0000000000000284
 31
0.0
  0
LINE
  5
92
  8
DEFAULT
 10
144.0000000000001
 20
0.0000000000000284
 30
0.0
 11
144.0000000000001
 21
5.000000000000028
 31
0.0
  0
LINE
  5
93
  8
DEFAULT
 10
144.0000000000001
 20
5.000000000000028
 30
0.0
 11
149.0000000000001
 21
5.000000000000028
 31
0.0
  0
LINE
  5
94
  8
DEFAULT
 10
149.0000000000001
 20
5.000000000000028
 30
0.0
 11
148.9999999999999
 21
95.00000000000003
 31
0.0
  0
LINE
  5
95
  8
DEFAULT
 10
148.9999999999999
 20
95.00000000000003
 30
0.0
 11
143.9999999999999
 21
95.00000000000001
 31
0.0
  0
LINE
  5
96
  8
DEFAULT
 10
143.9999999999999
 20
95.00000000000001
 30
0.0
 11
143.9999999999999
 21
100.0
 31
0.0
  0
LINE
  5
97
  8
DEFAULT
 10
143.9999999999999
 20
100.0
 30
0.0
 11
133.9999999999999
 21
100.0
 31
0.0
  0
LINE
  5
98
  8
DEFAULT
 10
133.9999999999999
 20
100.0
 30
0.0
 11
133.9999999999999
 21
95.00000000000001
 31
0.0
  0
LINE
  5
99
  8
DEFAULT
 10
133.9999999999999
 20
95.00000000000001
 30
0.0
 11
123.9999999999999
 21
95.0
 31
0.0
  0
LINE
  5
9A
  8
DEFAULT
 10
123.9999999999999
 20
95.0
 30
0.0
 11
123.9999999999999
 21
100.0
 31
0.0
  0
LINE
  5
9B
  8
DEFAULT
 10
123.9999999999999
 20
100.0
 30
0.0
 11
114.0482446272738
 21
100.0
 31
0.0
  0
LINE
  5
9C
  8
DEFAULT
 10
114.0482446272738
 20
100.0
 30
0.0
 11
114.0482446272738
 21
94.99999999999999
 31
0.0
  0
LINE
  5
9D
  8
DEFAULT
 10
114.0482446272738
 20
94.99999999999999
 30
0.0
 11
103.9999999999999
 21
94.99999999999997
 31
0.0
  0
LINE
  5
9E
  8
DEFAULT
 10
103.9999999999999
 20
94.99999999999997
 30
0.0
 11
103.9999999999999
 21
99.99999999999997
 31
0.0
  0
LINE
  5
9F
  8
DEFAULT
 10
103.9999999999999
 20
99.99999999999997
 30
0.0
 11
93.99999999999994
 21
99.99999999999996
 31
0.0
  0
LINE
  5
A0
  8
DEFAULT
 10
93.99999999999994
 20
99.99999999999996
 30
0.0
 11
93.99999999999994
 21
94.99999999999996
 31
0.0
  0
LINE
  5
A1
  8
DEFAULT
 10
93.99999999999994
 20
94.99999999999996
 30
0.0
 11
88.99999999999994
 21
94.99999999999996
 31
0.0
  0
LINE
  5
A2
  8
DEFAULT
 10
88.99999999999994
 20
94.99999999999996
 30
0.0
 11
89.00000000000004
 21
4.999999999999972
 31
0.0
  0
LINE
  5
A3
  8
DEFAULT
 10
153.0000000000001
 20
4.999999999999972
 30
0.0
 11
158.0000000000001
 21
4.999999999999972
 31
0.0
  0
LINE
  5
A4
  8
DEFAULT
 10
158.0000000000001
 20
4.999999999999972
 30
0.0
 11
158.0000000000001
 21
-0.0000000000000284
 31
0.0
  0
LINE
  5
A5
  8
DEFAULT
 10
158.0000000000001
 20
-0.0000000000000284
 30
0.0
 11
168.0000000000001
 21
-0.0000000000000284
 31
0.0
  0
LINE
  5
A6
  8
DEFAULT
 10
168.0000000000001
 20
-0.0000000000000284
 30
0.0
 11
168.0000000000001
 21
4.999999999999972
 31
0.0
  0
LINE
  5
A7
  8
DEFAULT
 10
168.0000000000001
 20
4.999999999999972
 30
0.0
 11
178.0482446272739
 21
5.0
 31
0.0
  0
LINE
  5
A8
  8
DEFAULT
 10
178.0482446272739
 20
5.0
 30
0.0
 11
178.0482446272739
 21
0.0
 31
0.0
  0
LINE
  5
A9
  8
DEFAULT
 10
178.0482446272739
 20
0.0
 30
0.0
 11
188.0000000000001
 21
0.0
 31
0.0
  0
LINE
  5
AA
  8
DEFAULT
 10
188.0000000000001
 20
0.0
 30
0.0
 11
188.0000000000001
 21
5.0
 31
0.0
  0
LINE
  5
AB
  8
DEFAULT
 10
188.0000000000001
 20
5.0
 30
0.0
 11
198.0000000000001
 21
5.0
 31
0.0
  0
LINE
  5
AC
  8
DEFAULT
 10
198.0000000000001
 20
5.0
 30
0.0
 11
198.0000000000001
 21
0.0
 31
0.0
  0
LINE
  5
AD
  8
DEFAULT
 10
198.0000000000001
 20
0.0
 30
0.0
 11
208.0000000000001
 21
0.0000000000000284
 31
0.0
  0
LINE
  5
AE
  8
DEFAULT
 10
208.0000000000001
 20
0.0000000000000284
 30
0.0
 11
208.0000000000001
 21
5.000000000000028
 31
0.0
  0
LINE
  5
AF
  8
DEFAULT
 10
208.0000000000001
 20
5.000000000000028
 30
0.0
 11
213.0000000000001
 21
5.000000000000028
 31
0.0
  0
LINE
  5
B0
  8
DEFAULT
 10
213.0000000000001
 20
5.000000000000028
 30
0.0
 11
212.9999999999999
 21
95.00000000000003
 31
0.0
  0
LINE
  5
B1
  8
DEFAULT
 10
212.9999999999999
 20
95.00000000000003
 30
0.0
 11
207.9999999999999
 21
95.00000000000001
 31
0.0
  0
LINE
  5
B2
  8
DEFAULT
 10
207.9999999999999
 20
95.00000000000001
 30
0.0
 11
207.9999999999999
 21
100.0
 31
0.0
  0
LINE
  5
B3
  8
DEFAULT
 10
207.9999999999999
 20
100.0
 30
0.0
 11
197.9999999999999
 21
100.0
 31
0.0
  0
LINE
  5
B4
  8
DEFAULT
 10
197.9999999999999
 20
100.0
 30
0.0
 11
197.9999999999999
 21
95.00000000000001
 31
0.0
  0
LINE
  5
B5
  8
DEFAULT
 10
197.9999999999999
 20
95.00000000000001
 30
0.0
 11
187.9999999999999
 21
95.0
 31
0.0
  0
LINE
  5
B6
  8
DEFAULT
 10
187.9999999999999
 20
95.0
 30
0.0
 11
187.9999999999999
 21
100.0
 31
0.0
  0
LINE
  5
B7
  8
DEFAULT
 10
187.9999999999999
 20
100.0
 30
0.0
 11
178.0482446272738
 21
100.0
 31
0.0
  0
LINE
  5
B8
  8
DEFAULT
 10
178.0482446272738
 20
100.0
 30
0.0
 11
178.0482446272738
 21
94.99999999999999
 31
0.0
  0
LINE
  5
B9
  8
DEFAULT
 10
178.0482446272738
 20
94.99999999999999
 30
0.0
 11
167.9999999999999
 21
94.99999999999997
 31
0.0
  0
LINE
  5
BA
  8
DEFAULT
 10
167.9999999999999
 20
94.99999999999997
 30
0.0
 11
167.9999999999999
 21
99.99999999999997
 31
0.0
  0
LINE
  5
BB
  8
DEFAULT
 10
167.9999999999999
 20
99.99999999999997
 30
0.0
 11
157.9999999999999
 21
99.99999999999996
 31
0.0
  0
LINE
  5
BC
  8
DEFAULT
 10
157.9999999999999
 20
99.99999999999996
 30
0.0
 11
157.9999999999999
 21
94.99999999999996
 31
0.0
  0
LINE
  5
BD
  8
DEFAULT
 10
157.9999999999999
 20
94.99999999999996
 30
0.0
 11
152.9999999999999
 21
94.99999999999996
 31
0.0
  0
LINE
  5
BE
  8
DEFAULT
 10
152.9999999999999
 20
94.99999999999996
 30
0.0
 11
153.0000000000001
 21
4.999999999999972
 31
0.0
  0
ARC
  5
BF
  8
DEFAULT
 10
-78.99999999999996
 20
29.0586252700962
 30
0.0
 40
5.0
 50
55.00000000000016
 51
180.0000000000021
210
0.0
220
0.0
230
-1.0
  0
LINE
  5
C0
  8
DEFAULT
 10
83.99999999999996
 20
29.05862527009602
 30
0.0
 11
83.99999999999994
 21
0.0
 31
0.0
  0
LINE
  5
C1
  8
DEFAULT
 10
83.99999999999994
 20
0.0
 30
0.0
 11
0.0
 21
0.0
 31
0.0
  0
LINE
  5
C2
  8
DEFAULT
 10
0.0
 20
0.0
 30
0.0
 11
0.0
 21
97.0
 31
0.0
  0
LINE
  5
C3
  8
DEFAULT
 10
0.0
 20
97.0
 30
0.0
 11
11.0569425459582
 21
97.00000000000004
 31
0.0
  0
ARC
  5
C4
  8
DEFAULT
 10
-11.05694254595818
 20
92.00000000000004
 30
0.0
 40
5.0
 50
90.0000000000002
 51
180.0000000000002
210
0.0
220
0.0
230
-1.0
  0
LINE
  5
C5
  8
DEFAULT
 10
16.05694254595818
 20
92.00000000000003
 30
0.0
 11
16.05694254595818
 21
88.75126200753317
 31
0.0
  0
LINE
  5
C6
  8
DEFAULT
 10
16.05694254595818
 20
88.75126200753317
 30
0.0
 11
12.16597033558547
 21
86.0267739348657
 31
0.0
  0
LINE
  5
C7
  8
DEFAULT
 10
12.16597033558547
 20
86.0267739348657
 30
0.0
 11
60.77657331633674
 21
16.60363818137375
 31
0.0
  0
LINE
  5
C8
  8
DEFAULT
 10
60.77657331633674
 20
16.60363818137375
 30
0.0
 11
76.72448807266744
 21
27.77048831248223
 31
0.0
  0
LINE
  5
C9
  8
DEFAULT
 10
76.72448807266744
 20
27.77048831248223
 30
0.0
 11
74.0
 21
31.66146052285497
 31
0.0
  0
LINE
  5
CA
  8
DEFAULT
 10
74.0
 20
31.66146052285497
 30
0.0
 11
76.13211781824474
 21
33.15438549154117
 31
0.0
  0
ENDSEC
  0
EOF
