  0
SECTION
  2
HEADER
  9
$ACADVER
  1
AC1014
  9
$HANDSEED
  5
FFFF
  9
$MEASUREMENT
 70
     1
  0
ENDSEC
  0
SECTION
  2
TABLES
  0
TABLE
  2
VPORT
  5
8
330
0
100
AcDbSymbolTable
 70
     4
  0
VPORT
  5
2E
330
8
100
AcDbSymbolTableRecord
100
AcDbViewportTableRecord
  2
*ACTIVE
 70
     0
 10
0.0
 20
0.0
 11
1.0
 21
1.0
 12
210.0
 22
148.5
 13
0.0
 23
0.0
 14
10.0
 24
10.0
 15
10.0
 25
10.0
 16
0.0
 26
0.0
 36
1.0
 17
0.0
 27
0.0
 37
0.0
 40
341.0
 41
1.24
 42
50.0
 43
0.0
 44
0.0
 50
0.0
 51
0.0
 71
     0
 72
   100
 73
     1
 74
     3
 75
     0
 76
     0
 77
     0
 78
     0
  0
ENDTAB
  0
TABLE
  2
LTYPE
  5
5
330
0
100
AcDbSymbolTable
 70
     1
  0
LTYPE
  5
14
330
5
100
AcDbSymbolTableRecord
100
AcDbLinetypeTableRecord
  2
BYBLOCK
 70
     0
  3

 72
    65
 73
     0
 40
0.0
  0
LTYPE
  5
15
330
5
100
AcDbSymbolTableRecord
100
AcDbLinetypeTableRecord
  2
BYLAYER
 70
     0
  3

 72
    65
 73
     0
 40
0.0
  0
LTYPE
  5
16
330
5
100
AcDbSymbolTableRecord
100
AcDbLinetypeTableRecord
  2
CONTINUOUS
 70
     0
  3
Solid line
 72
    65
 73
     0
 40
0.0
  0
ENDTAB
  0
TABLE
  2
LAYER
  5
2
100
AcDbSymbolTable
 70
1
  0
LAYER
  5
50
100
AcDbSymbolTableRecord
100
AcDbLayerTableRecord
  2
0
 70
0
  6
CONTINUOUS
  0
ENDTAB
  0
TABLE
  2
STYLE
  5
3
330
0
100
AcDbSymbolTable
 70
     1
  0
STYLE
  5
11
330
3
100
AcDbSymbolTableRecord
100
AcDbTextStyleTableRecord
  2
STANDARD
 70
     0
 40
0.0
 41
1.0
 50
0.0
 71
     0
 42
2.5
  3
txt
  4

  0
ENDTAB
  0
TABLE
  2
VIEW
  5
6
330
0
100
AcDbSymbolTable
 70
     0
  0
ENDTAB
  0
TABLE
  2
UCS
  5
7
330
0
100
AcDbSymbolTable
 70
     0
  0
ENDTAB
  0
TABLE
  2
APPID
  5
9
330
0
100
AcDbSymbolTable
 70
     2
  0
APPID
  5
12
330
9
100
AcDbSymbolTableRecord
100
AcDbRegAppTableRecord
  2
ACAD
 70
     0
  0
ENDTAB
  0
TABLE
  2
DIMSTYLE
  5
A
330
0
100
AcDbSymbolTable
 70
     1
  0
DIMSTYLE
105
27
330
A
100
AcDbSymbolTableRecord
100
AcDbDimStyleTableRecord
  2
ISO-25
 70
     0
  3

  4

  5

  6

  7

 40
1.0
 41
2.5
 42
0.625
 43
3.75
 44
1.25
 45
0.0
 46
0.0
 47
0.0
 48
0.0
140
2.5
141
2.5
142
0.0
143
0.03937007874016
144
1.0
145
0.0
146
1.0
147
0.625
 71
     0
 72
     0
 73
     0
 74
     0
 75
     0
 76
     0
 77
     1
 78
     8
170
     0
171
     3
172
     1
173
     0
174
     0
175
     0
176
     0
177
     0
178
     0
270
     2
271
     2
272
     2
273
     2
274
     3
340
11
275
     0
280
     0
281
     0
282
     0
283
     0
284
     8
285
     0
286
     0
287
     3
288
     0
  0
ENDTAB
  0
TABLE
  2
BLOCK_RECORD
  5
1
330
0
100
AcDbSymbolTable
 70
     1
  0
BLOCK_RECORD
  5
1F
330
1
100
AcDbSymbolTableRecord
100
AcDbBlockTableRecord
  2
*MODEL_SPACE
  0
BLOCK_RECORD
  5
1B
330
1
100
AcDbSymbolTableRecord
100
AcDbBlockTableRecord
  2
*PAPER_SPACE
  0
ENDTAB
  0
ENDSEC
  0
SECTION
  2
BLOCKS
  0
BLOCK
  5
20
330
1F
100
AcDbEntity
  8
0
100
AcDbBlockBegin
  2
*MODEL_SPACE
 70
     0
 10
0.0
 20
0.0
 30
0.0
  3
*MODEL_SPACE
  1

  0
ENDBLK
  5
21
330
1F
100
AcDbEntity
  8
0
100
AcDbBlockEnd
  0
BLOCK
  5
1C
330
1B
100
AcDbEntity
 67
     1
  8
0
100
AcDbBlockBegin
  2
*PAPER_SPACE
  1

  0
ENDBLK
  5
1D
330
1B
100
AcDbEntity
 67
     1
  8
0
100
AcDbBlockEnd
  0
ENDSEC
  0
SECTION
  2
ENTITIES
  0
SPLINE
  5
100
100
AcDbEntity
  8
0
 62
7
100
AcDbSpline
 70
8
 71
3
 72
8
 73
4
 74
0
 40
0
 40
0
 40
0
 40
0
 40
1
 40
1
 40
1
 40
1
 10
25.361294
 20
0.591960
 30
0.0
 10
19.561619
 20
2.477505
 30
0.0
 10
16.165612
 20
5.752673
 30
0.0
 10
14.770289
 20
10.806098
 30
0.0
  0
SPLINE
  5
101
100
AcDbEntity
  8
0
 62
7
100
AcDbSpline
 70
8
 71
3
 72
8
 73
4
 74
0
 40
0
 40
0
 40
0
 40
0
 40
1
 40
1
 40
1
 40
1
 10
14.770289
 20
10.806098
 30
0.0
 10
14.164004
 20
13.001888
 30
0.0
 10
13.584337
 20
13.515023
 30
0.0
 10
10.899194
 20
14.232900
 30
0.0
  0
SPLINE
  5
102
100
AcDbEntity
  8
0
 62
7
100
AcDbSpline
 70
8
 71
3
 72
8
 73
4
 74
0
 40
0
 40
0
 40
0
 40
0
 40
1
 40
1
 40
1
 40
1
 10
10.899194
 20
14.232900
 30
0.0
 10
6.358604
 20
15.446828
 30
0.0
 10
1.828282
 20
20.377823
 30
0.0
 10
0.617827
 20
25.423575
 30
0.0
  0
SPLINE
  5
103
100
AcDbEntity
  8
0
 62
7
100
AcDbSpline
 70
8
 71
3
 72
8
 73
4
 74
0
 40
0
 40
0
 40
0
 40
0
 40
1
 40
1
 40
1
 40
1
 10
0.617827
 20
25.423575
 30
0.0
 10
-1.771088
 20
35.381692
 30
0.0
 10
3.011197
 20
46.893307
 30
0.0
 10
10.767629
 20
49.855515
 30
0.0
  0
SPLINE
  5
104
100
AcDbEntity
  8
0
 62
7
100
AcDbSpline
 70
8
 71
3
 72
8
 73
4
 74
0
 40
0
 40
0
 40
0
 40
0
 40
1
 40
1
 40
1
 40
1
 10
10.767629
 20
49.855515
 30
0.0
 10
14.546354
 20
51.298628
 30
0.0
 10
20.143867
 20
50.999857
 30
0.0
 10
23.639144
 20
49.168500
 30
0.0
  0
SPLINE
  5
105
100
AcDbEntity
  8
0
 62
7
100
AcDbSpline
 70
8
 71
3
 72
8
 73
4
 74
0
 40
0
 40
0
 40
0
 40
0
 40
1
 40
1
 40
1
 40
1
 10
23.639144
 20
49.168500
 30
0.0
 10
25.519237
 20
48.183420
 30
0.0
 10
25.910392
 20
48.215933
 30
0.0
 10
27.725152
 20
49.508160
 30
0.0
  0
SPLINE
  5
106
100
AcDbEntity
  8
0
 62
7
100
AcDbSpline
 70
8
 71
3
 72
8
 73
4
 74
0
 40
0
 40
0
 40
0
 40
0
 40
1
 40
1
 40
1
 40
1
 10
27.725152
 20
49.508160
 30
0.0
 10
28.828942
 20
50.294123
 30
0.0
 10
31.142062
 20
52.621305
 30
0.0
 10
32.865434
 20
54.679680
 30
0.0
  0
SPLINE
  5
107
100
AcDbEntity
  8
0
 62
7
100
AcDbSpline
 70
8
 71
3
 72
8
 73
4
 74
0
 40
0
 40
0
 40
0
 40
0
 40
1
 40
1
 40
1
 40
1
 10
33.719662
 20
61.299847
 30
0.0
 10
27.978704
 20
68.548402
 30
0.0
 10
21.701309
 20
83.767005
 30
0.0
 10
19.022819
 20
96.930157
 30
0.0
  0
SPLINE
  5
108
100
AcDbEntity
  8
0
 62
7
100
AcDbSpline
 70
8
 71
3
 72
8
 73
4
 74
0
 40
0
 40
0
 40
0
 40
0
 40
1
 40
1
 40
1
 40
1
 10
19.022819
 20
96.930157
 30
0.0
 10
15.638407
 20
113.562495
 30
0.0
 10
15.601259
 20
137.100225
 30
0.0
 10
18.933149
 20
153.746970
 30
0.0
  0
SPLINE
  5
109
100
AcDbEntity
  8
0
 62
7
100
AcDbSpline
 70
8
 71
3
 72
8
 73
4
 74
0
 40
0
 40
0
 40
0
 40
0
 40
1
 40
1
 40
1
 40
1
 10
18.933149
 20
153.746970
 30
0.0
 10
22.492514
 20
171.530235
 30
0.0
 10
28.989404
 20
186.400365
 30
0.0
 10
37.369957
 20
195.945294
 30
0.0
  0
LWPOLYLINE
  5
10a
100
AcDbEntity
  8
0
 62
7
100
AcDbPolyline
 90
3
 70
0
 10
32.865434
 20
54.679680
 30
0.0
 10
35.998822
 20
58.422172
 30
0.0
 10
33.719662
 20
61.299847
 30
0.0
  0
SPLINE
  5
10b
100
AcDbEntity
  8
0
 62
7
100
AcDbSpline
 70
8
 71
3
 72
8
 73
4
 74
0
 40
0
 40
0
 40
0
 40
0
 40
1
 40
1
 40
1
 40
1
 10
32.064764
 20
206.084501
 30
0.0
 10
24.708067
 20
213.810023
 30
0.0
 10
24.661424
 20
213.843062
 30
0.0
 10
22.282567
 20
213.013790
 30
0.0
  0
SPLINE
  5
10c
100
AcDbEntity
  8
0
 62
7
100
AcDbSpline
 70
8
 71
3
 72
8
 73
4
 74
0
 40
0
 40
0
 40
0
 40
0
 40
1
 40
1
 40
1
 40
1
 10
22.282567
 20
213.013790
 30
0.0
 10
13.881097
 20
210.085021
 30
0.0
 10
4.741912
 20
215.049241
 30
0.0
 10
1.768199
 20
224.156781
 30
0.0
  0
SPLINE
  5
10d
100
AcDbEntity
  8
0
 62
7
100
AcDbSpline
 70
8
 71
3
 72
8
 73
4
 74
0
 40
0
 40
0
 40
0
 40
0
 40
1
 40
1
 40
1
 40
1
 10
1.768199
 20
224.156781
 30
0.0
 10
-0.162451
 20
230.069730
 30
0.0
 10
-0.376208
 20
233.462985
 30
0.0
 10
0.904432
 20
237.868237
 30
0.0
  0
SPLINE
  5
10e
100
AcDbEntity
  8
0
 62
7
100
AcDbSpline
 70
8
 71
3
 72
8
 73
4
 74
0
 40
0
 40
0
 40
0
 40
0
 40
1
 40
1
 40
1
 40
1
 10
0.904432
 20
237.868237
 30
0.0
 10
2.318827
 20
242.733570
 30
0.0
 10
6.547162
 20
247.068232
 30
0.0
 10
10.625017
 20
247.833240
 30
0.0
  0
SPLINE
  5
10f
100
AcDbEntity
  8
0
 62
7
100
AcDbSpline
 70
8
 71
3
 72
8
 73
4
 74
0
 40
0
 40
0
 40
0
 40
0
 40
1
 40
1
 40
1
 40
1
 10
10.625017
 20
247.833240
 30
0.0
 10
12.908519
 20
248.261625
 30
0.0
 10
13.320772
 20
248.698447
 30
0.0
 10
14.027167
 20
251.438115
 30
0.0
  0
SPLINE
  5
110
100
AcDbEntity
  8
0
 62
7
100
AcDbSpline
 70
8
 71
3
 72
8
 73
4
 74
0
 40
0
 40
0
 40
0
 40
0
 40
1
 40
1
 40
1
 40
1
 10
14.027167
 20
251.438115
 30
0.0
 10
15.845917
 20
258.491933
 30
0.0
 10
20.319967
 20
262.172925
 30
0.0
 10
28.043632
 20
262.970077
 30
0.0
  0
SPLINE
  5
111
100
AcDbEntity
  8
0
 62
7
100
AcDbSpline
 70
8
 71
3
 72
8
 73
4
 74
0
 40
0
 40
0
 40
0
 40
0
 40
1
 40
1
 40
1
 40
1
 10
28.043632
 20
262.970077
 30
0.0
 10
35.512882
 20
263.740972
 30
0.0
 10
44.142119
 20
259.583085
 30
0.0
 10
47.719709
 20
253.489418
 30
0.0
  0
SPLINE
  5
112
100
AcDbEntity
  8
0
 62
7
100
AcDbSpline
 70
8
 71
3
 72
8
 73
4
 74
0
 40
0
 40
0
 40
0
 40
0
 40
1
 40
1
 40
1
 40
1
 10
47.719709
 20
253.489418
 30
0.0
 10
50.167034
 20
249.320910
 30
0.0
 10
50.471362
 20
242.541892
 30
0.0
 10
48.386572
 20
238.634707
 30
0.0
  0
LWPOLYLINE
  5
113
100
AcDbEntity
  8
0
 62
7
100
AcDbPolyline
 90
3
 70
0
 10
37.369957
 20
195.945294
 30
0.0
 10
39.456704
 20
198.321967
 30
0.0
 10
32.064764
 20
206.084501
 30
0.0
  0
SPLINE
  5
114
100
AcDbEntity
  8
0
 62
7
100
AcDbSpline
 70
8
 71
3
 72
8
 73
4
 74
0
 40
0
 40
0
 40
0
 40
0
 40
1
 40
1
 40
1
 40
1
 10
66.790439
 20
224.440256
 30
0.0
 10
91.913408
 20
242.367630
 30
0.0
 10
137.463127
 20
246.449895
 30
0.0
 10
171.616155
 20
233.834963
 30
0.0
  0
SPLINE
  5
115
100
AcDbEntity
  8
0
 62
7
100
AcDbSpline
 70
8
 71
3
 72
8
 73
4
 74
0
 40
0
 40
0
 40
0
 40
0
 40
1
 40
1
 40
1
 40
1
 10
171.616155
 20
233.834963
 30
0.0
 10
177.832313
 20
231.538935
 30
0.0
 10
186.800242
 20
226.683839
 30
0.0
 10
190.199392
 20
223.774291
 30
0.0
  0
LWPOLYLINE
  5
116
100
AcDbEntity
  8
0
 62
7
100
AcDbPolyline
 90
5
 70
0
 10
48.386572
 20
238.634707
 30
0.0
 10
47.094869
 20
236.213880
 30
0.0
 10
54.474937
 20
228.566137
 30
0.0
 10
61.855004
 20
220.918403
 30
0.0
 10
66.790439
 20
224.440256
 30
0.0
  0
SPLINE
  5
117
100
AcDbEntity
  8
0
 62
7
100
AcDbSpline
 70
8
 71
3
 72
8
 73
4
 74
0
 40
0
 40
0
 40
0
 40
0
 40
1
 40
1
 40
1
 40
1
 10
198.525923
 20
226.864230
 30
0.0
 10
206.690227
 20
235.606485
 30
0.0
 10
208.260998
 20
237.811267
 30
0.0
 10
207.567750
 20
239.555543
 30
0.0
  0
SPLINE
  5
118
100
AcDbEntity
  8
0
 62
7
100
AcDbSpline
 70
8
 71
3
 72
8
 73
4
 74
0
 40
0
 40
0
 40
0
 40
0
 40
1
 40
1
 40
1
 40
1
 10
207.567750
 20
239.555543
 30
0.0
 10
207.239858
 20
240.380542
 30
0.0
 10
206.955278
 20
242.743043
 30
0.0
 10
206.935342
 20
244.805543
 30
0.0
  0
SPLINE
  5
119
100
AcDbEntity
  8
0
 62
7
100
AcDbSpline
 70
8
 71
3
 72
8
 73
4
 74
0
 40
0
 40
0
 40
0
 40
0
 40
1
 40
1
 40
1
 40
1
 10
206.935342
 20
244.805543
 30
0.0
 10
206.840182
 20
254.651295
 30
0.0
 10
215.764110
 20
262.458607
 30
0.0
 10
227.062260
 20
262.414072
 30
0.0
  0
SPLINE
  5
11a
100
AcDbEntity
  8
0
 62
7
100
AcDbSpline
 70
8
 71
3
 72
8
 73
4
 74
0
 40
0
 40
0
 40
0
 40
0
 40
1
 40
1
 40
1
 40
1
 10
227.062260
 20
262.414072
 30
0.0
 10
234.442688
 20
262.384972
 30
0.0
 10
239.687595
 20
258.731407
 30
0.0
 10
241.435253
 20
252.401925
 30
0.0
  0
SPLINE
  5
11b
100
AcDbEntity
  8
0
 62
7
100
AcDbSpline
 70
8
 71
3
 72
8
 73
4
 74
0
 40
0
 40
0
 40
0
 40
0
 40
1
 40
1
 40
1
 40
1
 10
241.435253
 20
252.401925
 30
0.0
 10
241.993628
 20
250.379662
 30
0.0
 10
242.673938
 20
249.750862
 30
0.0
 10
245.085053
 20
249.028470
 30
0.0
  0
SPLINE
  5
11c
100
AcDbEntity
  8
0
 62
7
100
AcDbSpline
 70
8
 71
3
 72
8
 73
4
 74
0
 40
0
 40
0
 40
0
 40
0
 40
1
 40
1
 40
1
 40
1
 10
245.085053
 20
249.028470
 30
0.0
 10
248.919173
 20
247.879740
 30
0.0
 10
252.266393
 20
245.024805
 30
0.0
 10
254.323560
 20
241.148700
 30
0.0
  0
SPLINE
  5
11d
100
AcDbEntity
  8
0
 62
7
100
AcDbSpline
 70
8
 71
3
 72
8
 73
4
 74
0
 40
0
 40
0
 40
0
 40
0
 40
1
 40
1
 40
1
 40
1
 10
254.323560
 20
241.148700
 30
0.0
 10
255.620033
 20
238.705897
 30
0.0
 10
255.963923
 20
236.794013
 30
0.0
 10
255.959160
 20
232.055543
 30
0.0
  0
SPLINE
  5
11e
100
AcDbEntity
  8
0
 62
7
100
AcDbSpline
 70
8
 71
3
 72
8
 73
4
 74
0
 40
0
 40
0
 40
0
 40
0
 40
1
 40
1
 40
1
 40
1
 10
255.959160
 20
232.055543
 30
0.0
 10
255.949335
 20
222.251175
 30
0.0
 10
251.762573
 20
215.165151
 30
0.0
 10
244.456568
 20
212.587443
 30
0.0
  0
SPLINE
  5
11f
100
AcDbEntity
  8
0
 62
7
100
AcDbSpline
 70
8
 71
3
 72
8
 73
4
 74
0
 40
0
 40
0
 40
0
 40
0
 40
1
 40
1
 40
1
 40
1
 10
244.456568
 20
212.587443
 30
0.0
 10
240.290625
 20
211.117613
 30
0.0
 10
238.925198
 20
211.157081
 30
0.0
 10
233.897468
 20
212.892652
 30
0.0
  0
LWPOLYLINE
  5
120
100
AcDbEntity
  8
0
 62
7
100
AcDbPolyline
 90
3
 70
0
 10
190.199392
 20
223.774291
 30
0.0
 10
193.223145
 20
221.186071
 30
0.0
 10
198.525923
 20
226.864230
 30
0.0
  0
SPLINE
  5
121
100
AcDbEntity
  8
0
 62
7
100
AcDbSpline
 70
8
 71
3
 72
8
 73
4
 74
0
 40
0
 40
0
 40
0
 40
0
 40
1
 40
1
 40
1
 40
1
 10
220.473255
 20
193.206407
 30
0.0
 10
228.715373
 20
180.654345
 30
0.0
 10
235.041015
 20
165.191250
 30
0.0
 10
238.483343
 20
149.180543
 30
0.0
  0
SPLINE
  5
122
100
AcDbEntity
  8
0
 62
7
100
AcDbSpline
 70
8
 71
3
 72
8
 73
4
 74
0
 40
0
 40
0
 40
0
 40
0
 40
1
 40
1
 40
1
 40
1
 10
238.483343
 20
149.180543
 30
0.0
 10
239.948700
 20
142.365007
 30
0.0
 10
240.174143
 20
139.136153
 30
0.0
 10
240.159068
 20
125.180543
 30
0.0
  0
SPLINE
  5
123
100
AcDbEntity
  8
0
 62
7
100
AcDbSpline
 70
8
 71
3
 72
8
 73
4
 74
0
 40
0
 40
0
 40
0
 40
0
 40
1
 40
1
 40
1
 40
1
 10
240.159068
 20
125.180543
 30
0.0
 10
240.142868
 20
110.198512
 30
0.0
 10
239.997518
 20
108.473122
 30
0.0
 10
238.108178
 20
100.838813
 30
0.0
  0
SPLINE
  5
124
100
AcDbEntity
  8
0
 62
7
100
AcDbSpline
 70
8
 71
3
 72
8
 73
4
 74
0
 40
0
 40
0
 40
0
 40
0
 40
1
 40
1
 40
1
 40
1
 10
238.108178
 20
100.838813
 30
0.0
 10
234.777720
 20
87.381368
 30
0.0
 10
230.410365
 20
76.541445
 30
0.0
 10
224.228123
 20
66.388050
 30
0.0
  0
SPLINE
  5
125
100
AcDbEntity
  8
0
 62
7
100
AcDbSpline
 70
8
 71
3
 72
8
 73
4
 74
0
 40
0
 40
0
 40
0
 40
0
 40
1
 40
1
 40
1
 40
1
 10
224.228123
 20
66.388050
 30
0.0
 10
222.485858
 20
63.526635
 30
0.0
 10
221.255393
 20
60.673365
 30
0.0
 10
221.470883
 20
59.994413
 30
0.0
  0
SPLINE
  5
126
100
AcDbEntity
  8
0
 62
7
100
AcDbSpline
 70
8
 71
3
 72
8
 73
4
 74
0
 40
0
 40
0
 40
0
 40
0
 40
1
 40
1
 40
1
 40
1
 10
221.470883
 20
59.994413
 30
0.0
 10
221.684925
 20
59.320027
 30
0.0
 10
223.994663
 20
56.652623
 30
0.0
 10
226.603635
 20
54.066840
 30
0.0
  0
SPLINE
  5
127
100
AcDbEntity
  8
0
 62
7
100
AcDbSpline
 70
8
 71
3
 72
8
 73
4
 74
0
 40
0
 40
0
 40
0
 40
0
 40
1
 40
1
 40
1
 40
1
 10
226.603635
 20
54.066840
 30
0.0
 10
231.029295
 20
49.680517
 30
0.0
 10
231.485168
 20
49.417867
 30
0.0
 10
233.405513
 20
50.147977
 30
0.0
  0
SPLINE
  5
128
100
AcDbEntity
  8
0
 62
7
100
AcDbSpline
 70
8
 71
3
 72
8
 73
4
 74
0
 40
0
 40
0
 40
0
 40
0
 40
1
 40
1
 40
1
 40
1
 10
233.405513
 20
50.147977
 30
0.0
 10
238.262033
 20
51.994425
 30
0.0
 10
245.624483
 20
50.536365
 30
0.0
 10
249.517035
 20
46.957245
 30
0.0
  0
SPLINE
  5
129
100
AcDbEntity
  8
0
 62
7
100
AcDbSpline
 70
8
 71
3
 72
8
 73
4
 74
0
 40
0
 40
0
 40
0
 40
0
 40
1
 40
1
 40
1
 40
1
 10
249.517035
 20
46.957245
 30
0.0
 10
251.991008
 20
44.682480
 30
0.0
 10
255.388028
 20
37.315785
 30
0.0
 10
255.993683
 20
32.912138
 30
0.0
  0
SPLINE
  5
12a
100
AcDbEntity
  8
0
 62
7
100
AcDbSpline
 70
8
 71
3
 72
8
 73
4
 74
0
 40
0
 40
0
 40
0
 40
0
 40
1
 40
1
 40
1
 40
1
 10
255.993683
 20
32.912138
 30
0.0
 10
257.063663
 20
25.132508
 30
0.0
 10
252.978248
 20
17.873318
 30
0.0
 10
246.241155
 20
15.583282
 30
0.0
  0
SPLINE
  5
12b
100
AcDbEntity
  8
0
 62
7
100
AcDbSpline
 70
8
 71
3
 72
8
 73
4
 74
0
 40
0
 40
0
 40
0
 40
0
 40
1
 40
1
 40
1
 40
1
 10
246.241155
 20
15.583282
 30
0.0
 10
242.861130
 20
14.434365
 30
0.0
 10
242.144130
 20
13.725803
 30
0.0
 10
242.127638
 20
11.518170
 30
0.0
  0
SPLINE
  5
12c
100
AcDbEntity
  8
0
 62
7
100
AcDbSpline
 70
8
 71
3
 72
8
 73
4
 74
0
 40
0
 40
0
 40
0
 40
0
 40
1
 40
1
 40
1
 40
1
 10
242.127638
 20
11.518170
 30
0.0
 10
242.108738
 20
8.988795
 30
0.0
 10
238.331288
 20
3.939300
 30
0.0
 10
235.055880
 20
2.065050
 30
0.0
  0
SPLINE
  5
12d
100
AcDbEntity
  8
0
 62
7
100
AcDbSpline
 70
8
 71
3
 72
8
 73
4
 74
0
 40
0
 40
0
 40
0
 40
0
 40
1
 40
1
 40
1
 40
1
 10
235.055880
 20
2.065050
 30
0.0
 10
228.652193
 20
-1.599285
 30
0.0
 10
217.621613
 20
0.313530
 30
0.0
 10
211.462073
 20
6.156458
 30
0.0
  0
SPLINE
  5
12e
100
AcDbEntity
  8
0
 62
7
100
AcDbSpline
 70
8
 71
3
 72
8
 73
4
 74
0
 40
0
 40
0
 40
0
 40
0
 40
1
 40
1
 40
1
 40
1
 10
211.462073
 20
6.156458
 30
0.0
 10
206.187863
 20
11.159565
 30
0.0
 10
204.884348
 20
17.414063
 30
0.0
 10
207.734873
 20
24.040290
 30
0.0
  0
LWPOLYLINE
  5
12f
100
AcDbEntity
  8
0
 62
7
100
AcDbPolyline
 90
5
 70
0
 10
233.897468
 20
212.892652
 30
0.0
 10
229.803780
 20
214.305793
 30
0.0
 10
222.873922
 20
207.204886
 30
0.0
 10
215.944065
 20
200.103980
 30
0.0
 10
220.473255
 20
193.206407
 30
0.0
  0
SPLINE
  5
130
100
AcDbEntity
  8
0
 62
7
100
AcDbSpline
 70
8
 71
3
 72
8
 73
4
 74
0
 40
0
 40
0
 40
0
 40
0
 40
1
 40
1
 40
1
 40
1
 10
198.072870
 20
35.365860
 30
0.0
 10
190.031580
 20
29.045310
 30
0.0
 10
172.631288
 20
19.811700
 30
0.0
 10
162.616155
 20
16.550445
 30
0.0
  0
SPLINE
  5
131
100
AcDbEntity
  8
0
 62
7
100
AcDbSpline
 70
8
 71
3
 72
8
 73
4
 74
0
 40
0
 40
0
 40
0
 40
0
 40
1
 40
1
 40
1
 40
1
 10
162.616155
 20
16.550445
 30
0.0
 10
140.136060
 20
9.230205
 30
0.0
 10
115.616715
 20
9.092633
 30
0.0
 10
94.366155
 20
16.167525
 30
0.0
  0
SPLINE
  5
132
100
AcDbEntity
  8
0
 62
7
100
AcDbSpline
 70
8
 71
3
 72
8
 73
4
 74
0
 40
0
 40
0
 40
0
 40
0
 40
1
 40
1
 40
1
 40
1
 10
94.366155
 20
16.167525
 30
0.0
 10
83.483093
 20
19.790790
 30
0.0
 10
69.263999
 20
27.299100
 30
0.0
 10
61.496857
 20
33.523958
 30
0.0
  0
LWPOLYLINE
  5
133
100
AcDbEntity
  8
0
 62
7
100
AcDbPolyline
 90
5
 70
0
 10
207.734873
 20
24.040290
 30
0.0
 10
209.353598
 20
27.803100
 30
0.0
 10
204.754088
 20
32.402610
 30
0.0
 10
200.154585
 20
37.002113
 30
0.0
 10
198.072870
 20
35.365860
 30
0.0
  0
SPLINE
  5
134
100
AcDbEntity
  8
0
 62
7
100
AcDbSpline
 70
8
 71
3
 72
8
 73
4
 74
0
 40
0
 40
0
 40
0
 40
0
 40
1
 40
1
 40
1
 40
1
 10
55.167434
 20
33.214793
 30
0.0
 10
47.382419
 20
25.873590
 30
0.0
 10
48.143092
 20
27.464213
 30
0.0
 10
48.194782
 20
18.634425
 30
0.0
  0
SPLINE
  5
135
100
AcDbEntity
  8
0
 62
7
100
AcDbSpline
 70
8
 71
3
 72
8
 73
4
 74
0
 40
0
 40
0
 40
0
 40
0
 40
1
 40
1
 40
1
 40
1
 10
48.194782
 20
18.634425
 30
0.0
 10
48.238057
 20
11.247555
 30
0.0
 10
48.104624
 20
10.506413
 30
0.0
 10
46.216897
 20
7.645800
 30
0.0
  0
SPLINE
  5
136
100
AcDbEntity
  8
0
 62
7
100
AcDbSpline
 70
8
 71
3
 72
8
 73
4
 74
0
 40
0
 40
0
 40
0
 40
0
 40
1
 40
1
 40
1
 40
1
 10
46.216897
 20
7.645800
 30
0.0
 10
42.606674
 20
2.174940
 30
0.0
 10
31.768004
 20
-1.490940
 30
0.0
 10
25.361294
 20
0.591960
 30
0.0
  0
LWPOLYLINE
  5
137
100
AcDbEntity
  8
0
 62
7
100
AcDbPolyline
 90
3
 70
0
 10
61.496857
 20
33.523958
 30
0.0
 10
58.252559
 20
36.124043
 30
0.0
 10
55.167434
 20
33.214793
 30
0.0
  0
SPLINE
  5
138
100
AcDbEntity
  8
0
 62
7
100
AcDbSpline
 70
8
 71
3
 72
8
 73
4
 74
0
 40
0
 40
0
 40
0
 40
0
 40
1
 40
1
 40
1
 40
1
 10
38.769254
 20
4.147725
 30
0.0
 10
41.274569
 20
5.396175
 30
0.0
 10
43.419479
 20
7.176607
 30
0.0
 10
44.639909
 20
9.020805
 30
0.0
  0
SPLINE
  5
139
100
AcDbEntity
  8
0
 62
7
100
AcDbSpline
 70
8
 71
3
 72
8
 73
4
 74
0
 40
0
 40
0
 40
0
 40
0
 40
1
 40
1
 40
1
 40
1
 10
44.639909
 20
9.020805
 30
0.0
 10
46.470824
 20
11.787510
 30
0.0
 10
46.546057
 20
12.306367
 30
0.0
 10
46.210454
 20
19.852410
 30
0.0
  0
LWPOLYLINE
  5
13a
100
AcDbEntity
  8
0
 62
7
100
AcDbPolyline
 90
1
 70
1
 10
25.361294
 20
0.591960
 30
0.0
  0
SPLINE
  5
13b
100
AcDbEntity
  8
0
 62
7
100
AcDbSpline
 70
8
 71
3
 72
8
 73
4
 74
0
 40
0
 40
0
 40
0
 40
0
 40
1
 40
1
 40
1
 40
1
 10
51.502627
 20
32.979330
 30
0.0
 10
54.607192
 20
35.839995
 30
0.0
 10
57.568034
 20
38.180543
 30
0.0
 10
58.082272
 20
38.180543
 30
0.0
  0
SPLINE
  5
13c
100
AcDbEntity
  8
0
 62
7
100
AcDbSpline
 70
8
 71
3
 72
8
 73
4
 74
0
 40
0
 40
0
 40
0
 40
0
 40
1
 40
1
 40
1
 40
1
 10
58.082272
 20
38.180543
 30
0.0
 10
58.596502
 20
38.180543
 30
0.0
 10
61.446637
 20
36.352950
 30
0.0
 10
64.415894
 20
34.119218
 30
0.0
  0
SPLINE
  5
13d
100
AcDbEntity
  8
0
 62
7
100
AcDbSpline
 70
8
 71
3
 72
8
 73
4
 74
0
 40
0
 40
0
 40
0
 40
0
 40
1
 40
1
 40
1
 40
1
 10
64.415894
 20
34.119218
 30
0.0
 10
71.784037
 20
28.576275
 30
0.0
 10
80.522017
 20
23.738985
 30
0.0
 10
89.581537
 20
20.187690
 30
0.0
  0
SPLINE
  5
13e
100
AcDbEntity
  8
0
 62
7
100
AcDbSpline
 70
8
 71
3
 72
8
 73
4
 74
0
 40
0
 40
0
 40
0
 40
0
 40
1
 40
1
 40
1
 40
1
 10
89.581537
 20
20.187690
 30
0.0
 10
123.488085
 20
6.896445
 30
0.0
 10
160.223557
 20
11.878635
 30
0.0
 10
192.428302
 20
34.136115
 30
0.0
  0
SPLINE
  5
13f
100
AcDbEntity
  8
0
 62
7
100
AcDbSpline
 70
8
 71
3
 72
8
 73
4
 74
0
 40
0
 40
0
 40
0
 40
0
 40
1
 40
1
 40
1
 40
1
 10
192.428302
 20
34.136115
 30
0.0
 10
196.243732
 20
36.773048
 30
0.0
 10
199.779007
 20
38.930542
 30
0.0
 10
200.284477
 20
38.930542
 30
0.0
  0
SPLINE
  5
140
100
AcDbEntity
  8
0
 62
7
100
AcDbSpline
 70
8
 71
3
 72
8
 73
4
 74
0
 40
0
 40
0
 40
0
 40
0
 40
1
 40
1
 40
1
 40
1
 10
200.284477
 20
38.930542
 30
0.0
 10
201.636757
 20
38.930542
 30
0.0
 10
211.366155
 20
29.045625
 30
0.0
 10
211.366155
 20
27.671738
 30
0.0
  0
SPLINE
  5
141
100
AcDbEntity
  8
0
 62
7
100
AcDbSpline
 70
8
 71
3
 72
8
 73
4
 74
0
 40
0
 40
0
 40
0
 40
0
 40
1
 40
1
 40
1
 40
1
 10
211.366155
 20
27.671738
 30
0.0
 10
211.366155
 20
27.026018
 30
0.0
 10
210.691155
 20
25.173735
 30
0.0
 10
209.866155
 20
23.555542
 30
0.0
  0
SPLINE
  5
142
100
AcDbEntity
  8
0
 62
7
100
AcDbSpline
 70
8
 71
3
 72
8
 73
4
 74
0
 40
0
 40
0
 40
0
 40
0
 40
1
 40
1
 40
1
 40
1
 10
209.866155
 20
23.555542
 30
0.0
 10
208.114860
 20
20.120475
 30
0.0
 10
207.917528
 20
14.962395
 30
0.0
 10
209.427165
 20
12.080797
 30
0.0
  0
SPLINE
  5
143
100
AcDbEntity
  8
0
 62
7
100
AcDbSpline
 70
8
 71
3
 72
8
 73
4
 74
0
 40
0
 40
0
 40
0
 40
0
 40
1
 40
1
 40
1
 40
1
 10
209.427165
 20
12.080797
 30
0.0
 10
210.808072
 20
9.444930
 30
0.0
 10
214.841872
 20
5.675775
 30
0.0
 10
217.968975
 20
4.099395
 30
0.0
  0
SPLINE
  5
144
100
AcDbEntity
  8
0
 62
7
100
AcDbSpline
 70
8
 71
3
 72
8
 73
4
 74
0
 40
0
 40
0
 40
0
 40
0
 40
1
 40
1
 40
1
 40
1
 10
217.968975
 20
4.099395
 30
0.0
 10
221.018085
 20
2.562330
 30
0.0
 10
226.816965
 20
1.816777
 30
0.0
 10
230.438572
 20
2.496195
 30
0.0
  0
SPLINE
  5
145
100
AcDbEntity
  8
0
 62
7
100
AcDbSpline
 70
8
 71
3
 72
8
 73
4
 74
0
 40
0
 40
0
 40
0
 40
0
 40
1
 40
1
 40
1
 40
1
 10
230.438572
 20
2.496195
 30
0.0
 10
235.455135
 20
3.437310
 30
0.0
 10
240.616155
 20
9.533100
 30
0.0
 10
240.616155
 20
14.517165
 30
0.0
  0
SPLINE
  5
146
100
AcDbEntity
  8
0
 62
7
100
AcDbSpline
 70
8
 71
3
 72
8
 73
4
 74
0
 40
0
 40
0
 40
0
 40
0
 40
1
 40
1
 40
1
 40
1
 10
240.616155
 20
14.517165
 30
0.0
 10
240.616155
 20
15.964155
 30
0.0
 10
241.095240
 20
16.506547
 30
0.0
 10
242.678655
 20
16.852215
 30
0.0
  0
SPLINE
  5
147
100
AcDbEntity
  8
0
 62
7
100
AcDbSpline
 70
8
 71
3
 72
8
 73
4
 74
0
 40
0
 40
0
 40
0
 40
0
 40
1
 40
1
 40
1
 40
1
 10
242.678655
 20
16.852215
 30
0.0
 10
248.570970
 20
18.138532
 30
0.0
 10
251.799502
 20
20.818327
 30
0.0
 10
253.369470
 20
25.725982
 30
0.0
  0
SPLINE
  5
148
100
AcDbEntity
  8
0
 62
7
100
AcDbSpline
 70
8
 71
3
 72
8
 73
4
 74
0
 40
0
 40
0
 40
0
 40
0
 40
1
 40
1
 40
1
 40
1
 10
253.369470
 20
25.725982
 30
0.0
 10
255.492615
 20
32.362807
 30
0.0
 10
252.118882
 20
42.353820
 30
0.0
 10
246.340110
 20
46.542832
 30
0.0
  0
SPLINE
  5
149
100
AcDbEntity
  8
0
 62
7
100
AcDbSpline
 70
8
 71
3
 72
8
 73
4
 74
0
 40
0
 40
0
 40
0
 40
0
 40
1
 40
1
 40
1
 40
1
 10
246.340110
 20
46.542832
 30
0.0
 10
242.344275
 20
49.439407
 30
0.0
 10
239.222677
 20
49.889190
 30
0.0
 10
234.614977
 20
48.232282
 30
0.0
  0
LWPOLYLINE
  5
14a
100
AcDbEntity
  8
0
 62
7
100
AcDbPolyline
 90
3
 70
0
 10
46.210454
 20
19.852410
 30
0.0
 10
45.857962
 20
27.778118
 30
0.0
 10
51.502627
 20
32.979330
 30
0.0
  0
SPLINE
  5
14b
100
AcDbEntity
  8
0
 62
7
100
AcDbSpline
 70
8
 71
3
 72
8
 73
4
 74
0
 40
0
 40
0
 40
0
 40
0
 40
1
 40
1
 40
1
 40
1
 10
224.850090
 20
52.821510
 30
0.0
 10
218.084010
 20
59.547907
 30
0.0
 10
217.751452
 20
60.629715
 30
0.0
 10
220.977060
 20
65.420407
 30
0.0
  0
SPLINE
  5
14c
100
AcDbEntity
  8
0
 62
7
100
AcDbSpline
 70
8
 71
3
 72
8
 73
4
 74
0
 40
0
 40
0
 40
0
 40
0
 40
1
 40
1
 40
1
 40
1
 10
220.977060
 20
65.420407
 30
0.0
 10
230.245620
 20
79.186132
 30
0.0
 10
236.600422
 20
97.548862
 30
0.0
 10
238.388310
 20
115.731652
 30
0.0
  0
SPLINE
  5
14d
100
AcDbEntity
  8
0
 62
7
100
AcDbSpline
 70
8
 71
3
 72
8
 73
4
 74
0
 40
0
 40
0
 40
0
 40
0
 40
1
 40
1
 40
1
 40
1
 10
238.388310
 20
115.731652
 30
0.0
 10
240.890827
 20
141.182212
 30
0.0
 10
232.948222
 20
171.097530
 30
0.0
 10
217.770442
 20
193.387536
 30
0.0
  0
SPLINE
  5
14e
100
AcDbEntity
  8
0
 62
7
100
AcDbSpline
 70
8
 71
3
 72
8
 73
4
 74
0
 40
0
 40
0
 40
0
 40
0
 40
1
 40
1
 40
1
 40
1
 10
217.770442
 20
193.387536
 30
0.0
 10
215.485582
 20
196.743064
 30
0.0
 10
213.616155
 20
199.755199
 30
0.0
 10
213.616155
 20
200.081170
 30
0.0
  0
SPLINE
  5
14f
100
AcDbEntity
  8
0
 62
7
100
AcDbSpline
 70
8
 71
3
 72
8
 73
4
 74
0
 40
0
 40
0
 40
0
 40
0
 40
1
 40
1
 40
1
 40
1
 10
213.616155
 20
200.081170
 30
0.0
 10
213.616155
 20
200.407141
 30
0.0
 10
216.919425
 20
204.106602
 30
0.0
 10
220.956750
 20
208.302194
 30
0.0
  0
SPLINE
  5
150
100
AcDbEntity
  8
0
 62
7
100
AcDbSpline
 70
8
 71
3
 72
8
 73
4
 74
0
 40
0
 40
0
 40
0
 40
0
 40
1
 40
1
 40
1
 40
1
 10
220.956750
 20
208.302194
 30
0.0
 10
225.661380
 20
213.191248
 30
0.0
 10
228.859372
 20
215.930544
 30
0.0
 10
229.862460
 20
215.930544
 30
0.0
  0
SPLINE
  5
151
100
AcDbEntity
  8
0
 62
7
100
AcDbSpline
 70
8
 71
3
 72
8
 73
4
 74
0
 40
0
 40
0
 40
0
 40
0
 40
1
 40
1
 40
1
 40
1
 10
229.862460
 20
215.930544
 30
0.0
 10
230.723265
 20
215.930544
 30
0.0
 10
232.862430
 20
215.424294
 30
0.0
 10
234.616155
 20
214.805544
 30
0.0
  0
SPLINE
  5
152
100
AcDbEntity
  8
0
 62
7
100
AcDbSpline
 70
8
 71
3
 72
8
 73
4
 74
0
 40
0
 40
0
 40
0
 40
0
 40
1
 40
1
 40
1
 40
1
 10
234.616155
 20
214.805544
 30
0.0
 10
238.900215
 20
213.294040
 30
0.0
 10
241.604355
 20
213.388957
 30
0.0
 10
245.102587
 20
215.173621
 30
0.0
  0
SPLINE
  5
153
100
AcDbEntity
  8
0
 62
7
100
AcDbSpline
 70
8
 71
3
 72
8
 73
4
 74
0
 40
0
 40
0
 40
0
 40
0
 40
1
 40
1
 40
1
 40
1
 10
245.102587
 20
215.173621
 30
0.0
 10
257.837467
 20
221.670474
 30
0.0
 10
256.700902
 20
245.050200
 30
0.0
 10
243.547935
 20
247.153447
 30
0.0
  0
SPLINE
  5
154
100
AcDbEntity
  8
0
 62
7
100
AcDbSpline
 70
8
 71
3
 72
8
 73
4
 74
0
 40
0
 40
0
 40
0
 40
0
 40
1
 40
1
 40
1
 40
1
 10
243.547935
 20
247.153447
 30
0.0
 10
241.162417
 20
247.534905
 30
0.0
 10
240.505350
 20
248.002665
 30
0.0
 10
240.124552
 20
249.590527
 30
0.0
  0
SPLINE
  5
155
100
AcDbEntity
  8
0
 62
7
100
AcDbSpline
 70
8
 71
3
 72
8
 73
4
 74
0
 40
0
 40
0
 40
0
 40
0
 40
1
 40
1
 40
1
 40
1
 10
240.124552
 20
249.590527
 30
0.0
 10
237.189562
 20
261.828915
 30
0.0
 10
223.469610
 20
264.600697
 30
0.0
 10
213.524235
 20
254.964480
 30
0.0
  0
SPLINE
  5
156
100
AcDbEntity
  8
0
 62
7
100
AcDbSpline
 70
8
 71
3
 72
8
 73
4
 74
0
 40
0
 40
0
 40
0
 40
0
 40
1
 40
1
 40
1
 40
1
 10
213.524235
 20
254.964480
 30
0.0
 10
208.439940
 20
250.038232
 30
0.0
 10
207.776752
 20
246.763462
 30
0.0
 10
210.241852
 20
238.756252
 30
0.0
  0
SPLINE
  5
157
100
AcDbEntity
  8
0
 62
7
100
AcDbSpline
 70
8
 71
3
 72
8
 73
4
 74
0
 40
0
 40
0
 40
0
 40
0
 40
1
 40
1
 40
1
 40
1
 10
210.241852
 20
238.756252
 30
0.0
 10
210.599415
 20
237.594802
 30
0.0
 10
209.827522
 20
236.186655
 30
0.0
 10
207.158445
 20
233.131252
 30
0.0
  0
SPLINE
  5
158
100
AcDbEntity
  8
0
 62
7
100
AcDbSpline
 70
8
 71
3
 72
8
 73
4
 74
0
 40
0
 40
0
 40
0
 40
0
 40
1
 40
1
 40
1
 40
1
 10
207.158445
 20
233.131252
 30
0.0
 10
200.078347
 20
225.026375
 30
0.0
 10
194.506492
 20
219.680544
 30
0.0
 10
193.139047
 20
219.680544
 30
0.0
  0
SPLINE
  5
159
100
AcDbEntity
  8
0
 62
7
100
AcDbSpline
 70
8
 71
3
 72
8
 73
4
 74
0
 40
0
 40
0
 40
0
 40
0
 40
1
 40
1
 40
1
 40
1
 10
193.139047
 20
219.680544
 30
0.0
 10
192.371550
 20
219.680544
 30
0.0
 10
190.336800
 20
220.831590
 30
0.0
 10
188.617380
 20
222.238424
 30
0.0
  0
SPLINE
  5
15a
100
AcDbEntity
  8
0
 62
7
100
AcDbSpline
 70
8
 71
3
 72
8
 73
4
 74
0
 40
0
 40
0
 40
0
 40
0
 40
1
 40
1
 40
1
 40
1
 10
188.617380
 20
222.238424
 30
0.0
 10
170.901293
 20
236.733750
 30
0.0
 10
132.947933
 20
242.947980
 30
0.0
 10
101.365770
 20
236.524417
 30
0.0
  0
SPLINE
  5
15b
100
AcDbEntity
  8
0
 62
7
100
AcDbSpline
 70
8
 71
3
 72
8
 73
4
 74
0
 40
0
 40
0
 40
0
 40
0
 40
1
 40
1
 40
1
 40
1
 10
101.365770
 20
236.524417
 30
0.0
 10
88.563510
 20
233.920537
 30
0.0
 10
75.198840
 20
228.233625
 30
0.0
 10
66.921877
 20
221.867907
 30
0.0
  0
SPLINE
  5
15c
100
AcDbEntity
  8
0
 62
7
100
AcDbSpline
 70
8
 71
3
 72
8
 73
4
 74
0
 40
0
 40
0
 40
0
 40
0
 40
1
 40
1
 40
1
 40
1
 10
66.921877
 20
221.867907
 30
0.0
 10
64.821269
 20
220.252358
 30
0.0
 10
62.585932
 20
218.930544
 30
0.0
 10
61.954454
 20
218.930544
 30
0.0
  0
SPLINE
  5
15d
100
AcDbEntity
  8
0
 62
7
100
AcDbSpline
 70
8
 71
3
 72
8
 73
4
 74
0
 40
0
 40
0
 40
0
 40
0
 40
1
 40
1
 40
1
 40
1
 10
61.954454
 20
218.930544
 30
0.0
 10
60.338287
 20
218.930544
 30
0.0
 10
45.616154
 20
234.401107
 30
0.0
 10
45.616154
 20
236.099430
 30
0.0
  0
SPLINE
  5
15e
100
AcDbEntity
  8
0
 62
7
100
AcDbSpline
 70
8
 71
3
 72
8
 73
4
 74
0
 40
0
 40
0
 40
0
 40
0
 40
1
 40
1
 40
1
 40
1
 10
45.616154
 20
236.099430
 30
0.0
 10
45.616154
 20
236.868292
 30
0.0
 10
46.122404
 20
238.708988
 30
0.0
 10
46.741154
 20
240.189863
 30
0.0
  0
SPLINE
  5
15f
100
AcDbEntity
  8
0
 62
7
100
AcDbSpline
 70
8
 71
3
 72
8
 73
4
 74
0
 40
0
 40
0
 40
0
 40
0
 40
1
 40
1
 40
1
 40
1
 10
46.741154
 20
240.189863
 30
0.0
 10
49.089689
 20
245.810692
 30
0.0
 10
47.430982
 20
252.423592
 30
0.0
 10
42.707324
 20
256.271842
 30
0.0
  0
SPLINE
  5
160
100
AcDbEntity
  8
0
 62
7
100
AcDbSpline
 70
8
 71
3
 72
8
 73
4
 74
0
 40
0
 40
0
 40
0
 40
0
 40
1
 40
1
 40
1
 40
1
 10
42.707324
 20
256.271842
 30
0.0
 10
37.580264
 20
260.448727
 30
0.0
 10
28.832789
 20
262.113525
 30
0.0
 10
23.654564
 20
259.897912
 30
0.0
  0
SPLINE
  5
161
100
AcDbEntity
  8
0
 62
7
100
AcDbSpline
 70
8
 71
3
 72
8
 73
4
 74
0
 40
0
 40
0
 40
0
 40
0
 40
1
 40
1
 40
1
 40
1
 10
23.654564
 20
259.897912
 30
0.0
 10
19.217714
 20
257.999512
 30
0.0
 10
15.616154
 20
252.902160
 30
0.0
 10
15.616154
 20
248.521005
 30
0.0
  0
SPLINE
  5
162
100
AcDbEntity
  8
0
 62
7
100
AcDbSpline
 70
8
 71
3
 72
8
 73
4
 74
0
 40
0
 40
0
 40
0
 40
0
 40
1
 40
1
 40
1
 40
1
 10
15.616154
 20
248.521005
 30
0.0
 10
15.616154
 20
247.153560
 30
0.0
 10
15.110242
 20
246.598680
 30
0.0
 10
13.553654
 20
246.258870
 30
0.0
  0
SPLINE
  5
163
100
AcDbEntity
  8
0
 62
7
100
AcDbSpline
 70
8
 71
3
 72
8
 73
4
 74
0
 40
0
 40
0
 40
0
 40
0
 40
1
 40
1
 40
1
 40
1
 10
13.553654
 20
246.258870
 30
0.0
 10
7.658054
 20
244.971840
 30
0.0
 10
4.523377
 20
242.326988
 30
0.0
 10
2.836822
 20
237.216660
 30
0.0
  0
SPLINE
  5
164
100
AcDbEntity
  8
0
 62
7
100
AcDbSpline
 70
8
 71
3
 72
8
 73
4
 74
0
 40
0
 40
0
 40
0
 40
0
 40
1
 40
1
 40
1
 40
1
 10
2.836822
 20
237.216660
 30
0.0
 10
0.834914
 20
231.150833
 30
0.0
 10
4.085647
 20
220.887933
 30
0.0
 10
9.221939
 20
217.058181
 30
0.0
  0
SPLINE
  5
165
100
AcDbEntity
  8
0
 62
7
100
AcDbSpline
 70
8
 71
3
 72
8
 73
4
 74
0
 40
0
 40
0
 40
0
 40
0
 40
1
 40
1
 40
1
 40
1
 10
9.221939
 20
217.058181
 30
0.0
 10
13.396469
 20
213.945538
 30
0.0
 10
16.593479
 20
213.376534
 30
0.0
 10
21.404789
 20
214.889877
 30
0.0
  0
LWPOLYLINE
  5
166
100
AcDbEntity
  8
0
 62
7
100
AcDbPolyline
 90
3
 70
0
 10
234.614977
 20
48.232282
 30
0.0
 10
230.834025
 20
46.872675
 30
0.0
 10
224.850090
 20
52.821510
 30
0.0
  0
SPLINE
  5
167
100
AcDbEntity
  8
0
 62
7
100
AcDbSpline
 70
8
 71
3
 72
8
 73
4
 74
0
 40
0
 40
0
 40
0
 40
0
 40
1
 40
1
 40
1
 40
1
 10
33.757694
 20
207.641501
 30
0.0
 10
38.212912
 20
202.919225
 30
0.0
 10
41.859907
 20
198.793420
 30
0.0
 10
41.862119
 20
198.473046
 30
0.0
  0
SPLINE
  5
168
100
AcDbEntity
  8
0
 62
7
100
AcDbSpline
 70
8
 71
3
 72
8
 73
4
 74
0
 40
0
 40
0
 40
0
 40
0
 40
1
 40
1
 40
1
 40
1
 10
41.862119
 20
198.473046
 30
0.0
 10
41.864369
 20
198.152672
 30
0.0
 10
40.079699
 20
195.724746
 30
0.0
 10
37.896254
 20
193.077655
 30
0.0
  0
SPLINE
  5
169
100
AcDbEntity
  8
0
 62
7
100
AcDbSpline
 70
8
 71
3
 72
8
 73
4
 74
0
 40
0
 40
0
 40
0
 40
0
 40
1
 40
1
 40
1
 40
1
 10
37.896254
 20
193.077655
 30
0.0
 10
33.043334
 20
187.194233
 30
0.0
 10
27.812602
 20
177.322245
 30
0.0
 10
24.770594
 20
168.305543
 30
0.0
  0
SPLINE
  5
16a
100
AcDbEntity
  8
0
 62
7
100
AcDbSpline
 70
8
 71
3
 72
8
 73
4
 74
0
 40
0
 40
0
 40
0
 40
0
 40
1
 40
1
 40
1
 40
1
 10
24.770594
 20
168.305543
 30
0.0
 10
13.038682
 20
133.531433
 30
0.0
 10
17.518507
 20
87.156255
 30
0.0
 10
34.888949
 20
63.560175
 30
0.0
  0
SPLINE
  5
16b
100
AcDbEntity
  8
0
 62
7
100
AcDbSpline
 70
8
 71
3
 72
8
 73
4
 74
0
 40
0
 40
0
 40
0
 40
0
 40
1
 40
1
 40
1
 40
1
 10
34.888949
 20
63.560175
 30
0.0
 10
36.663914
 20
61.149060
 30
0.0
 10
38.116154
 20
58.792830
 30
0.0
 10
38.116154
 20
58.324110
 30
0.0
  0
SPLINE
  5
16c
100
AcDbEntity
  8
0
 62
7
100
AcDbSpline
 70
8
 71
3
 72
8
 73
4
 74
0
 40
0
 40
0
 40
0
 40
0
 40
1
 40
1
 40
1
 40
1
 10
38.116154
 20
58.324110
 30
0.0
 10
38.116154
 20
56.942580
 30
0.0
 10
29.891054
 20
47.981940
 30
0.0
 10
27.477089
 20
46.733632
 30
0.0
  0
SPLINE
  5
16d
100
AcDbEntity
  8
0
 62
7
100
AcDbSpline
 70
8
 71
3
 72
8
 73
4
 74
0
 40
0
 40
0
 40
0
 40
0
 40
1
 40
1
 40
1
 40
1
 10
27.477089
 20
46.733632
 30
0.0
 10
25.787632
 20
45.859980
 30
0.0
 10
25.011217
 20
45.791452
 30
0.0
 10
24.222127
 20
46.446337
 30
0.0
  0
SPLINE
  5
16e
100
AcDbEntity
  8
0
 62
7
100
AcDbSpline
 70
8
 71
3
 72
8
 73
4
 74
0
 40
0
 40
0
 40
0
 40
0
 40
1
 40
1
 40
1
 40
1
 10
24.222127
 20
46.446337
 30
0.0
 10
23.652172
 20
46.919355
 30
0.0
 10
21.686999
 20
47.757457
 30
0.0
 10
19.855087
 20
48.308782
 30
0.0
  0
SPLINE
  5
16f
100
AcDbEntity
  8
0
 62
7
100
AcDbSpline
 70
8
 71
3
 72
8
 73
4
 74
0
 40
0
 40
0
 40
0
 40
0
 40
1
 40
1
 40
1
 40
1
 10
19.855087
 20
48.308782
 30
0.0
 10
11.097644
 20
50.944387
 30
0.0
 10
3.205334
 20
43.807875
 30
0.0
 10
2.291827
 20
32.427450
 30
0.0
  0
SPLINE
  5
170
100
AcDbEntity
  8
0
 62
7
100
AcDbSpline
 70
8
 71
3
 72
8
 73
4
 74
0
 40
0
 40
0
 40
0
 40
0
 40
1
 40
1
 40
1
 40
1
 10
2.291827
 20
32.427450
 30
0.0
 10
1.816829
 20
26.510010
 30
0.0
 10
3.410249
 20
21.925222
 30
0.0
 10
7.053592
 20
18.726330
 30
0.0
  0
SPLINE
  5
171
100
AcDbEntity
  8
0
 62
7
100
AcDbSpline
 70
8
 71
3
 72
8
 73
4
 74
0
 40
0
 40
0
 40
0
 40
0
 40
1
 40
1
 40
1
 40
1
 10
7.053592
 20
18.726330
 30
0.0
 10
9.463222
 20
16.610640
 30
0.0
 10
10.669259
 20
16.088145
 30
0.0
 10
14.458409
 20
15.518280
 30
0.0
  0
SPLINE
  5
172
100
AcDbEntity
  8
0
 62
7
100
AcDbSpline
 70
8
 71
3
 72
8
 73
4
 74
0
 40
0
 40
0
 40
0
 40
0
 40
1
 40
1
 40
1
 40
1
 10
14.458409
 20
15.518280
 30
0.0
 10
15.489577
 20
15.363195
 30
0.0
 10
16.103909
 20
14.439690
 30
0.0
 10
16.525394
 20
12.411045
 30
0.0
  0
SPLINE
  5
173
100
AcDbEntity
  8
0
 62
7
100
AcDbSpline
 70
8
 71
3
 72
8
 73
4
 74
0
 40
0
 40
0
 40
0
 40
0
 40
1
 40
1
 40
1
 40
1
 10
16.525394
 20
12.411045
 30
0.0
 10
18.400252
 20
3.387307
 30
0.0
 10
29.195594
 20
-0.623033
 30
0.0
 10
38.769254
 20
4.147725
 30
0.0
  0
LWPOLYLINE
  5
174
100
AcDbEntity
  8
0
 62
7
100
AcDbPolyline
 90
3
 70
0
 10
21.404789
 20
214.889877
 30
0.0
 10
25.657304
 20
216.227457
 30
0.0
 10
33.757694
 20
207.641501
 30
0.0
  0
SPLINE
  5
175
100
AcDbEntity
  8
0
 62
7
100
AcDbSpline
 70
8
 71
3
 72
8
 73
4
 74
0
 40
0
 40
0
 40
0
 40
0
 40
1
 40
1
 40
1
 40
1
 10
27.241154
 20
7.579612
 30
0.0
 10
26.003654
 20
8.017778
 30
0.0
 10
24.435359
 20
8.859270
 30
0.0
 10
23.756062
 20
9.449595
 30
0.0
  0
SPLINE
  5
176
100
AcDbEntity
  8
0
 62
7
100
AcDbSpline
 70
8
 71
3
 72
8
 73
4
 74
0
 40
0
 40
0
 40
0
 40
0
 40
1
 40
1
 40
1
 40
1
 10
23.756062
 20
9.449595
 30
0.0
 10
22.447784
 20
10.586513
 30
0.0
 10
20.866154
 20
15.812490
 30
0.0
 10
20.866154
 20
18.998310
 30
0.0
  0
SPLINE
  5
177
100
AcDbEntity
  8
0
 62
7
100
AcDbSpline
 70
8
 71
3
 72
8
 73
4
 74
0
 40
0
 40
0
 40
0
 40
0
 40
1
 40
1
 40
1
 40
1
 10
20.866154
 20
18.998310
 30
0.0
 10
20.866154
 20
20.800755
 30
0.0
 10
20.696872
 20
20.880525
 30
0.0
 10
17.678654
 20
20.500305
 30
0.0
  0
SPLINE
  5
178
100
AcDbEntity
  8
0
 62
7
100
AcDbSpline
 70
8
 71
3
 72
8
 73
4
 74
0
 40
0
 40
0
 40
0
 40
0
 40
1
 40
1
 40
1
 40
1
 10
17.678654
 20
20.500305
 30
0.0
 10
9.770002
 20
19.504020
 30
0.0
 10
4.136842
 20
28.604085
 30
0.0
 10
7.836292
 20
36.400095
 30
0.0
  0
SPLINE
  5
179
100
AcDbEntity
  8
0
 62
7
100
AcDbSpline
 70
8
 71
3
 72
8
 73
4
 74
0
 40
0
 40
0
 40
0
 40
0
 40
1
 40
1
 40
1
 40
1
 10
7.836292
 20
36.400095
 30
0.0
 10
11.065949
 20
43.206090
 30
0.0
 10
19.657207
 20
45.082185
 30
0.0
 10
25.727752
 20
40.307093
 30
0.0
  0
LWPOLYLINE
  5
17a
100
AcDbEntity
  8
0
 62
7
100
AcDbPolyline
 90
1
 70
1
 10
38.769254
 20
4.147725
 30
0.0
  0
SPLINE
  5
17b
100
AcDbEntity
  8
0
 62
7
100
AcDbSpline
 70
8
 71
3
 72
8
 73
4
 74
0
 40
0
 40
0
 40
0
 40
0
 40
1
 40
1
 40
1
 40
1
 10
34.075297
 20
45.372135
 30
0.0
 10
37.534867
 20
49.048005
 30
0.0
 10
40.365592
 20
52.308668
 30
0.0
 10
40.365787
 20
52.618043
 30
0.0
  0
SPLINE
  5
17c
100
AcDbEntity
  8
0
 62
7
100
AcDbSpline
 70
8
 71
3
 72
8
 73
4
 74
0
 40
0
 40
0
 40
0
 40
0
 40
1
 40
1
 40
1
 40
1
 10
40.365787
 20
52.618043
 30
0.0
 10
40.365989
 20
52.927418
 30
0.0
 10
40.894687
 20
53.180543
 30
0.0
 10
41.540677
 20
53.180543
 30
0.0
  0
SPLINE
  5
17d
100
AcDbEntity
  8
0
 62
7
100
AcDbSpline
 70
8
 71
3
 72
8
 73
4
 74
0
 40
0
 40
0
 40
0
 40
0
 40
1
 40
1
 40
1
 40
1
 10
41.540677
 20
53.180543
 30
0.0
 10
42.918449
 20
53.180543
 30
0.0
 10
52.366154
 20
43.820175
 30
0.0
 10
52.366154
 20
42.455130
 30
0.0
  0
SPLINE
  5
17e
100
AcDbEntity
  8
0
 62
7
100
AcDbSpline
 70
8
 71
3
 72
8
 73
4
 74
0
 40
0
 40
0
 40
0
 40
0
 40
1
 40
1
 40
1
 40
1
 10
52.366154
 20
42.455130
 30
0.0
 10
52.366154
 20
41.943158
 30
0.0
 10
49.373504
 20
38.545485
 30
0.0
 10
45.715814
 20
34.904745
 30
0.0
  0
LWPOLYLINE
  5
17f
100
AcDbEntity
  8
0
 62
7
100
AcDbPolyline
 90
3
 70
0
 10
25.727752
 20
40.307093
 30
0.0
 10
27.785174
 20
38.688720
 30
0.0
 10
34.075297
 20
45.372135
 30
0.0
  0
SPLINE
  5
180
100
AcDbEntity
  8
0
 62
7
100
AcDbSpline
 70
8
 71
3
 72
8
 73
4
 74
0
 40
0
 40
0
 40
0
 40
0
 40
1
 40
1
 40
1
 40
1
 10
40.399897
 20
24.773325
 30
0.0
 10
44.068334
 20
15.118778
 30
0.0
 10
35.940982
 20
4.499265
 30
0.0
 10
27.241154
 20
7.579613
 30
0.0
  0
LWPOLYLINE
  5
181
100
AcDbEntity
  8
0
 62
7
100
AcDbPolyline
 90
3
 70
0
 10
45.715814
 20
34.904745
 30
0.0
 10
39.065482
 20
28.285223
 30
0.0
 10
40.399897
 20
24.773325
 30
0.0
  0
SPLINE
  5
182
100
AcDbEntity
  8
0
 62
7
100
AcDbSpline
 70
8
 71
3
 72
8
 73
4
 74
0
 40
0
 40
0
 40
0
 40
0
 40
1
 40
1
 40
1
 40
1
 10
34.366529
 20
10.618043
 30
0.0
 10
37.281442
 20
12.607732
 30
0.0
 10
39.616154
 20
16.652025
 30
0.0
 10
39.616154
 20
19.711695
 30
0.0
  0
SPLINE
  5
183
100
AcDbEntity
  8
0
 62
7
100
AcDbSpline
 70
8
 71
3
 72
8
 73
4
 74
0
 40
0
 40
0
 40
0
 40
0
 40
1
 40
1
 40
1
 40
1
 10
39.616154
 20
19.711695
 30
0.0
 10
39.616154
 20
20.910450
 30
0.0
 10
38.875357
 20
23.374552
 30
0.0
 10
37.969934
 20
25.187475
 30
0.0
  0
LWPOLYLINE
  5
184
100
AcDbEntity
  8
0
 62
7
100
AcDbPolyline
 90
1
 70
1
 10
27.241154
 20
7.579613
 30
0.0
  0
SPLINE
  5
185
100
AcDbEntity
  8
0
 62
7
100
AcDbSpline
 70
8
 71
3
 72
8
 73
4
 74
0
 40
0
 40
0
 40
0
 40
0
 40
1
 40
1
 40
1
 40
1
 10
35.427434
 20
43.633522
 30
0.0
 10
31.822462
 20
39.809385
 30
0.0
 10
28.385752
 20
36.680542
 30
0.0
 10
27.790312
 20
36.680542
 30
0.0
  0
SPLINE
  5
186
100
AcDbEntity
  8
0
 62
7
100
AcDbSpline
 70
8
 71
3
 72
8
 73
4
 74
0
 40
0
 40
0
 40
0
 40
0
 40
1
 40
1
 40
1
 40
1
 10
27.790312
 20
36.680542
 30
0.0
 10
27.194864
 20
36.680542
 30
0.0
 10
25.720904
 20
37.510860
 30
0.0
 10
24.514844
 20
38.525700
 30
0.0
  0
SPLINE
  5
187
100
AcDbEntity
  8
0
 62
7
100
AcDbSpline
 70
8
 71
3
 72
8
 73
4
 74
0
 40
0
 40
0
 40
0
 40
0
 40
1
 40
1
 40
1
 40
1
 10
24.514844
 20
38.525700
 30
0.0
 10
18.777494
 20
43.353360
 30
0.0
 10
10.414904
 20
40.303695
 30
0.0
 10
8.579002
 20
32.714235
 30
0.0
  0
SPLINE
  5
188
100
AcDbEntity
  8
0
 62
7
100
AcDbSpline
 70
8
 71
3
 72
8
 73
4
 74
0
 40
0
 40
0
 40
0
 40
0
 40
1
 40
1
 40
1
 40
1
 10
8.579002
 20
32.714235
 30
0.0
 10
7.926547
 20
30.017032
 30
0.0
 10
9.848092
 20
25.901580
 30
0.0
 10
12.712079
 20
23.862240
 30
0.0
  0
SPLINE
  5
189
100
AcDbEntity
  8
0
 62
7
100
AcDbSpline
 70
8
 71
3
 72
8
 73
4
 74
0
 40
0
 40
0
 40
0
 40
0
 40
1
 40
1
 40
1
 40
1
 10
12.712079
 20
23.862240
 30
0.0
 10
14.534437
 20
22.564605
 30
0.0
 10
15.518939
 20
22.404165
 30
0.0
 10
18.994612
 20
22.838422
 30
0.0
  0
LWPOLYLINE
  5
18a
100
AcDbEntity
  8
0
 62
7
100
AcDbPolyline
 90
7
 70
0
 10
37.969934
 20
25.187475
 30
0.0
 10
36.323722
 20
28.483702
 30
0.0
 10
43.249514
 20
35.438415
 30
0.0
 10
50.175307
 20
42.393127
 30
0.0
 10
46.078619
 20
46.489815
 30
0.0
 10
41.981939
 20
50.586495
 30
0.0
 10
35.427434
 20
43.633522
 30
0.0
  0
SPLINE
  5
18b
100
AcDbEntity
  8
0
 62
7
100
AcDbSpline
 70
8
 71
3
 72
8
 73
4
 74
0
 40
0
 40
0
 40
0
 40
0
 40
1
 40
1
 40
1
 40
1
 10
23.116154
 20
19.985707
 30
0.0
 10
23.116154
 20
14.165700
 30
0.0
 10
23.894744
 20
11.891422
 30
0.0
 10
26.412892
 20
10.355887
 30
0.0
  0
SPLINE
  5
18c
100
AcDbEntity
  8
0
 62
7
100
AcDbSpline
 70
8
 71
3
 72
8
 73
4
 74
0
 40
0
 40
0
 40
0
 40
0
 40
1
 40
1
 40
1
 40
1
 10
26.412892
 20
10.355887
 30
0.0
 10
29.458912
 20
8.498467
 30
0.0
 10
31.352782
 20
8.560890
 30
0.0
 10
34.366529
 20
10.618042
 30
0.0
  0
LWPOLYLINE
  5
18d
100
AcDbEntity
  8
0
 62
7
100
AcDbPolyline
 90
3
 70
0
 10
18.994612
 20
22.838422
 30
0.0
 10
23.116154
 20
23.353380
 30
0.0
 10
23.116154
 20
19.985707
 30
0.0
  0
SPLINE
  5
18e
100
AcDbEntity
  8
0
 62
7
100
AcDbSpline
 70
8
 71
3
 72
8
 73
4
 74
0
 40
0
 40
0
 40
0
 40
0
 40
1
 40
1
 40
1
 40
1
 10
220.330117
 20
8.370593
 30
0.0
 10
214.688490
 20
12.172485
 30
0.0
 10
213.045090
 20
20.009160
 30
0.0
 10
216.544710
 20
26.421615
 30
0.0
  0
LWPOLYLINE
  5
18f
100
AcDbEntity
  8
0
 62
7
100
AcDbPolyline
 90
1
 70
1
 10
34.366529
 20
10.618042
 30
0.0
  0
SPLINE
  5
190
100
AcDbEntity
  8
0
 62
7
100
AcDbSpline
 70
8
 71
3
 72
8
 73
4
 74
0
 40
0
 40
0
 40
0
 40
0
 40
1
 40
1
 40
1
 40
1
 10
216.406545
 20
32.272035
 30
0.0
 10
215.338605
 20
33.672180
 30
0.0
 10
212.420047
 20
36.502508
 30
0.0
 10
209.920868
 20
38.561648
 30
0.0
  0
SPLINE
  5
191
100
AcDbEntity
  8
0
 62
7
100
AcDbSpline
 70
8
 71
3
 72
8
 73
4
 74
0
 40
0
 40
0
 40
0
 40
0
 40
1
 40
1
 40
1
 40
1
 10
209.920868
 20
38.561648
 30
0.0
 10
207.421688
 20
40.620788
 30
0.0
 10
205.374487
 20
42.764475
 30
0.0
 10
205.371533
 20
43.325385
 30
0.0
  0
SPLINE
  5
192
100
AcDbEntity
  8
0
 62
7
100
AcDbSpline
 70
8
 71
3
 72
8
 73
4
 74
0
 40
0
 40
0
 40
0
 40
0
 40
1
 40
1
 40
1
 40
1
 10
205.371533
 20
43.325385
 30
0.0
 10
205.368532
 20
43.886303
 30
0.0
 10
207.053655
 20
46.191623
 30
0.0
 10
209.116155
 20
48.448328
 30
0.0
  0
SPLINE
  5
193
100
AcDbEntity
  8
0
 62
7
100
AcDbSpline
 70
8
 71
3
 72
8
 73
4
 74
0
 40
0
 40
0
 40
0
 40
0
 40
1
 40
1
 40
1
 40
1
 10
209.116155
 20
48.448328
 30
0.0
 10
211.178655
 20
50.705033
 30
0.0
 10
212.866155
 20
52.861725
 30
0.0
 10
212.866155
 20
53.240985
 30
0.0
  0
SPLINE
  5
194
100
AcDbEntity
  8
0
 62
7
100
AcDbSpline
 70
8
 71
3
 72
8
 73
4
 74
0
 40
0
 40
0
 40
0
 40
0
 40
1
 40
1
 40
1
 40
1
 10
212.866155
 20
53.240985
 30
0.0
 10
212.866155
 20
55.298483
 30
0.0
 10
216.307455
 20
53.200485
 30
0.0
 10
222.620558
 20
47.294123
 30
0.0
  0
LWPOLYLINE
  5
195
100
AcDbEntity
  8
0
 62
7
100
AcDbPolyline
 90
3
 70
0
 10
216.544710
 20
26.421615
 30
0.0
 10
218.348265
 20
29.726318
 30
0.0
 10
216.406545
 20
32.272035
 30
0.0
  0
SPLINE
  5
196
100
AcDbEntity
  8
0
 62
7
100
AcDbSpline
 70
8
 71
3
 72
8
 73
4
 74
0
 40
0
 40
0
 40
0
 40
0
 40
1
 40
1
 40
1
 40
1
 10
233.026793
 20
42.419123
 30
0.0
 10
234.848820
 20
43.387905
 30
0.0
 10
237.217425
 20
44.179283
 30
0.0
 10
238.290360
 20
44.177738
 30
0.0
  0
SPLINE
  5
197
100
AcDbEntity
  8
0
 62
7
100
AcDbSpline
 70
8
 71
3
 72
8
 73
4
 74
0
 40
0
 40
0
 40
0
 40
0
 40
1
 40
1
 40
1
 40
1
 10
238.290360
 20
44.177738
 30
0.0
 10
244.682513
 20
44.168588
 30
0.0
 10
250.761390
 20
34.718903
 30
0.0
 10
248.876985
 20
27.720758
 30
0.0
  0
SPLINE
  5
198
100
AcDbEntity
  8
0
 62
7
100
AcDbSpline
 70
8
 71
3
 72
8
 73
4
 74
0
 40
0
 40
0
 40
0
 40
0
 40
1
 40
1
 40
1
 40
1
 10
248.876985
 20
27.720758
 30
0.0
 10
247.747725
 20
23.527013
 30
0.0
 10
245.098380
 20
21.680543
 30
0.0
 10
240.210390
 20
21.680543
 30
0.0
  0
LWPOLYLINE
  5
199
100
AcDbEntity
  8
0
 62
7
100
AcDbPolyline
 90
3
 70
0
 10
222.620558
 20
47.294123
 30
0.0
 10
229.714028
 20
40.657710
 30
0.0
 10
233.026793
 20
42.419123
 30
0.0
  0
SPLINE
  5
19a
100
AcDbEntity
  8
0
 62
7
100
AcDbSpline
 70
8
 71
3
 72
8
 73
4
 74
0
 40
0
 40
0
 40
0
 40
0
 40
1
 40
1
 40
1
 40
1
 10
235.728323
 20
17.743043
 30
0.0
 10
234.935730
 20
11.838998
 30
0.0
 10
233.651888
 20
9.355680
 30
0.0
 10
230.657580
 20
7.934783
 30
0.0
  0
SPLINE
  5
19b
100
AcDbEntity
  8
0
 62
7
100
AcDbSpline
 70
8
 71
3
 72
8
 73
4
 74
0
 40
0
 40
0
 40
0
 40
0
 40
1
 40
1
 40
1
 40
1
 10
230.657580
 20
7.934783
 30
0.0
 10
227.012025
 20
6.204855
 30
0.0
 10
223.312170
 20
6.360983
 30
0.0
 10
220.330118
 20
8.370593
 30
0.0
  0
LWPOLYLINE
  5
19c
100
AcDbEntity
  8
0
 62
7
100
AcDbPolyline
 90
3
 70
0
 10
240.210390
 20
21.680543
 30
0.0
 10
236.256915
 20
21.680543
 30
0.0
 10
235.728323
 20
17.743043
 30
0.0
  0
SPLINE
  5
19d
100
AcDbEntity
  8
0
 62
7
100
AcDbSpline
 70
8
 71
3
 72
8
 73
4
 74
0
 40
0
 40
0
 40
0
 40
0
 40
1
 40
1
 40
1
 40
1
 10
229.665180
 20
9.782393
 30
0.0
 10
232.060387
 20
10.873718
 30
0.0
 10
233.866155
 20
15.373043
 30
0.0
 10
233.866155
 20
20.249685
 30
0.0
  0
LWPOLYLINE
  5
19e
100
AcDbEntity
  8
0
 62
7
100
AcDbPolyline
 90
1
 70
1
 10
220.330118
 20
8.370593
 30
0.0
  0
SPLINE
  5
19f
100
AcDbEntity
  8
0
 62
7
100
AcDbSpline
 70
8
 71
3
 72
8
 73
4
 74
0
 40
0
 40
0
 40
0
 40
0
 40
1
 40
1
 40
1
 40
1
 10
237.803655
 20
23.576168
 30
0.0
 10
240.982372
 20
23.202945
 30
0.0
 10
242.203035
 20
23.402445
 30
0.0
 10
244.137960
 20
24.611430
 30
0.0
  0
SPLINE
  5
1a0
100
AcDbEntity
  8
0
 62
7
100
AcDbSpline
 70
8
 71
3
 72
8
 73
4
 74
0
 40
0
 40
0
 40
0
 40
0
 40
1
 40
1
 40
1
 40
1
 10
244.137960
 20
24.611430
 30
0.0
 10
248.615460
 20
27.409058
 30
0.0
 10
248.146402
 20
34.350300
 30
0.0
 10
243.141652
 20
39.355043
 30
0.0
  0
SPLINE
  5
1a1
100
AcDbEntity
  8
0
 62
7
100
AcDbSpline
 70
8
 71
3
 72
8
 73
4
 74
0
 40
0
 40
0
 40
0
 40
0
 40
1
 40
1
 40
1
 40
1
 10
243.141652
 20
39.355043
 30
0.0
 10
240.006952
 20
42.489743
 30
0.0
 10
237.799440
 20
42.633353
 30
0.0
 10
232.893540
 20
40.021733
 30
0.0
  0
LWPOLYLINE
  5
1a2
100
AcDbEntity
  8
0
 62
7
100
AcDbPolyline
 90
3
 70
0
 10
233.866155
 20
20.249685
 30
0.0
 10
233.866155
 20
24.038475
 30
0.0
 10
237.803655
 20
23.576168
 30
0.0
  0
SPLINE
  5
1a3
100
AcDbEntity
  8
0
 62
7
100
AcDbSpline
 70
8
 71
3
 72
8
 73
4
 74
0
 40
0
 40
0
 40
0
 40
0
 40
1
 40
1
 40
1
 40
1
 10
222.024502
 20
44.906385
 30
0.0
 10
215.414025
 20
51.072233
 30
0.0
 10
214.653187
 20
51.577695
 30
0.0
 10
213.788932
 20
50.377695
 30
0.0
  0
SPLINE
  5
1a4
100
AcDbEntity
  8
0
 62
7
100
AcDbSpline
 70
8
 71
3
 72
8
 73
4
 74
0
 40
0
 40
0
 40
0
 40
0
 40
1
 40
1
 40
1
 40
1
 10
213.788932
 20
50.377695
 30
0.0
 10
213.265215
 20
49.650510
 30
0.0
 10
211.617600
 20
47.789107
 30
0.0
 10
210.127575
 20
46.241242
 30
0.0
  0
LWPOLYLINE
  5
1a5
100
AcDbEntity
  8
0
 62
7
100
AcDbPolyline
 90
3
 70
0
 10
232.893540
 20
40.021733
 30
0.0
 10
229.307850
 20
38.112930
 30
0.0
 10
222.024502
 20
44.906385
 30
0.0
  0
SPLINE
  5
1a6
100
AcDbEntity
  8
0
 62
7
100
AcDbSpline
 70
8
 71
3
 72
8
 73
4
 74
0
 40
0
 40
0
 40
0
 40
0
 40
1
 40
1
 40
1
 40
1
 10
209.579797
 20
41.796277
 30
0.0
 10
213.644025
 20
38.729955
 30
0.0
 10
219.566280
 20
32.265412
 30
0.0
 10
220.039897
 20
30.378352
 30
0.0
  0
SPLINE
  5
1a7
100
AcDbEntity
  8
0
 62
7
100
AcDbSpline
 70
8
 71
3
 72
8
 73
4
 74
0
 40
0
 40
0
 40
0
 40
0
 40
1
 40
1
 40
1
 40
1
 10
220.039897
 20
30.378352
 30
0.0
 10
220.368195
 20
29.070315
 30
0.0
 10
220.008097
 20
27.784275
 30
0.0
 10
218.863500
 20
26.176815
 30
0.0
  0
SPLINE
  5
1a8
100
AcDbEntity
  8
0
 62
7
100
AcDbSpline
 70
8
 71
3
 72
8
 73
4
 74
0
 40
0
 40
0
 40
0
 40
0
 40
1
 40
1
 40
1
 40
1
 10
218.863500
 20
26.176815
 30
0.0
 10
212.693062
 20
17.511232
 30
0.0
 10
220.528207
 20
5.619307
 30
0.0
 10
229.665180
 20
9.782392
 30
0.0
  0
LWPOLYLINE
  5
1a9
100
AcDbEntity
  8
0
 62
7
100
AcDbPolyline
 90
3
 70
0
 10
210.127575
 20
46.241242
 30
0.0
 10
207.418440
 20
43.426942
 30
0.0
 10
209.579797
 20
41.796277
 30
0.0
  0
SPLINE
  5
1aa
100
AcDbEntity
  8
0
 62
7
100
AcDbSpline
 70
8
 71
3
 72
8
 73
4
 74
0
 40
0
 40
0
 40
0
 40
0
 40
1
 40
1
 40
1
 40
1
 10
124.667737
 20
23.178293
 30
0.0
 10
113.712412
 20
24.784650
 30
0.0
 10
105.246645
 20
30.019440
 30
0.0
 10
101.432895
 20
37.545518
 30
0.0
  0
SPLINE
  5
1ab
100
AcDbEntity
  8
0
 62
7
100
AcDbSpline
 70
8
 71
3
 72
8
 73
4
 74
0
 40
0
 40
0
 40
0
 40
0
 40
1
 40
1
 40
1
 40
1
 10
101.432895
 20
37.545518
 30
0.0
 10
99.681855
 20
41.001023
 30
0.0
 10
99.014377
 20
44.930948
 30
0.0
 10
100.178655
 20
44.930168
 30
0.0
  0
SPLINE
  5
1ac
100
AcDbEntity
  8
0
 62
7
100
AcDbSpline
 70
8
 71
3
 72
8
 73
4
 74
0
 40
0
 40
0
 40
0
 40
0
 40
1
 40
1
 40
1
 40
1
 10
100.178655
 20
44.930168
 30
0.0
 10
100.488030
 20
44.929958
 30
0.0
 10
102.517567
 20
44.254613
 30
0.0
 10
104.688735
 20
43.429395
 30
0.0
  0
SPLINE
  5
1ad
100
AcDbEntity
  8
0
 62
7
100
AcDbSpline
 70
8
 71
3
 72
8
 73
4
 74
0
 40
0
 40
0
 40
0
 40
0
 40
1
 40
1
 40
1
 40
1
 10
104.688735
 20
43.429395
 30
0.0
 10
109.431045
 20
41.626935
 30
0.0
 10
121.758465
 20
39.680543
 30
0.0
 10
128.431950
 20
39.680543
 30
0.0
  0
SPLINE
  5
1ae
100
AcDbEntity
  8
0
 62
7
100
AcDbSpline
 70
8
 71
3
 72
8
 73
4
 74
0
 40
0
 40
0
 40
0
 40
0
 40
1
 40
1
 40
1
 40
1
 10
128.431950
 20
39.680543
 30
0.0
 10
134.960910
 20
39.680543
 30
0.0
 10
143.641560
 20
40.862333
 30
0.0
 10
151.541235
 20
42.826650
 30
0.0
  0
SPLINE
  5
1af
100
AcDbEntity
  8
0
 62
7
100
AcDbSpline
 70
8
 71
3
 72
8
 73
4
 74
0
 40
0
 40
0
 40
0
 40
0
 40
1
 40
1
 40
1
 40
1
 10
151.541235
 20
42.826650
 30
0.0
 10
155.143777
 20
43.722450
 30
0.0
 10
158.296875
 20
44.249820
 30
0.0
 10
158.548125
 20
43.998578
 30
0.0
  0
SPLINE
  5
1b0
100
AcDbEntity
  8
0
 62
7
100
AcDbSpline
 70
8
 71
3
 72
8
 73
4
 74
0
 40
0
 40
0
 40
0
 40
0
 40
1
 40
1
 40
1
 40
1
 10
158.548125
 20
43.998578
 30
0.0
 10
158.799367
 20
43.747335
 30
0.0
 10
158.469202
 20
41.698943
 30
0.0
 10
157.814430
 20
39.446595
 30
0.0
  0
SPLINE
  5
1b1
100
AcDbEntity
  8
0
 62
7
100
AcDbSpline
 70
8
 71
3
 72
8
 73
4
 74
0
 40
0
 40
0
 40
0
 40
0
 40
1
 40
1
 40
1
 40
1
 10
157.814430
 20
39.446595
 30
0.0
 10
155.352345
 20
30.977340
 30
0.0
 10
147.049882
 20
24.817478
 30
0.0
 10
135.930645
 20
23.210333
 30
0.0
  0
SPLINE
  5
1b2
100
AcDbEntity
  8
0
 62
7
100
AcDbSpline
 70
8
 71
3
 72
8
 73
4
 74
0
 40
0
 40
0
 40
0
 40
0
 40
1
 40
1
 40
1
 40
1
 10
135.930645
 20
23.210333
 30
0.0
 10
130.195200
 20
22.381343
 30
0.0
 10
130.104690
 20
22.381088
 30
0.0
 10
124.667737
 20
23.178308
 30
0.0
  0
LWPOLYLINE
  5
1b3
100
AcDbEntity
  8
0
 62
7
100
AcDbPolyline
 90
1
 70
1
 10
229.665180
 20
9.782392
 30
0.0
  0
SPLINE
  5
1b4
100
AcDbEntity
  8
0
 62
7
100
AcDbSpline
 70
8
 71
3
 72
8
 73
4
 74
0
 40
0
 40
0
 40
0
 40
0
 40
1
 40
1
 40
1
 40
1
 10
142.425668
 20
26.852858
 30
0.0
 10
147.945330
 20
28.949760
 30
0.0
 10
152.663190
 20
33.093510
 30
0.0
 10
154.812330
 20
37.732215
 30
0.0
  0
SPLINE
  5
1b5
100
AcDbEntity
  8
0
 62
7
100
AcDbSpline
 70
8
 71
3
 72
8
 73
4
 74
0
 40
0
 40
0
 40
0
 40
0
 40
1
 40
1
 40
1
 40
1
 10
154.812330
 20
37.732215
 30
0.0
 10
155.770470
 20
39.800258
 30
0.0
 10
156.482452
 20
41.564243
 30
0.0
 10
156.394522
 20
41.652173
 30
0.0
  0
SPLINE
  5
1b6
100
AcDbEntity
  8
0
 62
7
100
AcDbSpline
 70
8
 71
3
 72
8
 73
4
 74
0
 40
0
 40
0
 40
0
 40
0
 40
1
 40
1
 40
1
 40
1
 10
156.394522
 20
41.652173
 30
0.0
 10
156.306592
 20
41.740103
 30
0.0
 10
153.536115
 20
41.106615
 30
0.0
 10
150.237900
 20
40.244415
 30
0.0
  0
SPLINE
  5
1b7
100
AcDbEntity
  8
0
 62
7
100
AcDbSpline
 70
8
 71
3
 72
8
 73
4
 74
0
 40
0
 40
0
 40
0
 40
0
 40
1
 40
1
 40
1
 40
1
 10
150.237900
 20
40.244415
 30
0.0
 10
145.106797
 20
38.903078
 30
0.0
 10
142.021732
 20
38.674913
 30
0.0
 10
128.866155
 20
38.663805
 30
0.0
  0
SPLINE
  5
1b8
100
AcDbEntity
  8
0
 62
7
100
AcDbSpline
 70
8
 71
3
 72
8
 73
4
 74
0
 40
0
 40
0
 40
0
 40
0
 40
1
 40
1
 40
1
 40
1
 10
128.866155
 20
38.663805
 30
0.0
 10
115.560112
 20
38.652555
 30
0.0
 10
112.734217
 20
38.861085
 30
0.0
 10
107.866155
 20
40.213335
 30
0.0
  0
SPLINE
  5
1b9
100
AcDbEntity
  8
0
 62
7
100
AcDbSpline
 70
8
 71
3
 72
8
 73
4
 74
0
 40
0
 40
0
 40
0
 40
0
 40
1
 40
1
 40
1
 40
1
 10
107.866155
 20
40.213335
 30
0.0
 10
104.772405
 20
41.072715
 30
0.0
 10
102.115777
 20
41.657145
 30
0.0
 10
101.962537
 20
41.512073
 30
0.0
  0
SPLINE
  5
1ba
100
AcDbEntity
  8
0
 62
7
100
AcDbSpline
 70
8
 71
3
 72
8
 73
4
 74
0
 40
0
 40
0
 40
0
 40
0
 40
1
 40
1
 40
1
 40
1
 10
101.962537
 20
41.512073
 30
0.0
 10
101.809290
 20
41.367000
 30
0.0
 10
102.568335
 20
39.739155
 30
0.0
 10
103.649287
 20
37.894635
 30
0.0
  0
SPLINE
  5
1bb
100
AcDbEntity
  8
0
 62
7
100
AcDbSpline
 70
8
 71
3
 72
8
 73
4
 74
0
 40
0
 40
0
 40
0
 40
0
 40
1
 40
1
 40
1
 40
1
 10
103.649287
 20
37.894635
 30
0.0
 10
106.985565
 20
32.201708
 30
0.0
 10
113.544000
 20
27.765855
 30
0.0
 10
121.710067
 20
25.679063
 30
0.0
  0
SPLINE
  5
1bc
100
AcDbEntity
  8
0
 62
7
100
AcDbSpline
 70
8
 71
3
 72
8
 73
4
 74
0
 40
0
 40
0
 40
0
 40
0
 40
1
 40
1
 40
1
 40
1
 10
121.710067
 20
25.679063
 30
0.0
 10
127.073632
 20
24.308430
 30
0.0
 10
137.245080
 20
24.884775
 30
0.0
 10
142.425667
 20
26.852858
 30
0.0
  0
LWPOLYLINE
  5
1bd
100
AcDbEntity
  8
0
 62
7
100
AcDbPolyline
 90
1
 70
1
 10
124.667737
 20
23.178308
 30
0.0
  0
SPLINE
  5
1be
100
AcDbEntity
  8
0
 62
7
100
AcDbSpline
 70
8
 71
3
 72
8
 73
4
 74
0
 40
0
 40
0
 40
0
 40
0
 40
1
 40
1
 40
1
 40
1
 10
100.366155
 20
26.500688
 30
0.0
 10
82.305278
 20
32.017500
 30
0.0
 10
69.902137
 20
39.074678
 30
0.0
 10
57.297449
 20
51.006075
 30
0.0
  0
SPLINE
  5
1bf
100
AcDbEntity
  8
0
 62
7
100
AcDbSpline
 70
8
 71
3
 72
8
 73
4
 74
0
 40
0
 40
0
 40
0
 40
0
 40
1
 40
1
 40
1
 40
1
 10
57.297449
 20
51.006075
 30
0.0
 10
43.201282
 20
64.349273
 30
0.0
 10
33.036494
 20
83.455650
 30
0.0
 10
28.808579
 20
104.555543
 30
0.0
  0
SPLINE
  5
1c0
100
AcDbEntity
  8
0
 62
7
100
AcDbSpline
 70
8
 71
3
 72
8
 73
4
 74
0
 40
0
 40
0
 40
0
 40
0
 40
1
 40
1
 40
1
 40
1
 10
28.808579
 20
104.555543
 30
0.0
 10
27.097342
 20
113.095680
 30
0.0
 10
25.821629
 20
134.886015
 30
0.0
 10
26.965889
 20
136.030282
 30
0.0
  0
SPLINE
  5
1c1
100
AcDbEntity
  8
0
 62
7
100
AcDbSpline
 70
8
 71
3
 72
8
 73
4
 74
0
 40
0
 40
0
 40
0
 40
0
 40
1
 40
1
 40
1
 40
1
 10
26.965889
 20
136.030282
 30
0.0
 10
27.226994
 20
136.291388
 30
0.0
 10
29.622562
 20
136.125045
 30
0.0
 10
32.289374
 20
135.660645
 30
0.0
  0
LWPOLYLINE
  5
1c2
100
AcDbEntity
  8
0
 62
7
100
AcDbPolyline
 90
1
 70
1
 10
142.425667
 20
26.852858
 30
0.0
  0
SPLINE
  5
1c3
100
AcDbEntity
  8
0
 62
7
100
AcDbSpline
 70
8
 71
3
 72
8
 73
4
 74
0
 40
0
 40
0
 40
0
 40
0
 40
1
 40
1
 40
1
 40
1
 10
37.620592
 20
123.435907
 30
0.0
 10
38.699894
 20
97.977660
 30
0.0
 10
46.458727
 20
79.180927
 30
0.0
 10
63.134249
 20
61.625947
 30
0.0
  0
SPLINE
  5
1c4
100
AcDbEntity
  8
0
 62
7
100
AcDbSpline
 70
8
 71
3
 72
8
 73
4
 74
0
 40
0
 40
0
 40
0
 40
0
 40
1
 40
1
 40
1
 40
1
 10
63.134249
 20
61.625947
 30
0.0
 10
69.955072
 20
54.445388
 30
0.0
 10
75.013072
 20
50.711707
 30
0.0
 10
85.849320
 20
44.858280
 30
0.0
  0
SPLINE
  5
1c5
100
AcDbEntity
  8
0
 62
7
100
AcDbSpline
 70
8
 71
3
 72
8
 73
4
 74
0
 40
0
 40
0
 40
0
 40
0
 40
1
 40
1
 40
1
 40
1
 10
85.849320
 20
44.858280
 30
0.0
 10
93.447060
 20
40.754190
 30
0.0
 10
95.749687
 20
39.038415
 30
0.0
 10
101.678303
 20
33.063472
 30
0.0
  0
SPLINE
  5
1c6
100
AcDbEntity
  8
0
 62
7
100
AcDbSpline
 70
8
 71
3
 72
8
 73
4
 74
0
 40
0
 40
0
 40
0
 40
0
 40
1
 40
1
 40
1
 40
1
 10
101.678303
 20
33.063472
 30
0.0
 10
105.494123
 20
29.217825
 30
0.0
 10
108.616155
 20
25.758450
 30
0.0
 10
108.616155
 20
25.375972
 30
0.0
  0
SPLINE
  5
1c7
100
AcDbEntity
  8
0
 62
7
100
AcDbSpline
 70
8
 71
3
 72
8
 73
4
 74
0
 40
0
 40
0
 40
0
 40
0
 40
1
 40
1
 40
1
 40
1
 10
108.616155
 20
25.375972
 30
0.0
 10
108.616155
 20
24.327000
 30
0.0
 10
106.568415
 20
24.606172
 30
0.0
 10
100.366155
 20
26.500687
 30
0.0
  0
LWPOLYLINE
  5
1c8
100
AcDbEntity
  8
0
 62
7
100
AcDbPolyline
 90
3
 70
0
 10
32.289374
 20
135.660645
 30
0.0
 10
37.138124
 20
134.816272
 30
0.0
 10
37.620592
 20
123.435907
 30
0.0
  0
SPLINE
  5
1c9
100
AcDbEntity
  8
0
 62
7
100
AcDbSpline
 70
8
 71
3
 72
8
 73
4
 74
0
 40
0
 40
0
 40
0
 40
0
 40
1
 40
1
 40
1
 40
1
 10
99.982620
 20
31.776773
 30
0.0
 10
96.309255
 20
36.076493
 30
0.0
 10
91.513598
 20
39.596498
 30
0.0
 10
84.616155
 20
43.055730
 30
0.0
  0
SPLINE
  5
1ca
100
AcDbEntity
  8
0
 62
7
100
AcDbSpline
 70
8
 71
3
 72
8
 73
4
 74
0
 40
0
 40
0
 40
0
 40
0
 40
1
 40
1
 40
1
 40
1
 10
84.616155
 20
43.055730
 30
0.0
 10
76.252657
 20
47.250233
 30
0.0
 10
69.806812
 20
52.025115
 30
0.0
 10
62.489024
 20
59.446853
 30
0.0
  0
SPLINE
  5
1cb
100
AcDbEntity
  8
0
 62
7
100
AcDbSpline
 70
8
 71
3
 72
8
 73
4
 74
0
 40
0
 40
0
 40
0
 40
0
 40
1
 40
1
 40
1
 40
1
 10
62.489024
 20
59.446853
 30
0.0
 10
44.757584
 20
77.430165
 30
0.0
 10
35.957339
 20
98.647733
 30
0.0
 10
35.614289
 20
124.242413
 30
0.0
  0
LWPOLYLINE
  5
1cc
100
AcDbEntity
  8
0
 62
7
100
AcDbPolyline
 90
1
 70
1
 10
100.366155
 20
26.500687
 30
0.0
  0
SPLINE
  5
1cd
100
AcDbEntity
  8
0
 62
7
100
AcDbSpline
 70
8
 71
3
 72
8
 73
4
 74
0
 40
0
 40
0
 40
0
 40
0
 40
1
 40
1
 40
1
 40
1
 10
33.616154
 20
133.440158
 30
0.0
 10
32.584904
 20
133.446158
 30
0.0
 10
30.981779
 20
133.654538
 30
0.0
 10
30.053654
 20
133.903268
 30
0.0
  0
SPLINE
  5
1ce
100
AcDbEntity
  8
0
 62
7
100
AcDbSpline
 70
8
 71
3
 72
8
 73
4
 74
0
 40
0
 40
0
 40
0
 40
0
 40
1
 40
1
 40
1
 40
1
 10
30.053654
 20
133.903268
 30
0.0
 10
28.418729
 20
134.341410
 30
0.0
 10
28.366154
 20
134.188268
 30
0.0
 10
28.366154
 20
128.988465
 30
0.0
  0
SPLINE
  5
1cf
100
AcDbEntity
  8
0
 62
7
100
AcDbSpline
 70
8
 71
3
 72
8
 73
4
 74
0
 40
0
 40
0
 40
0
 40
0
 40
1
 40
1
 40
1
 40
1
 10
28.366154
 20
128.988465
 30
0.0
 10
28.366154
 20
116.596763
 30
0.0
 10
31.276064
 20
99.597900
 30
0.0
 10
35.237437
 20
88.848428
 30
0.0
  0
SPLINE
  5
1d0
100
AcDbEntity
  8
0
 62
7
100
AcDbSpline
 70
8
 71
3
 72
8
 73
4
 74
0
 40
0
 40
0
 40
0
 40
0
 40
1
 40
1
 40
1
 40
1
 10
35.237437
 20
88.848428
 30
0.0
 10
45.567869
 20
60.816053
 30
0.0
 10
67.459919
 20
39.744705
 30
0.0
 10
96.456338
 20
29.924558
 30
0.0
  0
SPLINE
  5
1d1
100
AcDbEntity
  8
0
 62
7
100
AcDbSpline
 70
8
 71
3
 72
8
 73
4
 74
0
 40
0
 40
0
 40
0
 40
0
 40
1
 40
1
 40
1
 40
1
 10
96.456338
 20
29.924558
 30
0.0
 10
100.050488
 20
28.707338
 30
0.0
 10
103.101630
 20
27.704483
 30
0.0
 10
103.236645
 20
27.695993
 30
0.0
  0
SPLINE
  5
1d2
100
AcDbEntity
  8
0
 62
7
100
AcDbSpline
 70
8
 71
3
 72
8
 73
4
 74
0
 40
0
 40
0
 40
0
 40
0
 40
1
 40
1
 40
1
 40
1
 10
103.236645
 20
27.695993
 30
0.0
 10
103.371668
 20
27.687518
 30
0.0
 10
101.907360
 20
29.523855
 30
0.0
 10
99.982620
 20
31.776780
 30
0.0
  0
LWPOLYLINE
  5
1d3
100
AcDbEntity
  8
0
 62
7
100
AcDbPolyline
 90
3
 70
0
 10
35.614289
 20
124.242413
 30
0.0
 10
35.491154
 20
133.429283
 30
0.0
 10
33.616154
 20
133.440158
 30
0.0
  0
SPLINE
  5
1d4
100
AcDbEntity
  8
0
 62
7
100
AcDbSpline
 70
8
 71
3
 72
8
 73
4
 74
0
 40
0
 40
0
 40
0
 40
0
 40
1
 40
1
 40
1
 40
1
 10
153.616155
 20
26.856233
 30
0.0
 10
153.616155
 20
27.640358
 30
0.0
 10
155.080658
 20
30.255983
 30
0.0
 10
156.870608
 20
32.668733
 30
0.0
  0
SPLINE
  5
1d5
100
AcDbEntity
  8
0
 62
7
100
AcDbSpline
 70
8
 71
3
 72
8
 73
4
 74
0
 40
0
 40
0
 40
0
 40
0
 40
1
 40
1
 40
1
 40
1
 10
156.870608
 20
32.668733
 30
0.0
 10
158.660557
 20
35.081475
 30
0.0
 10
160.332915
 20
37.634295
 30
0.0
 10
160.586948
 20
38.341665
 30
0.0
  0
SPLINE
  5
1d6
100
AcDbEntity
  8
0
 62
7
100
AcDbSpline
 70
8
 71
3
 72
8
 73
4
 74
0
 40
0
 40
0
 40
0
 40
0
 40
1
 40
1
 40
1
 40
1
 10
160.586948
 20
38.341665
 30
0.0
 10
160.840987
 20
39.049028
 30
0.0
 10
163.510852
 20
40.857540
 30
0.0
 10
166.519995
 20
42.360578
 30
0.0
  0
SPLINE
  5
1d7
100
AcDbEntity
  8
0
 62
7
100
AcDbSpline
 70
8
 71
3
 72
8
 73
4
 74
0
 40
0
 40
0
 40
0
 40
0
 40
1
 40
1
 40
1
 40
1
 10
166.519995
 20
42.360578
 30
0.0
 10
200.950890
 20
59.558528
 30
0.0
 10
218.866155
 20
89.352135
 30
0.0
 10
218.866155
 20
129.413775
 30
0.0
  0
LWPOLYLINE
  5
1d8
100
AcDbEntity
  8
0
 62
7
100
AcDbPolyline
 90
1
 70
1
 10
99.982620
 20
31.776780
 30
0.0
  0
SPLINE
  5
1d9
100
AcDbEntity
  8
0
 62
7
100
AcDbSpline
 70
8
 71
3
 72
8
 73
4
 74
0
 40
0
 40
0
 40
0
 40
0
 40
1
 40
1
 40
1
 40
1
 10
220.928655
 20
137.455808
 30
0.0
 10
222.063030
 20
137.672753
 30
0.0
 10
224.376000
 20
138.058365
 30
0.0
 10
226.068585
 20
138.312720
 30
0.0
  0
LWPOLYLINE
  5
1da
100
AcDbEntity
  8
0
 62
7
100
AcDbPolyline
 90
3
 70
0
 10
218.866155
 20
129.413775
 30
0.0
 10
218.866155
 20
137.061360
 30
0.0
 10
220.928655
 20
137.455808
 30
0.0
  0
SPLINE
  5
1db
100
AcDbEntity
  8
0
 62
7
100
AcDbSpline
 70
8
 71
3
 72
8
 73
4
 74
0
 40
0
 40
0
 40
0
 40
0
 40
1
 40
1
 40
1
 40
1
 10
229.571430
 20
135.165368
 30
0.0
 10
230.235765
 20
129.528233
 30
0.0
 10
228.892538
 20
112.117298
 30
0.0
 10
227.123138
 20
103.430543
 30
0.0
  0
SPLINE
  5
1dc
100
AcDbEntity
  8
0
 62
7
100
AcDbSpline
 70
8
 71
3
 72
8
 73
4
 74
0
 40
0
 40
0
 40
0
 40
0
 40
1
 40
1
 40
1
 40
1
 10
227.123138
 20
103.430543
 30
0.0
 10
222.842708
 20
82.416023
 30
0.0
 10
214.805048
 20
67.113240
 30
0.0
 10
200.507970
 20
52.758315
 30
0.0
  0
SPLINE
  5
1dd
100
AcDbEntity
  8
0
 62
7
100
AcDbSpline
 70
8
 71
3
 72
8
 73
4
 74
0
 40
0
 40
0
 40
0
 40
0
 40
1
 40
1
 40
1
 40
1
 10
200.507970
 20
52.758315
 30
0.0
 10
189.776138
 20
41.983058
 30
0.0
 10
178.299420
 20
34.593908
 30
0.0
 10
162.232973
 20
28.115385
 30
0.0
  0
SPLINE
  5
1de
100
AcDbEntity
  8
0
 62
7
100
AcDbSpline
 70
8
 71
3
 72
8
 73
4
 74
0
 40
0
 40
0
 40
0
 40
0
 40
1
 40
1
 40
1
 40
1
 10
162.232973
 20
28.115385
 30
0.0
 10
154.592678
 20
25.034573
 30
0.0
 10
153.616155
 20
24.891878
 30
0.0
 10
153.616155
 20
26.856233
 30
0.0
  0
LWPOLYLINE
  5
1df
100
AcDbEntity
  8
0
 62
7
100
AcDbPolyline
 90
3
 70
0
 10
226.068585
 20
138.312720
 30
0.0
 10
229.146008
 20
138.775193
 30
0.0
 10
229.571430
 20
135.165368
 30
0.0
  0
SPLINE
  5
1e0
100
AcDbEntity
  8
0
 62
7
100
AcDbSpline
 70
8
 71
3
 72
8
 73
4
 74
0
 40
0
 40
0
 40
0
 40
0
 40
1
 40
1
 40
1
 40
1
 10
164.491155
 20
31.246620
 30
0.0
 10
176.154323
 20
35.891093
 30
0.0
 10
189.421177
 20
44.698673
 30
0.0
 10
198.632542
 20
53.912355
 30
0.0
  0
SPLINE
  5
1e1
100
AcDbEntity
  8
0
 62
7
100
AcDbSpline
 70
8
 71
3
 72
8
 73
4
 74
0
 40
0
 40
0
 40
0
 40
0
 40
1
 40
1
 40
1
 40
1
 10
198.632542
 20
53.912355
 30
0.0
 10
217.440150
 20
72.724688
 30
0.0
 10
226.219395
 20
94.513860
 30
0.0
 10
227.625638
 20
125.870198
 30
0.0
  0
SPLINE
  5
1e2
100
AcDbEntity
  8
0
 62
7
100
AcDbSpline
 70
8
 71
3
 72
8
 73
4
 74
0
 40
0
 40
0
 40
0
 40
0
 40
1
 40
1
 40
1
 40
1
 10
227.625638
 20
125.870198
 30
0.0
 10
228.078150
 20
135.960218
 30
0.0
 10
228.022965
 20
136.651200
 30
0.0
 10
226.802063
 20
136.182698
 30
0.0
  0
SPLINE
  5
1e3
100
AcDbEntity
  8
0
 62
7
100
AcDbSpline
 70
8
 71
3
 72
8
 73
4
 74
0
 40
0
 40
0
 40
0
 40
0
 40
1
 40
1
 40
1
 40
1
 10
226.802063
 20
136.182698
 30
0.0
 10
226.082340
 20
135.906510
 30
0.0
 10
224.295938
 20
135.680543
 30
0.0
 10
222.832275
 20
135.680543
 30
0.0
  0
LWPOLYLINE
  5
1e4
100
AcDbEntity
  8
0
 62
7
100
AcDbPolyline
 90
1
 70
1
 10
153.616155
 20
26.856233
 30
0.0
  0
SPLINE
  5
1e5
100
AcDbEntity
  8
0
 62
7
100
AcDbSpline
 70
8
 71
3
 72
8
 73
4
 74
0
 40
0
 40
0
 40
0
 40
0
 40
1
 40
1
 40
1
 40
1
 10
220.576538
 20
132.118043
 30
0.0
 10
221.161575
 20
126.977715
 30
0.0
 10
219.818243
 20
111.047198
 30
0.0
 10
218.158485
 20
103.442460
 30
0.0
  0
SPLINE
  5
1e6
100
AcDbEntity
  8
0
 62
7
100
AcDbSpline
 70
8
 71
3
 72
8
 73
4
 74
0
 40
0
 40
0
 40
0
 40
0
 40
1
 40
1
 40
1
 40
1
 10
218.158485
 20
103.442460
 30
0.0
 10
214.053728
 20
84.635153
 30
0.0
 10
203.800140
 20
67.043633
 30
0.0
 10
190.210328
 20
55.493318
 30
0.0
  0
SPLINE
  5
1e7
100
AcDbEntity
  8
0
 62
7
100
AcDbSpline
 70
8
 71
3
 72
8
 73
4
 74
0
 40
0
 40
0
 40
0
 40
0
 40
1
 40
1
 40
1
 40
1
 10
190.210328
 20
55.493318
 30
0.0
 10
183.431835
 20
49.732118
 30
0.0
 10
178.580663
 20
46.480553
 30
0.0
 10
170.008125
 20
41.952525
 30
0.0
  0
SPLINE
  5
1e8
100
AcDbEntity
  8
0
 62
7
100
AcDbSpline
 70
8
 71
3
 72
8
 73
4
 74
0
 40
0
 40
0
 40
0
 40
0
 40
1
 40
1
 40
1
 40
1
 10
170.008125
 20
41.952525
 30
0.0
 10
164.759940
 20
39.180428
 30
0.0
 10
162.869775
 20
37.722938
 30
0.0
 10
161.143785
 20
35.117333
 30
0.0
  0
SPLINE
  5
1e9
100
AcDbEntity
  8
0
 62
7
100
AcDbSpline
 70
8
 71
3
 72
8
 73
4
 74
0
 40
0
 40
0
 40
0
 40
0
 40
1
 40
1
 40
1
 40
1
 10
161.143785
 20
35.117333
 30
0.0
 10
159.937215
 20
33.295845
 30
0.0
 10
158.210940
 20
30.853995
 30
0.0
 10
157.307625
 20
29.691000
 30
0.0
  0
LWPOLYLINE
  5
1ea
100
AcDbEntity
  8
0
 62
7
100
AcDbPolyline
 90
3
 70
0
 10
222.832275
 20
135.680543
 30
0.0
 10
220.171080
 20
135.680543
 30
0.0
 10
220.576538
 20
132.118043
 30
0.0
  0
SPLINE
  5
1eb
100
AcDbEntity
  8
0
 62
7
100
AcDbSpline
 70
8
 71
3
 72
8
 73
4
 74
0
 40
0
 40
0
 40
0
 40
0
 40
1
 40
1
 40
1
 40
1
 10
158.578193
 20
28.814213
 30
0.0
 10
160.180320
 20
29.494973
 30
0.0
 10
162.841155
 20
30.589560
 30
0.0
 10
164.491155
 20
31.246620
 30
0.0
  0
LWPOLYLINE
  5
1ec
100
AcDbEntity
  8
0
 62
7
100
AcDbPolyline
 90
3
 70
0
 10
157.307625
 20
29.691000
 30
0.0
 10
155.665223
 20
27.576458
 30
0.0
 10
158.578193
 20
28.814213
 30
0.0
  0
SPLINE
  5
1ed
100
AcDbEntity
  8
0
 62
7
100
AcDbSpline
 70
8
 71
3
 72
8
 73
4
 74
0
 40
0
 40
0
 40
0
 40
0
 40
1
 40
1
 40
1
 40
1
 10
121.897492
 20
45.868043
 30
0.0
 10
122.821305
 20
53.764253
 30
0.0
 10
122.606040
 20
53.527403
 30
0.0
 10
129.083280
 20
53.774190
 30
0.0
  0
SPLINE
  5
1ee
100
AcDbEntity
  8
0
 62
7
100
AcDbSpline
 70
8
 71
3
 72
8
 73
4
 74
0
 40
0
 40
0
 40
0
 40
0
 40
1
 40
1
 40
1
 40
1
 10
129.083280
 20
53.774190
 30
0.0
 10
135.597660
 20
54.022403
 30
0.0
 10
135.124905
 20
54.540878
 30
0.0
 10
135.950295
 20
46.243043
 30
0.0
  0
LWPOLYLINE
  5
1ef
100
AcDbEntity
  8
0
 62
7
100
AcDbPolyline
 90
1
 70
1
 10
164.491155
 20
31.246620
 30
0.0
  0
SPLINE
  5
1f0
100
AcDbEntity
  8
0
 62
7
100
AcDbSpline
 70
8
 71
3
 72
8
 73
4
 74
0
 40
0
 40
0
 40
0
 40
0
 40
1
 40
1
 40
1
 40
1
 10
134.105917
 20
45.868043
 30
0.0
 10
134.083567
 20
51.187193
 30
0.0
 10
133.631407
 20
51.680543
 30
0.0
 10
128.778683
 20
51.680543
 30
0.0
  0
LWPOLYLINE
  5
1f1
100
AcDbEntity
  8
0
 62
7
100
AcDbPolyline
 90
5
 70
0
 10
135.950295
 20
46.243043
 30
0.0
 10
136.379257
 20
41.930543
 30
0.0
 10
128.908042
 20
41.930543
 30
0.0
 10
121.436827
 20
41.930543
 30
0.0
 10
121.897492
 20
45.868043
 30
0.0
  0
SPLINE
  5
1f2
100
AcDbEntity
  8
0
 62
7
100
AcDbSpline
 70
8
 71
3
 72
8
 73
4
 74
0
 40
0
 40
0
 40
0
 40
0
 40
1
 40
1
 40
1
 40
1
 10
124.366155
 20
48.741885
 30
0.0
 10
124.366155
 20
47.125620
 30
0.0
 10
124.161300
 20
45.269370
 30
0.0
 10
123.910912
 20
44.616885
 30
0.0
  0
SPLINE
  5
1f3
100
AcDbEntity
  8
0
 62
7
100
AcDbSpline
 70
8
 71
3
 72
8
 73
4
 74
0
 40
0
 40
0
 40
0
 40
0
 40
1
 40
1
 40
1
 40
1
 10
123.910912
 20
44.616885
 30
0.0
 10
123.522112
 20
43.603673
 30
0.0
 10
124.233562
 20
43.430543
 30
0.0
 10
128.785912
 20
43.430543
 30
0.0
  0
LWPOLYLINE
  5
1f4
100
AcDbEntity
  8
0
 62
7
100
AcDbPolyline
 90
3
 70
0
 10
128.778683
 20
51.680543
 30
0.0
 10
124.366155
 20
51.680543
 30
0.0
 10
124.366155
 20
48.741885
 30
0.0
  0
SPLINE
  5
1f5
100
AcDbEntity
  8
0
 62
7
100
AcDbSpline
 70
8
 71
3
 72
8
 73
4
 74
0
 40
0
 40
0
 40
0
 40
0
 40
1
 40
1
 40
1
 40
1
 10
112.366155
 20
43.577130
 30
0.0
 10
110.509905
 20
43.981905
 30
0.0
 10
108.706875
 20
44.584418
 30
0.0
 10
108.359415
 20
44.916053
 30
0.0
  0
SPLINE
  5
1f6
100
AcDbEntity
  8
0
 62
7
100
AcDbSpline
 70
8
 71
3
 72
8
 73
4
 74
0
 40
0
 40
0
 40
0
 40
0
 40
1
 40
1
 40
1
 40
1
 10
108.359415
 20
44.916053
 30
0.0
 10
108.011962
 20
45.247688
 30
0.0
 10
108.310740
 20
47.917860
 30
0.0
 10
109.023322
 20
50.849783
 30
0.0
  0
SPLINE
  5
1f7
100
AcDbEntity
  8
0
 62
7
100
AcDbSpline
 70
8
 71
3
 72
8
 73
4
 74
0
 40
0
 40
0
 40
0
 40
0
 40
1
 40
1
 40
1
 40
1
 10
109.023322
 20
50.849783
 30
0.0
 10
110.478022
 20
56.834978
 30
0.0
 10
110.535420
 20
56.866088
 30
0.0
 10
116.730030
 20
55.026488
 30
0.0
  0
LWPOLYLINE
  5
1f8
100
AcDbEntity
  8
0
 62
7
100
AcDbPolyline
 90
4
 70
0
 10
128.785912
 20
43.430543
 30
0.0
 10
134.116155
 20
43.430543
 30
0.0
 10
134.105880
 20
45.868043
 30
0.0
 10
134.105917
 20
45.868043
 30
0.0
  0
SPLINE
  5
1f9
100
AcDbEntity
  8
0
 62
7
100
AcDbSpline
 70
8
 71
3
 72
8
 73
4
 74
0
 40
0
 40
0
 40
0
 40
0
 40
1
 40
1
 40
1
 40
1
 10
120.605880
 20
49.963988
 30
0.0
 10
120.599880
 20
47.814345
 30
0.0
 10
120.392130
 20
45.296168
 30
0.0
 10
120.143400
 20
44.368043
 30
0.0
  0
SPLINE
  5
1fa
100
AcDbEntity
  8
0
 62
7
100
AcDbSpline
 70
8
 71
3
 72
8
 73
4
 74
0
 40
0
 40
0
 40
0
 40
0
 40
1
 40
1
 40
1
 40
1
 10
120.143400
 20
44.368043
 30
0.0
 10
119.638387
 20
42.483593
 30
0.0
 10
118.098937
 20
42.327038
 30
0.0
 10
112.366117
 20
43.577130
 30
0.0
  0
LWPOLYLINE
  5
1fb
100
AcDbEntity
  8
0
 62
7
100
AcDbPolyline
 90
3
 70
0
 10
116.730030
 20
55.026488
 30
0.0
 10
120.616155
 20
53.872433
 30
0.0
 10
120.605880
 20
49.963988
 30
0.0
  0
SPLINE
  5
1fc
100
AcDbEntity
  8
0
 62
7
100
AcDbSpline
 70
8
 71
3
 72
8
 73
4
 74
0
 40
0
 40
0
 40
0
 40
0
 40
1
 40
1
 40
1
 40
1
 10
118.481272
 20
48.689978
 30
0.0
 10
118.758870
 20
52.705725
 30
0.0
 10
118.859865
 20
52.593165
 30
0.0
 10
114.126930
 20
53.543048
 30
0.0
  0
SPLINE
  5
1fd
100
AcDbEntity
  8
0
 62
7
100
AcDbSpline
 70
8
 71
3
 72
8
 73
4
 74
0
 40
0
 40
0
 40
0
 40
0
 40
1
 40
1
 40
1
 40
1
 10
114.126930
 20
53.543048
 30
0.0
 10
111.829132
 20
54.004208
 30
0.0
 10
111.745545
 20
53.926755
 30
0.0
 10
111.152227
 20
50.786543
 30
0.0
  0
SPLINE
  5
1fe
100
AcDbEntity
  8
0
 62
7
100
AcDbSpline
 70
8
 71
3
 72
8
 73
4
 74
0
 40
0
 40
0
 40
0
 40
0
 40
1
 40
1
 40
1
 40
1
 10
111.152227
 20
50.786543
 30
0.0
 10
110.816475
 20
49.009493
 30
0.0
 10
110.530372
 20
47.233260
 30
0.0
 10
110.516460
 20
46.839353
 30
0.0
  0
SPLINE
  5
1ff
100
AcDbEntity
  8
0
 62
7
100
AcDbSpline
 70
8
 71
3
 72
8
 73
4
 74
0
 40
0
 40
0
 40
0
 40
0
 40
1
 40
1
 40
1
 40
1
 10
110.516460
 20
46.839353
 30
0.0
 10
110.487510
 20
46.019790
 30
0.0
 10
113.306197
 20
45.115185
 30
0.0
 10
116.231272
 20
45.005303
 30
0.0
  0
SPLINE
  5
200
100
AcDbEntity
  8
0
 62
7
100
AcDbSpline
 70
8
 71
3
 72
8
 73
4
 74
0
 40
0
 40
0
 40
0
 40
0
 40
1
 40
1
 40
1
 40
1
 10
116.231272
 20
45.005303
 30
0.0
 10
118.097497
 20
44.935178
 30
0.0
 10
118.237560
 20
45.164573
 30
0.0
 10
118.481272
 20
48.689978
 30
0.0
  0
LWPOLYLINE
  5
201
100
AcDbEntity
  8
0
 62
7
100
AcDbPolyline
 90
1
 70
1
 10
112.366117
 20
43.577130
 30
0.0
  0
SPLINE
  5
202
100
AcDbEntity
  8
0
 62
7
100
AcDbSpline
 70
8
 71
3
 72
8
 73
4
 74
0
 40
0
 40
0
 40
0
 40
0
 40
1
 40
1
 40
1
 40
1
 10
138.321397
 20
43.866885
 30
0.0
 10
138.071010
 20
44.519370
 30
0.0
 10
137.866155
 20
47.186235
 30
0.0
 10
137.866155
 20
49.793243
 30
0.0
  0
LWPOLYLINE
  5
203
100
AcDbEntity
  8
0
 62
7
100
AcDbPolyline
 90
1
 70
1
 10
118.481272
 20
48.689978
 30
0.0
  0
SPLINE
  5
204
100
AcDbEntity
  8
0
 62
7
100
AcDbSpline
 70
8
 71
3
 72
8
 73
4
 74
0
 40
0
 40
0
 40
0
 40
0
 40
1
 40
1
 40
1
 40
1
 10
142.434577
 20
55.063485
 30
0.0
 10
144.947205
 20
55.355108
 30
0.0
 10
147.256297
 20
55.303868
 30
0.0
 10
147.565890
 20
54.949620
 30
0.0
  0
SPLINE
  5
205
100
AcDbEntity
  8
0
 62
7
100
AcDbSpline
 70
8
 71
3
 72
8
 73
4
 74
0
 40
0
 40
0
 40
0
 40
0
 40
1
 40
1
 40
1
 40
1
 10
147.565890
 20
54.949620
 30
0.0
 10
148.536607
 20
53.838900
 30
0.0
 10
150.040440
 20
45.550403
 30
0.0
 10
149.375040
 20
44.978355
 30
0.0
  0
SPLINE
  5
206
100
AcDbEntity
  8
0
 62
7
100
AcDbSpline
 70
8
 71
3
 72
8
 73
4
 74
0
 40
0
 40
0
 40
0
 40
0
 40
1
 40
1
 40
1
 40
1
 10
149.375040
 20
44.978355
 30
0.0
 10
148.420620
 20
44.157848
 30
0.0
 10
142.825215
 20
42.680543
 30
0.0
 10
140.671882
 20
42.680543
 30
0.0
  0
SPLINE
  5
207
100
AcDbEntity
  8
0
 62
7
100
AcDbSpline
 70
8
 71
3
 72
8
 73
4
 74
0
 40
0
 40
0
 40
0
 40
0
 40
1
 40
1
 40
1
 40
1
 10
140.671882
 20
42.680543
 30
0.0
 10
139.629495
 20
42.680543
 30
0.0
 10
138.571777
 20
43.214393
 30
0.0
 10
138.321397
 20
43.866885
 30
0.0
  0
LWPOLYLINE
  5
208
100
AcDbEntity
  8
0
 62
7
100
AcDbPolyline
 90
3
 70
0
 10
137.866155
 20
49.793243
 30
0.0
 10
137.866155
 20
54.533265
 30
0.0
 10
142.434577
 20
55.063485
 30
0.0
  0
SPLINE
  5
209
100
AcDbEntity
  8
0
 62
7
100
AcDbSpline
 70
8
 71
3
 72
8
 73
4
 74
0
 40
0
 40
0
 40
0
 40
0
 40
1
 40
1
 40
1
 40
1
 10
145.928655
 20
45.771803
 30
0.0
 10
147.895170
 20
46.496198
 30
0.0
 10
147.860617
 20
46.295453
 30
0.0
 10
146.766540
 20
50.640443
 30
0.0
  0
SPLINE
  5
20a
100
AcDbEntity
  8
0
 62
7
100
AcDbSpline
 70
8
 71
3
 72
8
 73
4
 74
0
 40
0
 40
0
 40
0
 40
0
 40
1
 40
1
 40
1
 40
1
 10
146.766540
 20
50.640443
 30
0.0
 10
146.150692
 20
53.086193
 30
0.0
 10
145.617915
 20
53.899830
 30
0.0
 10
144.830197
 20
53.597558
 30
0.0
  0
SPLINE
  5
20b
100
AcDbEntity
  8
0
 62
7
100
AcDbSpline
 70
8
 71
3
 72
8
 73
4
 74
0
 40
0
 40
0
 40
0
 40
0
 40
1
 40
1
 40
1
 40
1
 10
144.830197
 20
53.597558
 30
0.0
 10
144.232500
 20
53.368200
 30
0.0
 10
142.758577
 20
53.180543
 30
0.0
 10
141.554812
 20
53.180543
 30
0.0
  0
SPLINE
  5
20c
100
AcDbEntity
  8
0
 62
7
100
AcDbSpline
 70
8
 71
3
 72
8
 73
4
 74
0
 40
0
 40
0
 40
0
 40
0
 40
1
 40
1
 40
1
 40
1
 10
141.554812
 20
53.180543
 30
0.0
 10
139.644120
 20
53.180543
 30
0.0
 10
139.366155
 20
52.906695
 30
0.0
 10
139.366155
 20
51.024293
 30
0.0
  0
SPLINE
  5
20d
100
AcDbEntity
  8
0
 62
7
100
AcDbSpline
 70
8
 71
3
 72
8
 73
4
 74
0
 40
0
 40
0
 40
0
 40
0
 40
1
 40
1
 40
1
 40
1
 10
139.366155
 20
51.024293
 30
0.0
 10
139.366155
 20
49.838355
 30
0.0
 10
139.576297
 20
47.817315
 30
0.0
 10
139.833142
 20
46.533090
 30
0.0
  0
SPLINE
  5
20e
100
AcDbEntity
  8
0
 62
7
100
AcDbSpline
 70
8
 71
3
 72
8
 73
4
 74
0
 40
0
 40
0
 40
0
 40
0
 40
1
 40
1
 40
1
 40
1
 10
139.833142
 20
46.533090
 30
0.0
 10
140.326275
 20
44.067435
 30
0.0
 10
141.054817
 20
43.976445
 30
0.0
 10
145.928655
 20
45.771803
 30
0.0
  0
LWPOLYLINE
  5
20f
100
AcDbEntity
  8
0
 62
7
100
AcDbPolyline
 90
1
 70
1
 10
138.321397
 20
43.866885
 30
0.0
  0
LWPOLYLINE
  5
210
100
AcDbEntity
  8
0
 62
7
100
AcDbPolyline
 90
1
 70
1
 10
145.928655
 20
45.771803
 30
0.0
  0
SPLINE
  5
211
100
AcDbEntity
  8
0
 62
7
100
AcDbSpline
 70
8
 71
3
 72
8
 73
4
 74
0
 40
0
 40
0
 40
0
 40
0
 40
1
 40
1
 40
1
 40
1
 10
98.484345
 20
53.782575
 30
0.0
 10
98.778300
 20
56.545208
 30
0.0
 10
99.173130
 20
59.058668
 30
0.0
 10
99.361747
 20
59.368043
 30
0.0
  0
SPLINE
  5
212
100
AcDbEntity
  8
0
 62
7
100
AcDbSpline
 70
8
 71
3
 72
8
 73
4
 74
0
 40
0
 40
0
 40
0
 40
0
 40
1
 40
1
 40
1
 40
1
 10
99.361747
 20
59.368043
 30
0.0
 10
99.887520
 20
60.230445
 30
0.0
 10
101.175900
 20
60.050858
 30
0.0
 10
104.742502
 20
58.618043
 30
0.0
  0
LWPOLYLINE
  5
213
100
AcDbEntity
  8
0
 62
7
100
AcDbPolyline
 90
3
 70
0
 10
100.470517
 20
47.222880
 30
0.0
 10
97.949880
 20
48.759615
 30
0.0
 10
98.484345
 20
53.782575
 30
0.0
  0
SPLINE
  5
214
100
AcDbEntity
  8
0
 62
7
100
AcDbSpline
 70
8
 71
3
 72
8
 73
4
 74
0
 40
0
 40
0
 40
0
 40
0
 40
1
 40
1
 40
1
 40
1
 10
107.626665
 20
53.555543
 30
0.0
 10
106.825080
 20
45.706110
 30
0.0
 10
105.247815
 20
44.310353
 30
0.0
 10
100.470517
 20
47.222880
 30
0.0
  0
LWPOLYLINE
  5
215
100
AcDbEntity
  8
0
 62
7
100
AcDbPolyline
 90
3
 70
0
 10
104.742502
 20
58.618043
 30
0.0
 10
108.009615
 20
57.305543
 30
0.0
 10
107.626665
 20
53.555543
 30
0.0
  0
SPLINE
  5
216
100
AcDbEntity
  8
0
 62
7
100
AcDbSpline
 70
8
 71
3
 72
8
 73
4
 74
0
 40
0
 40
0
 40
0
 40
0
 40
1
 40
1
 40
1
 40
1
 10
105.321652
 20
52.544408
 30
0.0
 10
105.777052
 20
55.866900
 30
0.0
 10
105.719557
 20
55.997760
 30
0.0
 10
103.457985
 20
56.786145
 30
0.0
  0
SPLINE
  5
217
100
AcDbEntity
  8
0
 62
7
100
AcDbSpline
 70
8
 71
3
 72
8
 73
4
 74
0
 40
0
 40
0
 40
0
 40
0
 40
1
 40
1
 40
1
 40
1
 10
103.457985
 20
56.786145
 30
0.0
 10
101.339212
 20
57.524753
 30
0.0
 10
101.093715
 20
57.448028
 30
0.0
 10
100.790797
 20
55.952588
 30
0.0
  0
SPLINE
  5
218
100
AcDbEntity
  8
0
 62
7
100
AcDbSpline
 70
8
 71
3
 72
8
 73
4
 74
0
 40
0
 40
0
 40
0
 40
0
 40
1
 40
1
 40
1
 40
1
 10
100.790797
 20
55.952588
 30
0.0
 10
99.710032
 20
50.617110
 30
0.0
 10
99.778005
 20
50.143860
 30
0.0
 10
101.777355
 20
49.084095
 30
0.0
  0
SPLINE
  5
219
100
AcDbEntity
  8
0
 62
7
100
AcDbSpline
 70
8
 71
3
 72
8
 73
4
 74
0
 40
0
 40
0
 40
0
 40
0
 40
1
 40
1
 40
1
 40
1
 10
101.777355
 20
49.084095
 30
0.0
 10
104.237265
 20
47.780198
 30
0.0
 10
104.735287
 20
48.266430
 30
0.0
 10
105.321652
 20
52.544408
 30
0.0
  0
LWPOLYLINE
  5
21a
100
AcDbEntity
  8
0
 62
7
100
AcDbPolyline
 90
1
 70
1
 10
100.470517
 20
47.222880
 30
0.0
  0
SPLINE
  5
21b
100
AcDbEntity
  8
0
 62
7
100
AcDbSpline
 70
8
 71
3
 72
8
 73
4
 74
0
 40
0
 40
0
 40
0
 40
0
 40
1
 40
1
 40
1
 40
1
 10
151.909807
 20
46.243043
 30
0.0
 10
151.128877
 20
47.732723
 30
0.0
 10
149.703052
 20
55.422743
 30
0.0
 10
150.044265
 20
56.304630
 30
0.0
  0
SPLINE
  5
21c
100
AcDbEntity
  8
0
 62
7
100
AcDbSpline
 70
8
 71
3
 72
8
 73
4
 74
0
 40
0
 40
0
 40
0
 40
0
 40
1
 40
1
 40
1
 40
1
 10
150.044265
 20
56.304630
 30
0.0
 10
150.621622
 20
57.796868
 30
0.0
 10
157.452600
 20
60.144098
 30
0.0
 10
158.415555
 20
59.181143
 30
0.0
  0
SPLINE
  5
21d
100
AcDbEntity
  8
0
 62
7
100
AcDbSpline
 70
8
 71
3
 72
8
 73
4
 74
0
 40
0
 40
0
 40
0
 40
0
 40
1
 40
1
 40
1
 40
1
 10
158.415555
 20
59.181143
 30
0.0
 10
158.843520
 20
58.753178
 30
0.0
 10
159.323482
 20
56.105835
 30
0.0
 10
159.482130
 20
53.298165
 30
0.0
  0
LWPOLYLINE
  5
21e
100
AcDbEntity
  8
0
 62
7
100
AcDbPolyline
 90
1
 70
1
 10
105.321652
 20
52.544408
 30
0.0
  0
SPLINE
  5
21f
100
AcDbEntity
  8
0
 62
7
100
AcDbSpline
 70
8
 71
3
 72
8
 73
4
 74
0
 40
0
 40
0
 40
0
 40
0
 40
1
 40
1
 40
1
 40
1
 10
156.480795
 20
46.936920
 30
0.0
 10
152.767440
 20
45.518783
 30
0.0
 10
152.324715
 20
45.451575
 30
0.0
 10
151.909807
 20
46.243043
 30
0.0
  0
LWPOLYLINE
  5
220
100
AcDbEntity
  8
0
 62
7
100
AcDbPolyline
 90
3
 70
0
 10
159.482130
 20
53.298165
 30
0.0
 10
159.770580
 20
48.193305
 30
0.0
 10
156.480795
 20
46.936920
 30
0.0
  0
SPLINE
  5
221
100
AcDbEntity
  8
0
 62
7
100
AcDbSpline
 70
8
 71
3
 72
8
 73
4
 74
0
 40
0
 40
0
 40
0
 40
0
 40
1
 40
1
 40
1
 40
1
 10
157.366155
 20
53.675933
 30
0.0
 10
157.366155
 20
55.878465
 30
0.0
 10
157.180642
 20
57.680543
 30
0.0
 10
156.953910
 20
57.680543
 30
0.0
  0
SPLINE
  5
222
100
AcDbEntity
  8
0
 62
7
100
AcDbSpline
 70
8
 71
3
 72
8
 73
4
 74
0
 40
0
 40
0
 40
0
 40
0
 40
1
 40
1
 40
1
 40
1
 10
156.953910
 20
57.680543
 30
0.0
 10
155.828175
 20
57.680543
 30
0.0
 10
152.116155
 20
55.286753
 30
0.0
 10
152.116155
 20
54.560798
 30
0.0
  0
SPLINE
  5
223
100
AcDbEntity
  8
0
 62
7
100
AcDbSpline
 70
8
 71
3
 72
8
 73
4
 74
0
 40
0
 40
0
 40
0
 40
0
 40
1
 40
1
 40
1
 40
1
 10
152.116155
 20
54.560798
 30
0.0
 10
152.116155
 20
54.103620
 30
0.0
 10
152.498752
 20
52.452578
 30
0.0
 10
152.966370
 20
50.891798
 30
0.0
  0
SPLINE
  5
224
100
AcDbEntity
  8
0
 62
7
100
AcDbSpline
 70
8
 71
3
 72
8
 73
4
 74
0
 40
0
 40
0
 40
0
 40
0
 40
1
 40
1
 40
1
 40
1
 10
152.966370
 20
50.891798
 30
0.0
 10
153.754342
 20
48.261795
 30
0.0
 10
153.946530
 20
48.113228
 30
0.0
 10
155.591370
 20
48.862673
 30
0.0
  0
SPLINE
  5
225
100
AcDbEntity
  8
0
 62
7
100
AcDbSpline
 70
8
 71
3
 72
8
 73
4
 74
0
 40
0
 40
0
 40
0
 40
0
 40
1
 40
1
 40
1
 40
1
 10
155.591370
 20
48.862673
 30
0.0
 10
157.135192
 20
49.566083
 30
0.0
 10
157.366155
 20
50.192460
 30
0.0
 10
157.366155
 20
53.675933
 30
0.0
  0
LWPOLYLINE
  5
226
100
AcDbEntity
  8
0
 62
7
100
AcDbPolyline
 90
1
 70
1
 10
151.909807
 20
46.243043
 30
0.0
  0
LWPOLYLINE
  5
227
100
AcDbEntity
  8
0
 62
7
100
AcDbPolyline
 90
1
 70
1
 10
157.366155
 20
53.675933
 30
0.0
  0
SPLINE
  5
228
100
AcDbEntity
  8
0
 62
7
100
AcDbSpline
 70
8
 71
3
 72
8
 73
4
 74
0
 40
0
 40
0
 40
0
 40
0
 40
1
 40
1
 40
1
 40
1
 10
128.688360
 20
65.029080
 30
0.0
 10
133.884525
 20
65.276370
 30
0.0
 10
133.737847
 20
65.411805
 30
0.0
 10
134.413102
 20
59.743043
 30
0.0
  0
LWPOLYLINE
  5
229
100
AcDbEntity
  8
0
 62
7
100
AcDbPolyline
 90
3
 70
0
 10
123.766230
 20
60.493043
 30
0.0
 10
123.991155
 20
64.805543
 30
0.0
 10
128.688360
 20
65.029080
 30
0.0
  0
SPLINE
  5
22a
100
AcDbEntity
  8
0
 62
7
100
AcDbSpline
 70
8
 71
3
 72
8
 73
4
 74
0
 40
0
 40
0
 40
0
 40
0
 40
1
 40
1
 40
1
 40
1
 10
132.321397
 20
58.866885
 30
0.0
 10
132.071010
 20
59.519370
 30
0.0
 10
131.866155
 20
60.700620
 30
0.0
 10
131.866155
 20
61.491885
 30
0.0
  0
SPLINE
  5
22b
100
AcDbEntity
  8
0
 62
7
100
AcDbSpline
 70
8
 71
3
 72
8
 73
4
 74
0
 40
0
 40
0
 40
0
 40
0
 40
1
 40
1
 40
1
 40
1
 10
131.866155
 20
61.491885
 30
0.0
 10
131.866155
 20
62.670323
 30
0.0
 10
131.323515
 20
62.930543
 30
0.0
 10
128.866155
 20
62.930543
 30
0.0
  0
SPLINE
  5
22c
100
AcDbEntity
  8
0
 62
7
100
AcDbSpline
 70
8
 71
3
 72
8
 73
4
 74
0
 40
0
 40
0
 40
0
 40
0
 40
1
 40
1
 40
1
 40
1
 10
128.866155
 20
62.930543
 30
0.0
 10
125.937585
 20
62.930543
 30
0.0
 10
125.866155
 20
62.868068
 30
0.0
 10
125.866155
 20
60.305543
 30
0.0
  0
SPLINE
  5
22d
100
AcDbEntity
  8
0
 62
7
100
AcDbSpline
 70
8
 71
3
 72
8
 73
4
 74
0
 40
0
 40
0
 40
0
 40
0
 40
1
 40
1
 40
1
 40
1
 10
125.866155
 20
60.305543
 30
0.0
 10
125.866155
 20
57.685403
 30
0.0
 10
125.872905
 20
57.680543
 30
0.0
 10
129.321397
 20
57.680543
 30
0.0
  0
SPLINE
  5
22e
100
AcDbEntity
  8
0
 62
7
100
AcDbSpline
 70
8
 71
3
 72
8
 73
4
 74
0
 40
0
 40
0
 40
0
 40
0
 40
1
 40
1
 40
1
 40
1
 10
129.321397
 20
57.680543
 30
0.0
 10
132.163995
 20
57.680543
 30
0.0
 10
132.695917
 20
57.890895
 30
0.0
 10
132.321397
 20
58.866885
 30
0.0
  0
LWPOLYLINE
  5
22f
100
AcDbEntity
  8
0
 62
7
100
AcDbPolyline
 90
5
 70
0
 10
134.413102
 20
59.743043
 30
0.0
 10
134.837460
 20
56.180543
 30
0.0
 10
129.189382
 20
56.180543
 30
0.0
 10
123.541297
 20
56.180543
 30
0.0
 10
123.766230
 20
60.493043
 30
0.0
  0
SPLINE
  5
230
100
AcDbEntity
  8
0
 62
7
100
AcDbSpline
 70
8
 71
3
 72
8
 73
4
 74
0
 40
0
 40
0
 40
0
 40
0
 40
1
 40
1
 40
1
 40
1
 10
113.589360
 20
57.832020
 30
0.0
 10
111.537585
 20
58.578675
 30
0.0
 10
111.459480
 20
58.774973
 30
0.0
 10
111.909060
 20
62.055008
 30
0.0
  0
SPLINE
  5
231
100
AcDbEntity
  8
0
 62
7
100
AcDbSpline
 70
8
 71
3
 72
8
 73
4
 74
0
 40
0
 40
0
 40
0
 40
0
 40
1
 40
1
 40
1
 40
1
 10
111.909060
 20
62.055008
 30
0.0
 10
112.168380
 20
63.946973
 30
0.0
 10
112.644285
 20
65.758673
 30
0.0
 10
112.966627
 20
66.081015
 30
0.0
  0
SPLINE
  5
232
100
AcDbEntity
  8
0
 62
7
100
AcDbSpline
 70
8
 71
3
 72
8
 73
4
 74
0
 40
0
 40
0
 40
0
 40
0
 40
1
 40
1
 40
1
 40
1
 10
112.966627
 20
66.081015
 30
0.0
 10
113.288970
 20
66.403358
 30
0.0
 10
115.479480
 20
66.262950
 30
0.0
 10
117.834427
 20
65.768993
 30
0.0
  0
SPLINE
  5
233
100
AcDbEntity
  8
0
 62
7
100
AcDbSpline
 70
8
 71
3
 72
8
 73
4
 74
0
 40
0
 40
0
 40
0
 40
0
 40
1
 40
1
 40
1
 40
1
 10
117.834427
 20
65.768993
 30
0.0
 10
122.466825
 20
64.797338
 30
0.0
 10
122.679547
 20
64.435005
 30
0.0
 10
121.647405
 20
59.274293
 30
0.0
  0
SPLINE
  5
234
100
AcDbEntity
  8
0
 62
7
100
AcDbSpline
 70
8
 71
3
 72
8
 73
4
 74
0
 40
0
 40
0
 40
0
 40
0
 40
1
 40
1
 40
1
 40
1
 10
121.647405
 20
59.274293
 30
0.0
 10
121.222800
 20
57.151283
 30
0.0
 10
120.922597
 20
56.936123
 30
0.0
 10
118.459905
 20
56.989755
 30
0.0
  0
SPLINE
  5
235
100
AcDbEntity
  8
0
 62
7
100
AcDbSpline
 70
8
 71
3
 72
8
 73
4
 74
0
 40
0
 40
0
 40
0
 40
0
 40
1
 40
1
 40
1
 40
1
 10
118.459905
 20
56.989755
 30
0.0
 10
116.964592
 20
57.022305
 30
0.0
 10
114.772845
 20
57.401340
 30
0.0
 10
113.589360
 20
57.832020
 30
0.0
  0
LWPOLYLINE
  5
236
100
AcDbEntity
  8
0
 62
7
100
AcDbPolyline
 90
1
 70
1
 10
132.321397
 20
58.866885
 30
0.0
  0
SPLINE
  5
237
100
AcDbEntity
  8
0
 62
7
100
AcDbSpline
 70
8
 71
3
 72
8
 73
4
 74
0
 40
0
 40
0
 40
0
 40
0
 40
1
 40
1
 40
1
 40
1
 10
119.718375
 20
61.196228
 30
0.0
 10
119.928442
 20
63.299678
 30
0.0
 10
119.733300
 20
63.505838
 30
0.0
 10
117.132757
 20
63.927848
 30
0.0
  0
SPLINE
  5
238
100
AcDbEntity
  8
0
 62
7
100
AcDbSpline
 70
8
 71
3
 72
8
 73
4
 74
0
 40
0
 40
0
 40
0
 40
0
 40
1
 40
1
 40
1
 40
1
 10
117.132757
 20
63.927848
 30
0.0
 10
115.585695
 20
64.178903
 30
0.0
 10
114.265305
 20
64.310340
 30
0.0
 10
114.198547
 20
64.219928
 30
0.0
  0
SPLINE
  5
239
100
AcDbEntity
  8
0
 62
7
100
AcDbSpline
 70
8
 71
3
 72
8
 73
4
 74
0
 40
0
 40
0
 40
0
 40
0
 40
1
 40
1
 40
1
 40
1
 10
114.198547
 20
64.219928
 30
0.0
 10
114.131797
 20
64.129515
 30
0.0
 10
113.866372
 20
63.174683
 30
0.0
 10
113.608732
 20
62.098073
 30
0.0
  0
SPLINE
  5
23a
100
AcDbEntity
  8
0
 62
7
100
AcDbSpline
 70
8
 71
3
 72
8
 73
4
 74
0
 40
0
 40
0
 40
0
 40
0
 40
1
 40
1
 40
1
 40
1
 10
113.608732
 20
62.098073
 30
0.0
 10
113.199045
 20
60.386100
 30
0.0
 10
113.444475
 20
60.043508
 30
0.0
 10
115.565730
 20
59.366340
 30
0.0
  0
SPLINE
  5
23b
100
AcDbEntity
  8
0
 62
7
100
AcDbSpline
 70
8
 71
3
 72
8
 73
4
 74
0
 40
0
 40
0
 40
0
 40
0
 40
1
 40
1
 40
1
 40
1
 10
115.565730
 20
59.366340
 30
0.0
 10
118.881615
 20
58.307805
 30
0.0
 10
119.455147
 20
58.560540
 30
0.0
 10
119.718375
 20
61.196228
 30
0.0
  0
LWPOLYLINE
  5
23c
100
AcDbEntity
  8
0
 62
7
100
AcDbPolyline
 90
1
 70
1
 10
113.589360
 20
57.832020
 30
0.0
  0
SPLINE
  5
23d
100
AcDbEntity
  8
0
 62
7
100
AcDbSpline
 70
8
 71
3
 72
8
 73
4
 74
0
 40
0
 40
0
 40
0
 40
0
 40
1
 40
1
 40
1
 40
1
 10
136.728150
 20
58.618043
 30
0.0
 10
136.499032
 20
59.546168
 30
0.0
 10
136.239472
 20
61.272420
 30
0.0
 10
136.151362
 20
62.454158
 30
0.0
  0
SPLINE
  5
23e
100
AcDbEntity
  8
0
 62
7
100
AcDbSpline
 70
8
 71
3
 72
8
 73
4
 74
0
 40
0
 40
0
 40
0
 40
0
 40
1
 40
1
 40
1
 40
1
 10
136.151362
 20
62.454158
 30
0.0
 10
136.006785
 20
64.393193
 30
0.0
 10
136.320360
 20
64.702995
 30
0.0
 10
139.366155
 20
65.630273
 30
0.0
  0
SPLINE
  5
23f
100
AcDbEntity
  8
0
 62
7
100
AcDbSpline
 70
8
 71
3
 72
8
 73
4
 74
0
 40
0
 40
0
 40
0
 40
0
 40
1
 40
1
 40
1
 40
1
 10
139.366155
 20
65.630273
 30
0.0
 10
141.222405
 20
66.195398
 30
0.0
 10
143.108857
 20
66.662895
 30
0.0
 10
143.558265
 20
66.669158
 30
0.0
  0
SPLINE
  5
240
100
AcDbEntity
  8
0
 62
7
100
AcDbSpline
 70
8
 71
3
 72
8
 73
4
 74
0
 40
0
 40
0
 40
0
 40
0
 40
1
 40
1
 40
1
 40
1
 10
143.558265
 20
66.669158
 30
0.0
 10
144.733245
 20
66.685508
 30
0.0
 10
146.116155
 20
63.276668
 30
0.0
 10
146.116155
 20
60.364005
 30
0.0
  0
SPLINE
  5
241
100
AcDbEntity
  8
0
 62
7
100
AcDbSpline
 70
8
 71
3
 72
8
 73
4
 74
0
 40
0
 40
0
 40
0
 40
0
 40
1
 40
1
 40
1
 40
1
 10
146.116155
 20
60.364005
 30
0.0
 10
146.116155
 20
58.168530
 30
0.0
 10
145.833997
 20
57.811613
 30
0.0
 10
143.772405
 20
57.399293
 30
0.0
  0
SPLINE
  5
242
100
AcDbEntity
  8
0
 62
7
100
AcDbSpline
 70
8
 71
3
 72
8
 73
4
 74
0
 40
0
 40
0
 40
0
 40
0
 40
1
 40
1
 40
1
 40
1
 10
143.772405
 20
57.399293
 30
0.0
 10
139.140712
 20
56.472953
 30
0.0
 10
137.173680
 20
56.813273
 30
0.0
 10
136.728150
 20
58.618043
 30
0.0
  0
LWPOLYLINE
  5
243
100
AcDbEntity
  8
0
 62
7
100
AcDbPolyline
 90
1
 70
1
 10
119.718375
 20
61.196228
 30
0.0
  0
SPLINE
  5
244
100
AcDbEntity
  8
0
 62
7
100
AcDbSpline
 70
8
 71
3
 72
8
 73
4
 74
0
 40
0
 40
0
 40
0
 40
0
 40
1
 40
1
 40
1
 40
1
 10
144.403852
 20
59.505240
 30
0.0
 10
144.493342
 20
59.574390
 30
0.0
 10
144.295095
 20
60.626475
 30
0.0
 10
143.963310
 20
61.843245
 30
0.0
  0
SPLINE
  5
245
100
AcDbEntity
  8
0
 62
7
100
AcDbSpline
 70
8
 71
3
 72
8
 73
4
 74
0
 40
0
 40
0
 40
0
 40
0
 40
1
 40
1
 40
1
 40
1
 10
143.963310
 20
61.843245
 30
0.0
 10
143.424345
 20
63.819803
 30
0.0
 10
143.087340
 20
64.028153
 30
0.0
 10
140.800612
 20
63.798525
 30
0.0
  0
SPLINE
  5
246
100
AcDbEntity
  8
0
 62
7
100
AcDbSpline
 70
8
 71
3
 72
8
 73
4
 74
0
 40
0
 40
0
 40
0
 40
0
 40
1
 40
1
 40
1
 40
1
 10
140.800612
 20
63.798525
 30
0.0
 10
137.592930
 20
63.476415
 30
0.0
 10
137.619945
 20
63.508898
 30
0.0
 10
138.234187
 20
60.712268
 30
0.0
  0
SPLINE
  5
247
100
AcDbEntity
  8
0
 62
7
100
AcDbSpline
 70
8
 71
3
 72
8
 73
4
 74
0
 40
0
 40
0
 40
0
 40
0
 40
1
 40
1
 40
1
 40
1
 10
138.234187
 20
60.712268
 30
0.0
 10
138.719647
 20
58.501965
 30
0.0
 10
138.881122
 20
58.411335
 30
0.0
 10
141.493057
 20
58.883138
 30
0.0
  0
SPLINE
  5
248
100
AcDbEntity
  8
0
 62
7
100
AcDbSpline
 70
8
 71
3
 72
8
 73
4
 74
0
 40
0
 40
0
 40
0
 40
0
 40
1
 40
1
 40
1
 40
1
 10
141.493057
 20
58.883138
 30
0.0
 10
143.004510
 20
59.156153
 30
0.0
 10
144.314370
 20
59.436098
 30
0.0
 10
144.403852
 20
59.505240
 30
0.0
  0
LWPOLYLINE
  5
249
100
AcDbEntity
  8
0
 62
7
100
AcDbPolyline
 90
1
 70
1
 10
136.728150
 20
58.618043
 30
0.0
  0
SPLINE
  5
24a
100
AcDbEntity
  8
0
 62
7
100
AcDbSpline
 70
8
 71
3
 72
8
 73
4
 74
0
 40
0
 40
0
 40
0
 40
0
 40
1
 40
1
 40
1
 40
1
 10
148.425585
 20
60.899228
 30
0.0
 10
148.034302
 20
61.928370
 30
0.0
 10
147.492615
 20
63.951360
 30
0.0
 10
147.221835
 20
65.394758
 30
0.0
  0
SPLINE
  5
24b
100
AcDbEntity
  8
0
 62
7
100
AcDbSpline
 70
8
 71
3
 72
8
 73
4
 74
0
 40
0
 40
0
 40
0
 40
0
 40
1
 40
1
 40
1
 40
1
 10
147.221835
 20
65.394758
 30
0.0
 10
146.753107
 20
67.893300
 30
0.0
 10
146.858055
 20
68.061540
 30
0.0
 10
149.411055
 20
68.904105
 30
0.0
  0
SPLINE
  5
24c
100
AcDbEntity
  8
0
 62
7
100
AcDbSpline
 70
8
 71
3
 72
8
 73
4
 74
0
 40
0
 40
0
 40
0
 40
0
 40
1
 40
1
 40
1
 40
1
 10
149.411055
 20
68.904105
 30
0.0
 10
152.758770
 20
70.008953
 30
0.0
 10
154.640707
 20
69.445598
 30
0.0
 10
155.752335
 20
67.005840
 30
0.0
  0
SPLINE
  5
24d
100
AcDbEntity
  8
0
 62
7
100
AcDbSpline
 70
8
 71
3
 72
8
 73
4
 74
0
 40
0
 40
0
 40
0
 40
0
 40
1
 40
1
 40
1
 40
1
 10
155.752335
 20
67.005840
 30
0.0
 10
157.353615
 20
63.491423
 30
0.0
 10
156.867525
 20
61.573643
 30
0.0
 10
154.178655
 20
60.797138
 30
0.0
  0
SPLINE
  5
24e
100
AcDbEntity
  8
0
 62
7
100
AcDbSpline
 70
8
 71
3
 72
8
 73
4
 74
0
 40
0
 40
0
 40
0
 40
0
 40
1
 40
1
 40
1
 40
1
 10
154.178655
 20
60.797138
 30
0.0
 10
152.838030
 20
60.409980
 30
0.0
 10
151.155217
 20
59.853555
 30
0.0
 10
150.439080
 20
59.560643
 30
0.0
  0
SPLINE
  5
24f
100
AcDbEntity
  8
0
 62
7
100
AcDbSpline
 70
8
 71
3
 72
8
 73
4
 74
0
 40
0
 40
0
 40
0
 40
0
 40
1
 40
1
 40
1
 40
1
 10
150.439080
 20
59.560643
 30
0.0
 10
149.478150
 20
59.167598
 30
0.0
 10
148.950607
 20
59.518343
 30
0.0
 10
148.425585
 20
60.899228
 30
0.0
  0
LWPOLYLINE
  5
250
100
AcDbEntity
  8
0
 62
7
100
AcDbPolyline
 90
1
 70
1
 10
144.403852
 20
59.505240
 30
0.0
  0
SPLINE
  5
251
100
AcDbEntity
  8
0
 62
7
100
AcDbSpline
 70
8
 71
3
 72
8
 73
4
 74
0
 40
0
 40
0
 40
0
 40
0
 40
1
 40
1
 40
1
 40
1
 10
154.540845
 20
64.400303
 30
0.0
 10
153.013905
 20
68.728665
 30
0.0
 10
148.672155
 20
68.338058
 30
0.0
 10
149.549512
 20
63.951263
 30
0.0
  0
SPLINE
  5
252
100
AcDbEntity
  8
0
 62
7
100
AcDbSpline
 70
8
 71
3
 72
8
 73
4
 74
0
 40
0
 40
0
 40
0
 40
0
 40
1
 40
1
 40
1
 40
1
 10
149.549512
 20
63.951263
 30
0.0
 10
149.983222
 20
61.782690
 30
0.0
 10
150.095160
 20
61.726035
 30
0.0
 10
152.474430
 20
62.470733
 30
0.0
  0
SPLINE
  5
253
100
AcDbEntity
  8
0
 62
7
100
AcDbSpline
 70
8
 71
3
 72
8
 73
4
 74
0
 40
0
 40
0
 40
0
 40
0
 40
1
 40
1
 40
1
 40
1
 10
152.474430
 20
62.470733
 30
0.0
 10
154.215502
 20
63.015683
 30
0.0
 10
154.827652
 20
63.587295
 30
0.0
 10
154.540845
 20
64.400303
 30
0.0
  0
LWPOLYLINE
  5
254
100
AcDbEntity
  8
0
 62
7
100
AcDbPolyline
 90
1
 70
1
 10
148.425585
 20
60.899228
 30
0.0
  0
SPLINE
  5
255
100
AcDbEntity
  8
0
 62
7
100
AcDbSpline
 70
8
 71
3
 72
8
 73
4
 74
0
 40
0
 40
0
 40
0
 40
0
 40
1
 40
1
 40
1
 40
1
 10
103.553655
 20
60.845910
 30
0.0
 10
99.367552
 20
62.864798
 30
0.0
 10
103.526730
 20
69.671775
 30
0.0
 10
108.225765
 20
68.492385
 30
0.0
  0
SPLINE
  5
256
100
AcDbEntity
  8
0
 62
7
100
AcDbSpline
 70
8
 71
3
 72
8
 73
4
 74
0
 40
0
 40
0
 40
0
 40
0
 40
1
 40
1
 40
1
 40
1
 10
108.225765
 20
68.492385
 30
0.0
 10
109.747710
 20
68.110403
 30
0.0
 10
110.114160
 20
67.558703
 30
0.0
 10
110.105917
 20
65.661735
 30
0.0
  0
SPLINE
  5
257
100
AcDbEntity
  8
0
 62
7
100
AcDbSpline
 70
8
 71
3
 72
8
 73
4
 74
0
 40
0
 40
0
 40
0
 40
0
 40
1
 40
1
 40
1
 40
1
 10
110.105917
 20
65.661735
 30
0.0
 10
110.087167
 20
61.347420
 30
0.0
 10
109.364115
 20
59.926095
 30
0.0
 10
107.216182
 20
59.981303
 30
0.0
  0
SPLINE
  5
258
100
AcDbEntity
  8
0
 62
7
100
AcDbSpline
 70
8
 71
3
 72
8
 73
4
 74
0
 40
0
 40
0
 40
0
 40
0
 40
1
 40
1
 40
1
 40
1
 10
107.216182
 20
59.981303
 30
0.0
 10
106.129920
 20
60.009203
 30
0.0
 10
104.481780
 20
60.398295
 30
0.0
 10
103.553655
 20
60.845910
 30
0.0
  0
LWPOLYLINE
  5
259
100
AcDbEntity
  8
0
 62
7
100
AcDbPolyline
 90
1
 70
1
 10
154.540845
 20
64.400303
 30
0.0
  0
SPLINE
  5
25a
100
AcDbEntity
  8
0
 62
7
100
AcDbSpline
 70
8
 71
3
 72
8
 73
4
 74
0
 40
0
 40
0
 40
0
 40
0
 40
1
 40
1
 40
1
 40
1
 10
108.164992
 20
66.053783
 30
0.0
 10
107.458387
 20
67.197083
 30
0.0
 10
105.717232
 20
66.703418
 30
0.0
 10
104.542905
 20
65.026823
 30
0.0
  0
SPLINE
  5
25b
100
AcDbEntity
  8
0
 62
7
100
AcDbSpline
 70
8
 71
3
 72
8
 73
4
 74
0
 40
0
 40
0
 40
0
 40
0
 40
1
 40
1
 40
1
 40
1
 10
104.542905
 20
65.026823
 30
0.0
 10
103.447852
 20
63.463418
 30
0.0
 10
103.496722
 20
63.326813
 30
0.0
 10
105.437872
 20
62.525325
 30
0.0
  0
SPLINE
  5
25c
100
AcDbEntity
  8
0
 62
7
100
AcDbSpline
 70
8
 71
3
 72
8
 73
4
 74
0
 40
0
 40
0
 40
0
 40
0
 40
1
 40
1
 40
1
 40
1
 10
105.437872
 20
62.525325
 30
0.0
 10
107.313322
 20
61.750958
 30
0.0
 10
107.537107
 20
61.839900
 30
0.0
 10
108.021750
 20
63.552278
 30
0.0
  0
SPLINE
  5
25d
100
AcDbEntity
  8
0
 62
7
100
AcDbSpline
 70
8
 71
3
 72
8
 73
4
 74
0
 40
0
 40
0
 40
0
 40
0
 40
1
 40
1
 40
1
 40
1
 10
108.021750
 20
63.552278
 30
0.0
 10
108.313582
 20
64.583385
 30
0.0
 10
108.378037
 20
65.709060
 30
0.0
 10
108.164992
 20
66.053783
 30
0.0
  0
LWPOLYLINE
  5
25e
100
AcDbEntity
  8
0
 62
7
100
AcDbPolyline
 90
1
 70
1
 10
103.553655
 20
60.845910
 30
0.0
  0
SPLINE
  5
25f
100
AcDbEntity
  8
0
 62
7
100
AcDbSpline
 70
8
 71
3
 72
8
 73
4
 74
0
 40
0
 40
0
 40
0
 40
0
 40
1
 40
1
 40
1
 40
1
 10
116.473567
 20
69.617625
 30
0.0
 10
91.757910
 20
73.604115
 30
0.0
 10
73.576934
 20
89.859878
 30
0.0
 10
65.654324
 20
115.055543
 30
0.0
  0
SPLINE
  5
260
100
AcDbEntity
  8
0
 62
7
100
AcDbSpline
 70
8
 71
3
 72
8
 73
4
 74
0
 40
0
 40
0
 40
0
 40
0
 40
1
 40
1
 40
1
 40
1
 10
65.654324
 20
115.055543
 30
0.0
 10
63.256229
 20
122.682015
 30
0.0
 10
61.453424
 20
135.407145
 30
0.0
 10
62.019367
 20
140.712908
 30
0.0
  0
SPLINE
  5
261
100
AcDbEntity
  8
0
 62
7
100
AcDbSpline
 70
8
 71
3
 72
8
 73
4
 74
0
 40
0
 40
0
 40
0
 40
0
 40
1
 40
1
 40
1
 40
1
 10
62.019367
 20
140.712908
 30
0.0
 10
62.203702
 20
142.441058
 30
0.0
 10
79.003185
 20
146.574278
 30
0.0
 10
93.241155
 20
148.394483
 30
0.0
  0
SPLINE
  5
262
100
AcDbEntity
  8
0
 62
7
100
AcDbSpline
 70
8
 71
3
 72
8
 73
4
 74
0
 40
0
 40
0
 40
0
 40
0
 40
1
 40
1
 40
1
 40
1
 10
93.241155
 20
148.394483
 30
0.0
 10
109.851892
 20
150.518033
 30
0.0
 10
133.210200
 20
150.946470
 30
0.0
 10
155.116155
 20
149.529405
 30
0.0
  0
SPLINE
  5
263
100
AcDbEntity
  8
0
 62
7
100
AcDbSpline
 70
8
 71
3
 72
8
 73
4
 74
0
 40
0
 40
0
 40
0
 40
0
 40
1
 40
1
 40
1
 40
1
 10
155.116155
 20
149.529405
 30
0.0
 10
171.304432
 20
148.482203
 30
0.0
 10
192.300127
 20
145.999005
 30
0.0
 10
193.278675
 20
145.015845
 30
0.0
  0
SPLINE
  5
264
100
AcDbEntity
  8
0
 62
7
100
AcDbSpline
 70
8
 71
3
 72
8
 73
4
 74
0
 40
0
 40
0
 40
0
 40
0
 40
1
 40
1
 40
1
 40
1
 10
193.278675
 20
145.015845
 30
0.0
 10
194.273880
 20
144.015953
 30
0.0
 10
193.611180
 20
127.592648
 30
0.0
 10
192.327450
 20
121.442325
 30
0.0
  0
SPLINE
  5
265
100
AcDbEntity
  8
0
 62
7
100
AcDbSpline
 70
8
 71
3
 72
8
 73
4
 74
0
 40
0
 40
0
 40
0
 40
0
 40
1
 40
1
 40
1
 40
1
 10
192.327450
 20
121.442325
 30
0.0
 10
186.922297
 20
95.546280
 30
0.0
 10
170.383717
 20
77.660595
 30
0.0
 10
145.741155
 20
71.061465
 30
0.0
  0
SPLINE
  5
266
100
AcDbEntity
  8
0
 62
7
100
AcDbSpline
 70
8
 71
3
 72
8
 73
4
 74
0
 40
0
 40
0
 40
0
 40
0
 40
1
 40
1
 40
1
 40
1
 10
145.741155
 20
71.061465
 30
0.0
 10
139.812187
 20
69.473730
 30
0.0
 10
122.623072
 20
68.625743
 30
0.0
 10
116.473567
 20
69.617625
 30
0.0
  0
LWPOLYLINE
  5
267
100
AcDbEntity
  8
0
 62
7
100
AcDbPolyline
 90
1
 70
1
 10
108.164992
 20
66.053783
 30
0.0
  0
SPLINE
  5
268
100
AcDbEntity
  8
0
 62
7
100
AcDbSpline
 70
8
 71
3
 72
8
 73
4
 74
0
 40
0
 40
0
 40
0
 40
0
 40
1
 40
1
 40
1
 40
1
 10
141.991155
 20
72.382905
 30
0.0
 10
162.131175
 20
76.293675
 30
0.0
 10
179.311455
 20
90.605993
 30
0.0
 10
186.622290
 20
109.563615
 30
0.0
  0
SPLINE
  5
269
100
AcDbEntity
  8
0
 62
7
100
AcDbSpline
 70
8
 71
3
 72
8
 73
4
 74
0
 40
0
 40
0
 40
0
 40
0
 40
1
 40
1
 40
1
 40
1
 10
186.622290
 20
109.563615
 30
0.0
 10
190.043100
 20
118.434075
 30
0.0
 10
191.148368
 20
123.883868
 30
0.0
 10
191.632432
 20
134.267333
 30
0.0
  0
LWPOLYLINE
  5
26a
100
AcDbEntity
  8
0
 62
7
100
AcDbPolyline
 90
1
 70
1
 10
116.473567
 20
69.617625
 30
0.0
  0
SPLINE
  5
26b
100
AcDbEntity
  8
0
 62
7
100
AcDbSpline
 70
8
 71
3
 72
8
 73
4
 74
0
 40
0
 40
0
 40
0
 40
0
 40
1
 40
1
 40
1
 40
1
 10
188.782342
 20
144.200708
 30
0.0
 10
143.731140
 20
150.655913
 30
0.0
 10
97.170615
 20
149.615933
 30
0.0
 10
69.053654
 20
141.526448
 30
0.0
  0
SPLINE
  5
26c
100
AcDbEntity
  8
0
 62
7
100
AcDbSpline
 70
8
 71
3
 72
8
 73
4
 74
0
 40
0
 40
0
 40
0
 40
0
 40
1
 40
1
 40
1
 40
1
 10
69.053654
 20
141.526448
 30
0.0
 10
62.742817
 20
139.710765
 30
0.0
 10
63.007192
 20
140.501558
 30
0.0
 10
64.717244
 20
128.555543
 30
0.0
  0
SPLINE
  5
26d
100
AcDbEntity
  8
0
 62
7
100
AcDbSpline
 70
8
 71
3
 72
8
 73
4
 74
0
 40
0
 40
0
 40
0
 40
0
 40
1
 40
1
 40
1
 40
1
 10
64.717244
 20
128.555543
 30
0.0
 10
70.513522
 20
88.064010
 30
0.0
 10
102.605925
 20
64.735125
 30
0.0
 10
141.991155
 20
72.382905
 30
0.0
  0
LWPOLYLINE
  5
26e
100
AcDbEntity
  8
0
 62
7
100
AcDbPolyline
 90
3
 70
0
 10
191.632432
 20
134.267333
 30
0.0
 10
192.073530
 20
143.729130
 30
0.0
 10
188.782342
 20
144.200708
 30
0.0
  0
SPLINE
  5
26f
100
AcDbEntity
  8
0
 62
7
100
AcDbSpline
 70
8
 71
3
 72
8
 73
4
 74
0
 40
0
 40
0
 40
0
 40
0
 40
1
 40
1
 40
1
 40
1
 10
124.602187
 20
78.278288
 30
0.0
 10
121.563915
 20
79.599720
 30
0.0
 10
119.627452
 20
83.299320
 30
0.0
 10
119.550990
 20
87.928575
 30
0.0
  0
SPLINE
  5
270
100
AcDbEntity
  8
0
 62
7
100
AcDbSpline
 70
8
 71
3
 72
8
 73
4
 74
0
 40
0
 40
0
 40
0
 40
0
 40
1
 40
1
 40
1
 40
1
 10
119.550990
 20
87.928575
 30
0.0
 10
119.498790
 20
91.091483
 30
0.0
 10
119.794672
 20
91.822920
 30
0.0
 10
121.881067
 20
93.687983
 30
0.0
  0
SPLINE
  5
271
100
AcDbEntity
  8
0
 62
7
100
AcDbSpline
 70
8
 71
3
 72
8
 73
4
 74
0
 40
0
 40
0
 40
0
 40
0
 40
1
 40
1
 40
1
 40
1
 10
121.881067
 20
93.687983
 30
0.0
 10
124.790602
 20
96.288863
 30
0.0
 10
130.051717
 20
97.303425
 30
0.0
 10
133.411860
 20
95.911613
 30
0.0
  0
SPLINE
  5
272
100
AcDbEntity
  8
0
 62
7
100
AcDbSpline
 70
8
 71
3
 72
8
 73
4
 74
0
 40
0
 40
0
 40
0
 40
0
 40
1
 40
1
 40
1
 40
1
 10
133.411860
 20
95.911613
 30
0.0
 10
139.720095
 20
93.298658
 30
0.0
 10
139.156500
 20
81.875175
 30
0.0
 10
132.552548
 20
78.494205
 30
0.0
  0
SPLINE
  5
273
100
AcDbEntity
  8
0
 62
7
100
AcDbSpline
 70
8
 71
3
 72
8
 73
4
 74
0
 40
0
 40
0
 40
0
 40
0
 40
1
 40
1
 40
1
 40
1
 10
132.552548
 20
78.494205
 30
0.0
 10
129.502657
 20
76.932780
 30
0.0
 10
127.802003
 20
76.886595
 30
0.0
 10
124.602187
 20
78.278288
 30
0.0
  0
LWPOLYLINE
  5
274
100
AcDbEntity
  8
0
 62
7
100
AcDbPolyline
 90
1
 70
1
 10
141.991155
 20
72.382905
 30
0.0
  0
SPLINE
  5
275
100
AcDbEntity
  8
0
 62
7
100
AcDbSpline
 70
8
 71
3
 72
8
 73
4
 74
0
 40
0
 40
0
 40
0
 40
0
 40
1
 40
1
 40
1
 40
1
 10
131.810437
 20
80.526728
 30
0.0
 10
134.267100
 20
81.797123
 30
0.0
 10
136.670557
 20
87.000818
 30
0.0
 10
135.930450
 20
89.446943
 30
0.0
  0
SPLINE
  5
276
100
AcDbEntity
  8
0
 62
7
100
AcDbSpline
 70
8
 71
3
 72
8
 73
4
 74
0
 40
0
 40
0
 40
0
 40
0
 40
1
 40
1
 40
1
 40
1
 10
135.930450
 20
89.446943
 30
0.0
 10
135.023010
 20
92.446155
 30
0.0
 10
132.529725
 20
94.430723
 30
0.0
 10
129.672922
 20
94.427738
 30
0.0
  0
SPLINE
  5
277
100
AcDbEntity
  8
0
 62
7
100
AcDbSpline
 70
8
 71
3
 72
8
 73
4
 74
0
 40
0
 40
0
 40
0
 40
0
 40
1
 40
1
 40
1
 40
1
 10
129.672922
 20
94.427738
 30
0.0
 10
126.449580
 20
94.424738
 30
0.0
 10
122.445037
 20
92.148285
 30
0.0
 10
121.736887
 20
89.917088
 30
0.0
  0
SPLINE
  5
278
100
AcDbEntity
  8
0
 62
7
100
AcDbSpline
 70
8
 71
3
 72
8
 73
4
 74
0
 40
0
 40
0
 40
0
 40
0
 40
1
 40
1
 40
1
 40
1
 10
121.736887
 20
89.917088
 30
0.0
 10
120.412327
 20
85.743788
 30
0.0
 10
124.067790
 20
79.430543
 30
0.0
 10
127.808752
 20
79.430543
 30
0.0
  0
SPLINE
  5
279
100
AcDbEntity
  8
0
 62
7
100
AcDbSpline
 70
8
 71
3
 72
8
 73
4
 74
0
 40
0
 40
0
 40
0
 40
0
 40
1
 40
1
 40
1
 40
1
 10
127.808752
 20
79.430543
 30
0.0
 10
128.843790
 20
79.430543
 30
0.0
 10
130.644547
 20
79.923825
 30
0.0
 10
131.810437
 20
80.526728
 30
0.0
  0
LWPOLYLINE
  5
27a
100
AcDbEntity
  8
0
 62
7
100
AcDbPolyline
 90
1
 70
1
 10
124.602187
 20
78.278288
 30
0.0
  0
SPLINE
  5
27b
100
AcDbEntity
  8
0
 62
7
100
AcDbSpline
 70
8
 71
3
 72
8
 73
4
 74
0
 40
0
 40
0
 40
0
 40
0
 40
1
 40
1
 40
1
 40
1
 10
93.417007
 20
90.705915
 30
0.0
 10
86.214870
 20
92.506425
 30
0.0
 10
81.153840
 20
96.669405
 30
0.0
 10
77.947410
 20
103.430543
 30
0.0
  0
SPLINE
  5
27c
100
AcDbEntity
  8
0
 62
7
100
AcDbSpline
 70
8
 71
3
 72
8
 73
4
 74
0
 40
0
 40
0
 40
0
 40
0
 40
1
 40
1
 40
1
 40
1
 10
77.947410
 20
103.430543
 30
0.0
 10
76.309980
 20
106.883265
 30
0.0
 10
75.993622
 20
108.594525
 30
0.0
 10
76.006297
 20
113.930543
 30
0.0
  0
SPLINE
  5
27d
100
AcDbEntity
  8
0
 62
7
100
AcDbSpline
 70
8
 71
3
 72
8
 73
4
 74
0
 40
0
 40
0
 40
0
 40
0
 40
1
 40
1
 40
1
 40
1
 10
76.006297
 20
113.930543
 30
0.0
 10
76.024822
 20
121.722713
 30
0.0
 10
77.970120
 20
126.702683
 30
0.0
 10
82.697685
 20
131.060400
 30
0.0
  0
SPLINE
  5
27e
100
AcDbEntity
  8
0
 62
7
100
AcDbSpline
 70
8
 71
3
 72
8
 73
4
 74
0
 40
0
 40
0
 40
0
 40
0
 40
1
 40
1
 40
1
 40
1
 10
82.697685
 20
131.060400
 30
0.0
 10
89.114760
 20
136.975448
 30
0.0
 10
100.805565
 20
138.593228
 30
0.0
 10
108.815085
 20
134.674538
 30
0.0
  0
SPLINE
  5
27f
100
AcDbEntity
  8
0
 62
7
100
AcDbSpline
 70
8
 71
3
 72
8
 73
4
 74
0
 40
0
 40
0
 40
0
 40
0
 40
1
 40
1
 40
1
 40
1
 10
108.815085
 20
134.674538
 30
0.0
 10
117.015015
 20
130.662683
 30
0.0
 10
120.920700
 20
123.220403
 30
0.0
 10
120.488662
 20
112.430543
 30
0.0
  0
SPLINE
  5
280
100
AcDbEntity
  8
0
 62
7
100
AcDbSpline
 70
8
 71
3
 72
8
 73
4
 74
0
 40
0
 40
0
 40
0
 40
0
 40
1
 40
1
 40
1
 40
1
 10
120.488662
 20
112.430543
 30
0.0
 10
120.200715
 20
105.239415
 30
0.0
 10
118.546672
 20
100.945613
 30
0.0
 10
114.432652
 20
96.709553
 30
0.0
  0
SPLINE
  5
281
100
AcDbEntity
  8
0
 62
7
100
AcDbSpline
 70
8
 71
3
 72
8
 73
4
 74
0
 40
0
 40
0
 40
0
 40
0
 40
1
 40
1
 40
1
 40
1
 10
114.432652
 20
96.709553
 30
0.0
 10
109.639357
 20
91.774058
 30
0.0
 10
100.074405
 20
89.041598
 30
0.0
 10
93.417007
 20
90.705915
 30
0.0
  0
LWPOLYLINE
  5
282
100
AcDbEntity
  8
0
 62
7
100
AcDbPolyline
 90
1
 70
1
 10
131.810437
 20
80.526728
 30
0.0
  0
SPLINE
  5
283
100
AcDbEntity
  8
0
 62
7
100
AcDbSpline
 70
8
 71
3
 72
8
 73
4
 74
0
 40
0
 40
0
 40
0
 40
0
 40
1
 40
1
 40
1
 40
1
 10
107.491155
 20
94.252448
 30
0.0
 10
114.712912
 20
97.975635
 30
0.0
 10
118.706302
 20
105.042960
 30
0.0
 10
118.610265
 20
113.930543
 30
0.0
  0
SPLINE
  5
284
100
AcDbEntity
  8
0
 62
7
100
AcDbSpline
 70
8
 71
3
 72
8
 73
4
 74
0
 40
0
 40
0
 40
0
 40
0
 40
1
 40
1
 40
1
 40
1
 10
118.610265
 20
113.930543
 30
0.0
 10
118.536465
 20
120.760635
 30
0.0
 10
116.639175
 20
125.446785
 30
0.0
 10
112.205722
 20
129.749303
 30
0.0
  0
SPLINE
  5
285
100
AcDbEntity
  8
0
 62
7
100
AcDbSpline
 70
8
 71
3
 72
8
 73
4
 74
0
 40
0
 40
0
 40
0
 40
0
 40
1
 40
1
 40
1
 40
1
 10
112.205722
 20
129.749303
 30
0.0
 10
104.203695
 20
137.515005
 30
0.0
 10
88.842795
 20
136.046918
 30
0.0
 10
81.860347
 20
126.849098
 30
0.0
  0
SPLINE
  5
286
100
AcDbEntity
  8
0
 62
7
100
AcDbSpline
 70
8
 71
3
 72
8
 73
4
 74
0
 40
0
 40
0
 40
0
 40
0
 40
1
 40
1
 40
1
 40
1
 10
81.860347
 20
126.849098
 30
0.0
 10
78.955177
 20
123.022193
 30
0.0
 10
77.875980
 20
119.513468
 30
0.0
 10
77.870340
 20
113.876648
 30
0.0
  0
SPLINE
  5
287
100
AcDbEntity
  8
0
 62
7
100
AcDbSpline
 70
8
 71
3
 72
8
 73
4
 74
0
 40
0
 40
0
 40
0
 40
0
 40
1
 40
1
 40
1
 40
1
 10
77.870340
 20
113.876648
 30
0.0
 10
77.860665
 20
104.197508
 30
0.0
 10
83.848620
 20
95.793225
 30
0.0
 10
92.861302
 20
92.836395
 30
0.0
  0
SPLINE
  5
288
100
AcDbEntity
  8
0
 62
7
100
AcDbSpline
 70
8
 71
3
 72
8
 73
4
 74
0
 40
0
 40
0
 40
0
 40
0
 40
1
 40
1
 40
1
 40
1
 10
92.861302
 20
92.836395
 30
0.0
 10
96.072960
 20
91.782728
 30
0.0
 10
104.232660
 20
92.572523
 30
0.0
 10
107.491155
 20
94.252448
 30
0.0
  0
LWPOLYLINE
  5
289
100
AcDbEntity
  8
0
 62
7
100
AcDbPolyline
 90
1
 70
1
 10
93.417007
 20
90.705915
 30
0.0
  0
SPLINE
  5
28a
100
AcDbEntity
  8
0
 62
7
100
AcDbSpline
 70
8
 71
3
 72
8
 73
4
 74
0
 40
0
 40
0
 40
0
 40
0
 40
1
 40
1
 40
1
 40
1
 10
151.999290
 20
91.725803
 30
0.0
 10
146.924407
 20
93.538590
 30
0.0
 10
142.328295
 20
96.752873
 30
0.0
 10
139.752405
 20
100.290623
 30
0.0
  0
SPLINE
  5
28b
100
AcDbEntity
  8
0
 62
7
100
AcDbSpline
 70
8
 71
3
 72
8
 73
4
 74
0
 40
0
 40
0
 40
0
 40
0
 40
1
 40
1
 40
1
 40
1
 10
139.752405
 20
100.290623
 30
0.0
 10
136.545885
 20
104.694503
 30
0.0
 10
134.478795
 20
111.916073
 30
0.0
 10
135.160710
 20
116.332140
 30
0.0
  0
SPLINE
  5
28c
100
AcDbEntity
  8
0
 62
7
100
AcDbSpline
 70
8
 71
3
 72
8
 73
4
 74
0
 40
0
 40
0
 40
0
 40
0
 40
1
 40
1
 40
1
 40
1
 10
135.160710
 20
116.332140
 30
0.0
 10
137.199135
 20
129.532815
 30
0.0
 10
144.647775
 20
136.299225
 30
0.0
 10
157.945005
 20
137.029605
 30
0.0
  0
SPLINE
  5
28d
100
AcDbEntity
  8
0
 62
7
100
AcDbSpline
 70
8
 71
3
 72
8
 73
4
 74
0
 40
0
 40
0
 40
0
 40
0
 40
1
 40
1
 40
1
 40
1
 10
157.945005
 20
137.029605
 30
0.0
 10
163.758577
 20
137.348925
 30
0.0
 10
164.456707
 20
137.218808
 30
0.0
 10
169.042477
 20
134.961240
 30
0.0
  0
SPLINE
  5
28e
100
AcDbEntity
  8
0
 62
7
100
AcDbSpline
 70
8
 71
3
 72
8
 73
4
 74
0
 40
0
 40
0
 40
0
 40
0
 40
1
 40
1
 40
1
 40
1
 10
169.042477
 20
134.961240
 30
0.0
 10
177.346057
 20
130.873395
 30
0.0
 10
181.139550
 20
123.192068
 30
0.0
 10
180.458940
 20
111.844380
 30
0.0
  0
SPLINE
  5
28f
100
AcDbEntity
  8
0
 62
7
100
AcDbSpline
 70
8
 71
3
 72
8
 73
4
 74
0
 40
0
 40
0
 40
0
 40
0
 40
1
 40
1
 40
1
 40
1
 10
180.458940
 20
111.844380
 30
0.0
 10
180.043612
 20
104.919675
 30
0.0
 10
177.760702
 20
99.840833
 30
0.0
 10
173.219107
 20
95.737778
 30
0.0
  0
SPLINE
  5
290
100
AcDbEntity
  8
0
 62
7
100
AcDbSpline
 70
8
 71
3
 72
8
 73
4
 74
0
 40
0
 40
0
 40
0
 40
0
 40
1
 40
1
 40
1
 40
1
 10
173.219107
 20
95.737778
 30
0.0
 10
168.197775
 20
91.201305
 30
0.0
 10
158.565750
 20
89.380200
 30
0.0
 10
151.999290
 20
91.725803
 30
0.0
  0
LWPOLYLINE
  5
291
100
AcDbEntity
  8
0
 62
7
100
AcDbPolyline
 90
1
 70
1
 10
107.491155
 20
94.252448
 30
0.0
  0
SPLINE
  5
292
100
AcDbEntity
  8
0
 62
7
100
AcDbSpline
 70
8
 71
3
 72
8
 73
4
 74
0
 40
0
 40
0
 40
0
 40
0
 40
1
 40
1
 40
1
 40
1
 10
167.490517
 20
94.508993
 30
0.0
 10
179.793105
 20
100.291890
 30
0.0
 10
182.721570
 20
119.300670
 30
0.0
 10
172.890240
 20
129.558765
 30
0.0
  0
SPLINE
  5
293
100
AcDbEntity
  8
0
 62
7
100
AcDbSpline
 70
8
 71
3
 72
8
 73
4
 74
0
 40
0
 40
0
 40
0
 40
0
 40
1
 40
1
 40
1
 40
1
 10
172.890240
 20
129.558765
 30
0.0
 10
168.926295
 20
133.694775
 30
0.0
 10
165.232192
 20
135.219998
 30
0.0
 10
159.241155
 20
135.194190
 30
0.0
  0
SPLINE
  5
294
100
AcDbEntity
  8
0
 62
7
100
AcDbSpline
 70
8
 71
3
 72
8
 73
4
 74
0
 40
0
 40
0
 40
0
 40
0
 40
1
 40
1
 40
1
 40
1
 10
159.241155
 20
135.194190
 30
0.0
 10
146.850397
 20
135.140790
 30
0.0
 10
138.138585
 20
127.287323
 30
0.0
 10
137.288355
 20
115.404233
 30
0.0
  0
SPLINE
  5
295
100
AcDbEntity
  8
0
 62
7
100
AcDbSpline
 70
8
 71
3
 72
8
 73
4
 74
0
 40
0
 40
0
 40
0
 40
0
 40
1
 40
1
 40
1
 40
1
 10
137.288355
 20
115.404233
 30
0.0
 10
136.982550
 20
111.130178
 30
0.0
 10
137.214855
 20
109.724835
 30
0.0
 10
138.798930
 20
106.264688
 30
0.0
  0
SPLINE
  5
296
100
AcDbEntity
  8
0
 62
7
100
AcDbSpline
 70
8
 71
3
 72
8
 73
4
 74
0
 40
0
 40
0
 40
0
 40
0
 40
1
 40
1
 40
1
 40
1
 10
138.798930
 20
106.264688
 30
0.0
 10
142.639815
 20
97.875098
 30
0.0
 10
150.127042
 20
92.950778
 30
0.0
 10
159.061830
 20
92.937870
 30
0.0
  0
SPLINE
  5
297
100
AcDbEntity
  8
0
 62
7
100
AcDbSpline
 70
8
 71
3
 72
8
 73
4
 74
0
 40
0
 40
0
 40
0
 40
0
 40
1
 40
1
 40
1
 40
1
 10
159.061830
 20
92.937870
 30
0.0
 10
162.664838
 20
92.932620
 30
0.0
 10
165.104452
 20
93.387413
 30
0.0
 10
167.490517
 20
94.508993
 30
0.0
  0
LWPOLYLINE
  5
298
100
AcDbEntity
  8
0
 62
7
100
AcDbPolyline
 90
1
 70
1
 10
151.999290
 20
91.725803
 30
0.0
  0
SPLINE
  5
299
100
AcDbEntity
  8
0
 62
7
100
AcDbSpline
 70
8
 71
3
 72
8
 73
4
 74
0
 40
0
 40
0
 40
0
 40
0
 40
1
 40
1
 40
1
 40
1
 10
47.116154
 20
136.504777
 30
0.0
 10
38.219872
 20
137.671042
 30
0.0
 10
25.765432
 20
139.524383
 30
0.0
 10
24.053654
 20
139.936695
 30
0.0
  0
SPLINE
  5
29a
100
AcDbEntity
  8
0
 62
7
100
AcDbSpline
 70
8
 71
3
 72
8
 73
4
 74
0
 40
0
 40
0
 40
0
 40
0
 40
1
 40
1
 40
1
 40
1
 10
24.053654
 20
139.936695
 30
0.0
 10
20.670742
 20
140.751525
 30
0.0
 10
22.472414
 20
142.357838
 30
0.0
 10
30.053654
 20
145.286115
 30
0.0
  0
SPLINE
  5
29b
100
AcDbEntity
  8
0
 62
7
100
AcDbSpline
 70
8
 71
3
 72
8
 73
4
 74
0
 40
0
 40
0
 40
0
 40
0
 40
1
 40
1
 40
1
 40
1
 10
30.053654
 20
145.286115
 30
0.0
 10
57.289807
 20
155.806170
 30
0.0
 10
89.365935
 20
160.701188
 30
0.0
 10
131.116155
 20
160.708890
 30
0.0
  0
SPLINE
  5
29c
100
AcDbEntity
  8
0
 62
7
100
AcDbSpline
 70
8
 71
3
 72
8
 73
4
 74
0
 40
0
 40
0
 40
0
 40
0
 40
1
 40
1
 40
1
 40
1
 10
131.116155
 20
160.708890
 30
0.0
 10
165.927413
 20
160.715640
 30
0.0
 10
194.676128
 20
157.193340
 30
0.0
 10
219.440213
 20
149.888400
 30
0.0
  0
SPLINE
  5
29d
100
AcDbEntity
  8
0
 62
7
100
AcDbSpline
 70
8
 71
3
 72
8
 73
4
 74
0
 40
0
 40
0
 40
0
 40
0
 40
1
 40
1
 40
1
 40
1
 10
219.440213
 20
149.888400
 30
0.0
 10
229.994520
 20
146.775082
 30
0.0
 10
233.946795
 20
145.013377
 30
0.0
 10
233.425387
 20
143.654595
 30
0.0
  0
SPLINE
  5
29e
100
AcDbEntity
  8
0
 62
7
100
AcDbSpline
 70
8
 71
3
 72
8
 73
4
 74
0
 40
0
 40
0
 40
0
 40
0
 40
1
 40
1
 40
1
 40
1
 10
233.425387
 20
143.654595
 30
0.0
 10
232.787580
 20
141.992498
 30
0.0
 10
222.716865
 20
139.659382
 30
0.0
 10
210.661770
 20
138.380888
 30
0.0
  0
SPLINE
  5
29f
100
AcDbEntity
  8
0
 62
7
100
AcDbSpline
 70
8
 71
3
 72
8
 73
4
 74
0
 40
0
 40
0
 40
0
 40
0
 40
1
 40
1
 40
1
 40
1
 10
210.661770
 20
138.380888
 30
0.0
 10
198.564045
 20
137.097863
 30
0.0
 10
198.387315
 20
137.142030
 30
0.0
 10
196.992660
 20
141.796965
 30
0.0
  0
SPLINE
  5
2a0
100
AcDbEntity
  8
0
 62
7
100
AcDbSpline
 70
8
 71
3
 72
8
 73
4
 74
0
 40
0
 40
0
 40
0
 40
0
 40
1
 40
1
 40
1
 40
1
 10
196.992660
 20
141.796965
 30
0.0
 10
194.293373
 20
150.806400
 30
0.0
 10
188.418555
 20
151.761278
 30
0.0
 10
135.616155
 20
151.772948
 30
0.0
  0
SPLINE
  5
2a1
100
AcDbEntity
  8
0
 62
7
100
AcDbSpline
 70
8
 71
3
 72
8
 73
4
 74
0
 40
0
 40
0
 40
0
 40
0
 40
1
 40
1
 40
1
 40
1
 10
135.616155
 20
151.772948
 30
0.0
 10
89.470808
 20
151.783148
 30
0.0
 10
75.971790
 20
150.675727
 30
0.0
 10
66.189179
 20
146.077358
 30
0.0
  0
SPLINE
  5
2a2
100
AcDbEntity
  8
0
 62
7
100
AcDbSpline
 70
8
 71
3
 72
8
 73
4
 74
0
 40
0
 40
0
 40
0
 40
0
 40
1
 40
1
 40
1
 40
1
 10
66.189179
 20
146.077358
 30
0.0
 10
62.199809
 20
144.202133
 30
0.0
 10
57.781402
 20
139.975073
 30
0.0
 10
57.140174
 20
137.420235
 30
0.0
  0
SPLINE
  5
2a3
100
AcDbEntity
  8
0
 62
7
100
AcDbSpline
 70
8
 71
3
 72
8
 73
4
 74
0
 40
0
 40
0
 40
0
 40
0
 40
1
 40
1
 40
1
 40
1
 10
57.140174
 20
137.420235
 30
0.0
 10
56.651452
 20
135.473003
 30
0.0
 10
55.670152
 20
135.383385
 30
0.0
 10
47.116154
 20
136.504777
 30
0.0
  0
LWPOLYLINE
  5
2a4
100
AcDbEntity
  8
0
 62
7
100
AcDbPolyline
 90
1
 70
1
 10
167.490517
 20
94.508993
 30
0.0
  0
SPLINE
  5
2a5
100
AcDbEntity
  8
0
 62
7
100
AcDbSpline
 70
8
 71
3
 72
8
 73
4
 74
0
 40
0
 40
0
 40
0
 40
0
 40
1
 40
1
 40
1
 40
1
 10
56.491589
 20
140.745068
 30
0.0
 10
58.290367
 20
144.114368
 30
0.0
 10
63.821204
 20
147.981607
 30
0.0
 10
69.127942
 20
149.580578
 30
0.0
  0
SPLINE
  5
2a6
100
AcDbEntity
  8
0
 62
7
100
AcDbSpline
 70
8
 71
3
 72
8
 73
4
 74
0
 40
0
 40
0
 40
0
 40
0
 40
1
 40
1
 40
1
 40
1
 10
69.127942
 20
149.580578
 30
0.0
 10
82.625888
 20
153.647640
 30
0.0
 10
128.300670
 20
155.594527
 30
0.0
 10
165.241155
 20
153.677407
 30
0.0
  0
SPLINE
  5
2a7
100
AcDbEntity
  8
0
 62
7
100
AcDbSpline
 70
8
 71
3
 72
8
 73
4
 74
0
 40
0
 40
0
 40
0
 40
0
 40
1
 40
1
 40
1
 40
1
 10
165.241155
 20
153.677407
 30
0.0
 10
181.746705
 20
152.820810
 30
0.0
 10
189.676815
 20
151.797892
 30
0.0
 10
193.366155
 20
150.049522
 30
0.0
  0
SPLINE
  5
2a8
100
AcDbEntity
  8
0
 62
7
100
AcDbSpline
 70
8
 71
3
 72
8
 73
4
 74
0
 40
0
 40
0
 40
0
 40
0
 40
1
 40
1
 40
1
 40
1
 10
193.366155
 20
150.049522
 30
0.0
 10
195.887745
 20
148.854547
 30
0.0
 10
197.620358
 20
146.366167
 30
0.0
 10
199.314390
 20
141.506640
 30
0.0
  0
SPLINE
  5
2a9
100
AcDbEntity
  8
0
 62
7
100
AcDbSpline
 70
8
 71
3
 72
8
 73
4
 74
0
 40
0
 40
0
 40
0
 40
0
 40
1
 40
1
 40
1
 40
1
 10
199.314390
 20
141.506640
 30
0.0
 10
200.052202
 20
139.390162
 30
0.0
 10
200.073277
 20
139.384095
 30
0.0
 10
205.148017
 20
139.827585
 30
0.0
  0
SPLINE
  5
2aa
100
AcDbEntity
  8
0
 62
7
100
AcDbSpline
 70
8
 71
3
 72
8
 73
4
 74
0
 40
0
 40
0
 40
0
 40
0
 40
1
 40
1
 40
1
 40
1
 10
205.148017
 20
139.827585
 30
0.0
 10
213.767992
 20
140.580900
 30
0.0
 10
226.322123
 20
142.449187
 30
0.0
 10
228.460058
 20
143.296852
 30
0.0
  0
SPLINE
  5
2ab
100
AcDbEntity
  8
0
 62
7
100
AcDbSpline
 70
8
 71
3
 72
8
 73
4
 74
0
 40
0
 40
0
 40
0
 40
0
 40
1
 40
1
 40
1
 40
1
 10
228.460058
 20
143.296852
 30
0.0
 10
230.419657
 20
144.073815
 30
0.0
 10
230.306355
 20
144.166462
 30
0.0
 10
225.241155
 20
145.928872
 30
0.0
  0
SPLINE
  5
2ac
100
AcDbEntity
  8
0
 62
7
100
AcDbSpline
 70
8
 71
3
 72
8
 73
4
 74
0
 40
0
 40
0
 40
0
 40
0
 40
1
 40
1
 40
1
 40
1
 10
225.241155
 20
145.928872
 30
0.0
 10
178.876560
 20
162.061237
 30
0.0
 10
97.083832
 20
163.213462
 30
0.0
 10
45.680317
 20
148.458375
 30
0.0
  0
SPLINE
  5
2ad
100
AcDbEntity
  8
0
 62
7
100
AcDbSpline
 70
8
 71
3
 72
8
 73
4
 74
0
 40
0
 40
0
 40
0
 40
0
 40
1
 40
1
 40
1
 40
1
 10
45.680317
 20
148.458375
 30
0.0
 10
36.841124
 20
145.921132
 30
0.0
 10
27.616154
 20
142.453942
 30
0.0
 10
27.616154
 20
141.668985
 30
0.0
  0
SPLINE
  5
2ae
100
AcDbEntity
  8
0
 62
7
100
AcDbSpline
 70
8
 71
3
 72
8
 73
4
 74
0
 40
0
 40
0
 40
0
 40
0
 40
1
 40
1
 40
1
 40
1
 10
27.616154
 20
141.668985
 30
0.0
 10
27.616154
 20
141.239512
 30
0.0
 10
37.825109
 20
139.683757
 30
0.0
 10
48.991154
 20
138.411630
 30
0.0
  0
SPLINE
  5
2af
100
AcDbEntity
  8
0
 62
7
100
AcDbSpline
 70
8
 71
3
 72
8
 73
4
 74
0
 40
0
 40
0
 40
0
 40
0
 40
1
 40
1
 40
1
 40
1
 10
48.991154
 20
138.411630
 30
0.0
 10
54.714292
 20
137.759602
 30
0.0
 10
54.934267
 20
137.828040
 30
0.0
 10
56.491589
 20
140.745067
 30
0.0
  0
LWPOLYLINE
  5
2b0
100
AcDbEntity
  8
0
 62
7
100
AcDbPolyline
 90
1
 70
1
 10
47.116154
 20
136.504777
 30
0.0
  0
SPLINE
  5
2b1
100
AcDbEntity
  8
0
 62
7
100
AcDbSpline
 70
8
 71
3
 72
8
 73
4
 74
0
 40
0
 40
0
 40
0
 40
0
 40
1
 40
1
 40
1
 40
1
 10
29.347297
 20
151.814325
 30
0.0
 10
30.050677
 20
156.148762
 30
0.0
 10
37.145399
 20
173.051445
 30
0.0
 10
41.463584
 20
180.680543
 30
0.0
  0
SPLINE
  5
2b2
100
AcDbEntity
  8
0
 62
7
100
AcDbSpline
 70
8
 71
3
 72
8
 73
4
 74
0
 40
0
 40
0
 40
0
 40
0
 40
1
 40
1
 40
1
 40
1
 10
41.463584
 20
180.680543
 30
0.0
 10
57.000389
 20
208.129983
 30
0.0
 10
79.981365
 20
224.865384
 30
0.0
 10
108.873930
 20
229.770682
 30
0.0
  0
SPLINE
  5
2b3
100
AcDbEntity
  8
0
 62
7
100
AcDbSpline
 70
8
 71
3
 72
8
 73
4
 74
0
 40
0
 40
0
 40
0
 40
0
 40
1
 40
1
 40
1
 40
1
 10
108.873930
 20
229.770682
 30
0.0
 10
118.536518
 20
231.411172
 30
0.0
 10
138.050062
 20
231.447300
 30
0.0
 10
147.060277
 20
229.841408
 30
0.0
  0
SPLINE
  5
2b4
100
AcDbEntity
  8
0
 62
7
100
AcDbSpline
 70
8
 71
3
 72
8
 73
4
 74
0
 40
0
 40
0
 40
0
 40
0
 40
1
 40
1
 40
1
 40
1
 10
147.060277
 20
229.841408
 30
0.0
 10
160.809277
 20
227.390890
 30
0.0
 10
174.818122
 20
221.620364
 30
0.0
 10
185.616398
 20
213.959372
 30
0.0
  0
SPLINE
  5
2b5
100
AcDbEntity
  8
0
 62
7
100
AcDbSpline
 70
8
 71
3
 72
8
 73
4
 74
0
 40
0
 40
0
 40
0
 40
0
 40
1
 40
1
 40
1
 40
1
 10
185.616398
 20
213.959372
 30
0.0
 10
201.161580
 20
202.930615
 30
0.0
 10
216.022582
 20
182.462025
 30
0.0
 10
224.588775
 20
160.281322
 30
0.0
  0
SPLINE
  5
2b6
100
AcDbEntity
  8
0
 62
7
100
AcDbSpline
 70
8
 71
3
 72
8
 73
4
 74
0
 40
0
 40
0
 40
0
 40
0
 40
1
 40
1
 40
1
 40
1
 10
224.588775
 20
160.281322
 30
0.0
 10
227.895630
 20
151.718790
 30
0.0
 10
227.877540
 20
151.171162
 30
0.0
 10
224.303655
 20
151.649235
 30
0.0
  0
SPLINE
  5
2b7
100
AcDbEntity
  8
0
 62
7
100
AcDbSpline
 70
8
 71
3
 72
8
 73
4
 74
0
 40
0
 40
0
 40
0
 40
0
 40
1
 40
1
 40
1
 40
1
 10
224.303655
 20
151.649235
 30
0.0
 10
222.756780
 20
151.856160
 30
0.0
 10
219.960120
 20
152.582880
 30
0.0
 10
218.088848
 20
153.264180
 30
0.0
  0
SPLINE
  5
2b8
100
AcDbEntity
  8
0
 62
7
100
AcDbSpline
 70
8
 71
3
 72
8
 73
4
 74
0
 40
0
 40
0
 40
0
 40
0
 40
1
 40
1
 40
1
 40
1
 10
218.088848
 20
153.264180
 30
0.0
 10
214.785578
 20
154.466842
 30
0.0
 10
214.602518
 20
154.703790
 30
0.0
 10
211.800083
 20
161.404230
 30
0.0
  0
SPLINE
  5
2b9
100
AcDbEntity
  8
0
 62
7
100
AcDbSpline
 70
8
 71
3
 72
8
 73
4
 74
0
 40
0
 40
0
 40
0
 40
0
 40
1
 40
1
 40
1
 40
1
 10
211.800083
 20
161.404230
 30
0.0
 10
195.488955
 20
200.403099
 30
0.0
 10
162.809948
 20
222.271916
 30
0.0
 10
123.991155
 20
220.166037
 30
0.0
  0
SPLINE
  5
2ba
100
AcDbEntity
  8
0
 62
7
100
AcDbSpline
 70
8
 71
3
 72
8
 73
4
 74
0
 40
0
 40
0
 40
0
 40
0
 40
1
 40
1
 40
1
 40
1
 10
123.991155
 20
220.166037
 30
0.0
 10
106.657853
 20
219.225724
 30
0.0
 10
93.637230
 20
215.130071
 30
0.0
 10
80.141813
 20
206.373178
 30
0.0
  0
SPLINE
  5
2bb
100
AcDbEntity
  8
0
 62
7
100
AcDbSpline
 70
8
 71
3
 72
8
 73
4
 74
0
 40
0
 40
0
 40
0
 40
0
 40
1
 40
1
 40
1
 40
1
 10
80.141813
 20
206.373178
 30
0.0
 10
71.889014
 20
201.018109
 30
0.0
 10
60.697169
 20
189.735172
 30
0.0
 10
54.704279
 20
180.728602
 30
0.0
  0
SPLINE
  5
2bc
100
AcDbEntity
  8
0
 62
7
100
AcDbSpline
 70
8
 71
3
 72
8
 73
4
 74
0
 40
0
 40
0
 40
0
 40
0
 40
1
 40
1
 40
1
 40
1
 10
54.704279
 20
180.728602
 30
0.0
 10
50.191597
 20
173.946592
 30
0.0
 10
43.595692
 20
161.236695
 30
0.0
 10
41.605394
 20
155.487855
 30
0.0
  0
SPLINE
  5
2bd
100
AcDbEntity
  8
0
 62
7
100
AcDbSpline
 70
8
 71
3
 72
8
 73
4
 74
0
 40
0
 40
0
 40
0
 40
0
 40
1
 40
1
 40
1
 40
1
 10
41.605394
 20
155.487855
 30
0.0
 10
40.798102
 20
153.156052
 30
0.0
 10
40.023464
 20
152.501272
 30
0.0
 10
36.261292
 20
150.970657
 30
0.0
  0
SPLINE
  5
2be
100
AcDbEntity
  8
0
 62
7
100
AcDbSpline
 70
8
 71
3
 72
8
 73
4
 74
0
 40
0
 40
0
 40
0
 40
0
 40
1
 40
1
 40
1
 40
1
 10
36.261292
 20
150.970657
 30
0.0
 10
29.927459
 20
148.393777
 30
0.0
 10
28.814257
 20
148.529617
 30
0.0
 10
29.347297
 20
151.814347
 30
0.0
  0
LWPOLYLINE
  5
2bf
100
AcDbEntity
  8
0
 62
7
100
AcDbPolyline
 90
1
 70
1
 10
56.491589
 20
140.745067
 30
0.0
  0
SPLINE
  5
2c0
100
AcDbEntity
  8
0
 62
7
100
AcDbSpline
 70
8
 71
3
 72
8
 73
4
 74
0
 40
0
 40
0
 40
0
 40
0
 40
1
 40
1
 40
1
 40
1
 10
36.009337
 20
152.987250
 30
0.0
 10
38.396099
 20
153.766837
 30
0.0
 10
39.007724
 20
154.471110
 30
0.0
 10
40.448152
 20
158.098485
 30
0.0
  0
SPLINE
  5
2c1
100
AcDbEntity
  8
0
 62
7
100
AcDbSpline
 70
8
 71
3
 72
8
 73
4
 74
0
 40
0
 40
0
 40
0
 40
0
 40
1
 40
1
 40
1
 40
1
 10
40.448152
 20
158.098485
 30
0.0
 10
48.041242
 20
177.219847
 30
0.0
 10
61.152794
 20
195.266395
 30
0.0
 10
74.800777
 20
205.380951
 30
0.0
  0
SPLINE
  5
2c2
100
AcDbEntity
  8
0
 62
7
100
AcDbSpline
 70
8
 71
3
 72
8
 73
4
 74
0
 40
0
 40
0
 40
0
 40
0
 40
1
 40
1
 40
1
 40
1
 10
74.800777
 20
205.380951
 30
0.0
 10
89.996370
 20
216.642441
 30
0.0
 10
107.382187
 20
222.035433
 30
0.0
 10
128.491155
 20
222.035433
 30
0.0
  0
SPLINE
  5
2c3
100
AcDbEntity
  8
0
 62
7
100
AcDbSpline
 70
8
 71
3
 72
8
 73
4
 74
0
 40
0
 40
0
 40
0
 40
0
 40
1
 40
1
 40
1
 40
1
 10
128.491155
 20
222.035433
 30
0.0
 10
144.975727
 20
222.035433
 30
0.0
 10
156.993922
 20
219.278459
 30
0.0
 10
170.116155
 20
212.486658
 30
0.0
  0
SPLINE
  5
2c4
100
AcDbEntity
  8
0
 62
7
100
AcDbSpline
 70
8
 71
3
 72
8
 73
4
 74
0
 40
0
 40
0
 40
0
 40
0
 40
1
 40
1
 40
1
 40
1
 10
170.116155
 20
212.486658
 30
0.0
 10
187.620067
 20
203.426989
 30
0.0
 10
203.019615
 20
186.287295
 30
0.0
 10
212.258730
 20
165.582000
 30
0.0
  0
SPLINE
  5
2c5
100
AcDbEntity
  8
0
 62
7
100
AcDbSpline
 70
8
 71
3
 72
8
 73
4
 74
0
 40
0
 40
0
 40
0
 40
0
 40
1
 40
1
 40
1
 40
1
 10
212.258730
 20
165.582000
 30
0.0
 10
214.242817
 20
161.135572
 30
0.0
 10
215.866455
 20
157.229385
 30
0.0
 10
215.866822
 20
156.901567
 30
0.0
  0
SPLINE
  5
2c6
100
AcDbEntity
  8
0
 62
7
100
AcDbSpline
 70
8
 71
3
 72
8
 73
4
 74
0
 40
0
 40
0
 40
0
 40
0
 40
1
 40
1
 40
1
 40
1
 10
215.866822
 20
156.901567
 30
0.0
 10
215.867190
 20
156.573757
 30
0.0
 10
217.909687
 20
155.562705
 30
0.0
 10
220.405702
 20
154.654800
 30
0.0
  0
LWPOLYLINE
  5
2c7
100
AcDbEntity
  8
0
 62
7
100
AcDbPolyline
 90
1
 70
1
 10
29.347297
 20
151.814347
 30
0.0
  0
SPLINE
  5
2c8
100
AcDbEntity
  8
0
 62
7
100
AcDbSpline
 70
8
 71
3
 72
8
 73
4
 74
0
 40
0
 40
0
 40
0
 40
0
 40
1
 40
1
 40
1
 40
1
 10
224.423580
 20
154.654800
 30
0.0
 10
219.864307
 20
169.119217
 30
0.0
 10
208.756223
 20
188.210685
 30
0.0
 10
198.083535
 20
199.925446
 30
0.0
  0
SPLINE
  5
2c9
100
AcDbEntity
  8
0
 62
7
100
AcDbSpline
 70
8
 71
3
 72
8
 73
4
 74
0
 40
0
 40
0
 40
0
 40
0
 40
1
 40
1
 40
1
 40
1
 10
198.083535
 20
199.925446
 30
0.0
 10
185.290312
 20
213.967777
 30
0.0
 10
167.510865
 20
223.778648
 30
0.0
 10
147.773513
 20
227.687001
 30
0.0
  0
SPLINE
  5
2ca
100
AcDbEntity
  8
0
 62
7
100
AcDbSpline
 70
8
 71
3
 72
8
 73
4
 74
0
 40
0
 40
0
 40
0
 40
0
 40
1
 40
1
 40
1
 40
1
 10
147.773513
 20
227.687001
 30
0.0
 10
138.790470
 20
229.465808
 30
0.0
 10
118.403498
 20
229.459065
 30
0.0
 10
108.645480
 20
227.674056
 30
0.0
  0
SPLINE
  5
2cb
100
AcDbEntity
  8
0
 62
7
100
AcDbSpline
 70
8
 71
3
 72
8
 73
4
 74
0
 40
0
 40
0
 40
0
 40
0
 40
1
 40
1
 40
1
 40
1
 10
108.645480
 20
227.674056
 30
0.0
 10
74.020282
 20
221.340170
 30
0.0
 10
48.367139
 20
197.895627
 30
0.0
 10
34.077307
 20
159.525795
 30
0.0
  0
SPLINE
  5
2cc
100
AcDbEntity
  8
0
 62
7
100
AcDbSpline
 70
8
 71
3
 72
8
 73
4
 74
0
 40
0
 40
0
 40
0
 40
0
 40
1
 40
1
 40
1
 40
1
 10
34.077307
 20
159.525795
 30
0.0
 10
31.042634
 20
151.377353
 30
0.0
 10
30.991147
 20
151.150035
 30
0.0
 10
32.303654
 20
151.694310
 30
0.0
  0
SPLINE
  5
2cd
100
AcDbEntity
  8
0
 62
7
100
AcDbSpline
 70
8
 71
3
 72
8
 73
4
 74
0
 40
0
 40
0
 40
0
 40
0
 40
1
 40
1
 40
1
 40
1
 10
32.303654
 20
151.694310
 30
0.0
 10
32.819279
 20
151.908135
 30
0.0
 10
34.486837
 20
152.489955
 30
0.0
 10
36.009337
 20
152.987250
 30
0.0
  0
LWPOLYLINE
  5
2ce
100
AcDbEntity
  8
0
 62
7
100
AcDbPolyline
 90
3
 70
0
 10
220.405702
 20
154.654800
 30
0.0
 10
224.943907
 20
153.004057
 30
0.0
 10
224.423580
 20
154.654800
 30
0.0
  0
SPLINE
  5
2cf
100
AcDbEntity
  8
0
 62
7
100
AcDbSpline
 70
8
 71
3
 72
8
 73
4
 74
0
 40
0
 40
0
 40
0
 40
0
 40
1
 40
1
 40
1
 40
1
 10
64.943069
 20
159.022837
 30
0.0
 10
64.107577
 20
161.409307
 30
0.0
 10
67.089292
 20
166.066635
 30
0.0
 10
70.218794
 20
167.263312
 30
0.0
  0
SPLINE
  5
2d0
100
AcDbEntity
  8
0
 62
7
100
AcDbSpline
 70
8
 71
3
 72
8
 73
4
 74
0
 40
0
 40
0
 40
0
 40
0
 40
1
 40
1
 40
1
 40
1
 10
70.218794
 20
167.263312
 30
0.0
 10
71.168992
 20
167.626657
 30
0.0
 10
79.437742
 20
168.834952
 30
0.0
 10
88.593795
 20
169.948417
 30
0.0
  0
SPLINE
  5
2d1
100
AcDbEntity
  8
0
 62
7
100
AcDbSpline
 70
8
 71
3
 72
8
 73
4
 74
0
 40
0
 40
0
 40
0
 40
0
 40
1
 40
1
 40
1
 40
1
 10
88.593795
 20
169.948417
 30
0.0
 10
103.769168
 20
171.793890
 30
0.0
 10
107.628532
 20
171.975457
 30
0.0
 10
132.241155
 20
172.001827
 30
0.0
  0
SPLINE
  5
2d2
100
AcDbEntity
  8
0
 62
7
100
AcDbSpline
 70
8
 71
3
 72
8
 73
4
 74
0
 40
0
 40
0
 40
0
 40
0
 40
1
 40
1
 40
1
 40
1
 10
132.241155
 20
172.001827
 30
0.0
 10
153.436883
 20
172.024552
 30
0.0
 10
161.659605
 20
171.746235
 30
0.0
 10
170.491155
 20
170.707237
 30
0.0
  0
SPLINE
  5
2d3
100
AcDbEntity
  8
0
 62
7
100
AcDbSpline
 70
8
 71
3
 72
8
 73
4
 74
0
 40
0
 40
0
 40
0
 40
0
 40
1
 40
1
 40
1
 40
1
 10
170.491155
 20
170.707237
 30
0.0
 10
186.555120
 20
168.817365
 30
0.0
 10
189.953107
 20
167.307015
 30
0.0
 10
190.871347
 20
161.648565
 30
0.0
  0
SPLINE
  5
2d4
100
AcDbEntity
  8
0
 62
7
100
AcDbSpline
 70
8
 71
3
 72
8
 73
4
 74
0
 40
0
 40
0
 40
0
 40
0
 40
1
 40
1
 40
1
 40
1
 10
190.871347
 20
161.648565
 30
0.0
 10
191.292908
 20
159.050782
 30
0.0
 10
191.216835
 20
158.930737
 30
0.0
 10
189.151785
 20
158.934885
 30
0.0
  0
SPLINE
  5
2d5
100
AcDbEntity
  8
0
 62
7
100
AcDbSpline
 70
8
 71
3
 72
8
 73
4
 74
0
 40
0
 40
0
 40
0
 40
0
 40
1
 40
1
 40
1
 40
1
 10
189.151785
 20
158.934885
 30
0.0
 10
187.963440
 20
158.937135
 30
0.0
 10
184.966155
 20
159.279607
 30
0.0
 10
182.491155
 20
159.695617
 30
0.0
  0
SPLINE
  5
2d6
100
AcDbEntity
  8
0
 62
7
100
AcDbSpline
 70
8
 71
3
 72
8
 73
4
 74
0
 40
0
 40
0
 40
0
 40
0
 40
1
 40
1
 40
1
 40
1
 10
182.491155
 20
159.695617
 30
0.0
 10
158.756407
 20
163.685108
 30
0.0
 10
110.929267
 20
163.814662
 30
0.0
 10
81.616155
 20
159.968858
 30
0.0
  0
SPLINE
  5
2d7
100
AcDbEntity
  8
0
 62
7
100
AcDbSpline
 70
8
 71
3
 72
8
 73
4
 74
0
 40
0
 40
0
 40
0
 40
0
 40
1
 40
1
 40
1
 40
1
 10
81.616155
 20
159.968858
 30
0.0
 10
66.173489
 20
157.942823
 30
0.0
 10
65.337787
 20
157.895408
 30
0.0
 10
64.943069
 20
159.022838
 30
0.0
  0
LWPOLYLINE
  5
2d8
100
AcDbEntity
  8
0
 62
7
100
AcDbPolyline
 90
1
 70
1
 10
36.009337
 20
152.987250
 30
0.0
  0
SPLINE
  5
2d9
100
AcDbEntity
  8
0
 62
7
100
AcDbSpline
 70
8
 71
3
 72
8
 73
4
 74
0
 40
0
 40
0
 40
0
 40
0
 40
1
 40
1
 40
1
 40
1
 10
92.116155
 20
163.208438
 30
0.0
 10
109.658490
 20
165.033427
 30
0.0
 10
155.302095
 20
165.005970
 30
0.0
 10
171.241155
 20
163.160812
 30
0.0
  0
SPLINE
  5
2da
100
AcDbEntity
  8
0
 62
7
100
AcDbSpline
 70
8
 71
3
 72
8
 73
4
 74
0
 40
0
 40
0
 40
0
 40
0
 40
1
 40
1
 40
1
 40
1
 10
171.241155
 20
163.160812
 30
0.0
 10
177.428655
 20
162.444540
 30
0.0
 10
183.925530
 20
161.582520
 30
0.0
 10
185.678655
 20
161.245215
 30
0.0
  0
SPLINE
  5
2db
100
AcDbEntity
  8
0
 62
7
100
AcDbSpline
 70
8
 71
3
 72
8
 73
4
 74
0
 40
0
 40
0
 40
0
 40
0
 40
1
 40
1
 40
1
 40
1
 10
185.678655
 20
161.245215
 30
0.0
 10
188.214517
 20
160.757310
 30
0.0
 10
188.866155
 20
160.848660
 30
0.0
 10
188.866155
 20
161.692042
 30
0.0
  0
SPLINE
  5
2dc
100
AcDbEntity
  8
0
 62
7
100
AcDbSpline
 70
8
 71
3
 72
8
 73
4
 74
0
 40
0
 40
0
 40
0
 40
0
 40
1
 40
1
 40
1
 40
1
 10
188.866155
 20
161.692042
 30
0.0
 10
188.866155
 20
163.589925
 30
0.0
 10
185.089155
 20
166.312020
 30
0.0
 10
181.340190
 20
167.116035
 30
0.0
  0
SPLINE
  5
2dd
100
AcDbEntity
  8
0
 62
7
100
AcDbSpline
 70
8
 71
3
 72
8
 73
4
 74
0
 40
0
 40
0
 40
0
 40
0
 40
1
 40
1
 40
1
 40
1
 10
181.340190
 20
167.116035
 30
0.0
 10
166.210928
 20
170.360677
 30
0.0
 10
123.465675
 20
171.446272
 30
0.0
 10
100.741155
 20
169.162987
 30
0.0
  0
SPLINE
  5
2de
100
AcDbEntity
  8
0
 62
7
100
AcDbSpline
 70
8
 71
3
 72
8
 73
4
 74
0
 40
0
 40
0
 40
0
 40
0
 40
1
 40
1
 40
1
 40
1
 10
100.741155
 20
169.162987
 30
0.0
 10
71.352884
 20
166.210162
 30
0.0
 10
70.621034
 20
166.069620
 30
0.0
 10
68.127884
 20
162.900090
 30
0.0
  0
SPLINE
  5
2df
100
AcDbEntity
  8
0
 62
7
100
AcDbSpline
 70
8
 71
3
 72
8
 73
4
 74
0
 40
0
 40
0
 40
0
 40
0
 40
1
 40
1
 40
1
 40
1
 10
68.127884
 20
162.900090
 30
0.0
 10
67.296434
 20
161.843070
 30
0.0
 10
66.616154
 20
160.752945
 30
0.0
 10
66.616154
 20
160.477590
 30
0.0
  0
SPLINE
  5
2e0
100
AcDbEntity
  8
0
 62
7
100
AcDbSpline
 70
8
 71
3
 72
8
 73
4
 74
0
 40
0
 40
0
 40
0
 40
0
 40
1
 40
1
 40
1
 40
1
 10
66.616154
 20
160.477590
 30
0.0
 10
66.616154
 20
160.202235
 30
0.0
 10
69.569279
 20
160.414365
 30
0.0
 10
73.178654
 20
160.948973
 30
0.0
  0
SPLINE
  5
2e1
100
AcDbEntity
  8
0
 62
7
100
AcDbSpline
 70
8
 71
3
 72
8
 73
4
 74
0
 40
0
 40
0
 40
0
 40
0
 40
1
 40
1
 40
1
 40
1
 10
73.178654
 20
160.948973
 30
0.0
 10
76.788030
 20
161.483587
 30
0.0
 10
85.309905
 20
162.500340
 30
0.0
 10
92.116155
 20
163.208423
 30
0.0
  0
LWPOLYLINE
  5
2e2
100
AcDbEntity
  8
0
 62
7
100
AcDbPolyline
 90
1
 70
1
 10
64.943069
 20
159.022838
 30
0.0
  0
SPLINE
  5
2e3
100
AcDbEntity
  8
0
 62
7
100
AcDbSpline
 70
8
 71
3
 72
8
 73
4
 74
0
 40
0
 40
0
 40
0
 40
0
 40
1
 40
1
 40
1
 40
1
 10
70.366154
 20
171.013058
 30
0.0
 10
70.366154
 20
173.565427
 30
0.0
 10
75.772163
 20
181.646670
 30
0.0
 10
80.847030
 20
186.680543
 30
0.0
  0
SPLINE
  5
2e4
100
AcDbEntity
  8
0
 62
7
100
AcDbSpline
 70
8
 71
3
 72
8
 73
4
 74
0
 40
0
 40
0
 40
0
 40
0
 40
1
 40
1
 40
1
 40
1
 10
80.847030
 20
186.680543
 30
0.0
 10
93.310237
 20
199.043056
 30
0.0
 10
111.656625
 20
205.383746
 30
0.0
 10
132.241155
 20
204.442850
 30
0.0
  0
SPLINE
  5
2e5
100
AcDbEntity
  8
0
 62
7
100
AcDbSpline
 70
8
 71
3
 72
8
 73
4
 74
0
 40
0
 40
0
 40
0
 40
0
 40
1
 40
1
 40
1
 40
1
 10
132.241155
 20
204.442850
 30
0.0
 10
154.980465
 20
203.403461
 30
0.0
 10
173.077792
 20
193.852954
 30
0.0
 10
182.061442
 20
178.151175
 30
0.0
  0
SPLINE
  5
2e6
100
AcDbEntity
  8
0
 62
7
100
AcDbSpline
 70
8
 71
3
 72
8
 73
4
 74
0
 40
0
 40
0
 40
0
 40
0
 40
1
 40
1
 40
1
 40
1
 10
182.061442
 20
178.151175
 30
0.0
 10
184.940670
 20
173.118810
 30
0.0
 10
185.139750
 20
170.573767
 30
0.0
 10
182.604390
 20
171.210105
 30
0.0
  0
SPLINE
  5
2e7
100
AcDbEntity
  8
0
 62
7
100
AcDbSpline
 70
8
 71
3
 72
8
 73
4
 74
0
 40
0
 40
0
 40
0
 40
0
 40
1
 40
1
 40
1
 40
1
 10
182.604390
 20
171.210105
 30
0.0
 10
170.302545
 20
174.297675
 30
0.0
 10
115.556377
 20
175.358152
 30
0.0
 10
94.366155
 20
172.919355
 30
0.0
  0
SPLINE
  5
2e8
100
AcDbEntity
  8
0
 62
7
100
AcDbSpline
 70
8
 71
3
 72
8
 73
4
 74
0
 40
0
 40
0
 40
0
 40
0
 40
1
 40
1
 40
1
 40
1
 10
94.366155
 20
172.919355
 30
0.0
 10
88.384905
 20
172.230967
 30
0.0
 10
81.297405
 20
171.339907
 30
0.0
 10
78.616155
 20
170.939220
 30
0.0
  0
SPLINE
  5
2e9
100
AcDbEntity
  8
0
 62
7
100
AcDbSpline
 70
8
 71
3
 72
8
 73
4
 74
0
 40
0
 40
0
 40
0
 40
0
 40
1
 40
1
 40
1
 40
1
 10
78.616155
 20
170.939220
 30
0.0
 10
72.228997
 20
169.984725
 30
0.0
 10
70.366154
 20
170.001397
 30
0.0
 10
70.366154
 20
171.013020
 30
0.0
  0
LWPOLYLINE
  5
2ea
100
AcDbEntity
  8
0
 62
7
100
AcDbPolyline
 90
1
 70
1
 10
92.116155
 20
163.208423
 30
0.0
  0
SPLINE
  5
2eb
100
AcDbEntity
  8
0
 62
7
100
AcDbSpline
 70
8
 71
3
 72
8
 73
4
 74
0
 40
0
 40
0
 40
0
 40
0
 40
1
 40
1
 40
1
 40
1
 10
82.374300
 20
173.456265
 30
0.0
 10
98.651760
 20
175.645440
 30
0.0
 10
112.026997
 20
176.440650
 30
0.0
 10
132.241155
 20
176.421053
 30
0.0
  0
SPLINE
  5
2ec
100
AcDbEntity
  8
0
 62
7
100
AcDbSpline
 70
8
 71
3
 72
8
 73
4
 74
0
 40
0
 40
0
 40
0
 40
0
 40
1
 40
1
 40
1
 40
1
 10
132.241155
 20
176.421053
 30
0.0
 10
150.662610
 20
176.403203
 30
0.0
 10
177.560933
 20
174.768060
 30
0.0
 10
180.973148
 20
173.458673
 30
0.0
  0
SPLINE
  5
2ed
100
AcDbEntity
  8
0
 62
7
100
AcDbSpline
 70
8
 71
3
 72
8
 73
4
 74
0
 40
0
 40
0
 40
0
 40
0
 40
1
 40
1
 40
1
 40
1
 10
180.973148
 20
173.458673
 30
0.0
 10
182.592818
 20
172.837148
 30
0.0
 10
181.792170
 20
174.787823
 30
0.0
 10
178.286625
 20
180.004095
 30
0.0
  0
SPLINE
  5
2ee
100
AcDbEntity
  8
0
 62
7
100
AcDbSpline
 70
8
 71
3
 72
8
 73
4
 74
0
 40
0
 40
0
 40
0
 40
0
 40
1
 40
1
 40
1
 40
1
 10
178.286625
 20
180.004095
 30
0.0
 10
170.996378
 20
190.852005
 30
0.0
 10
156.833738
 20
199.157994
 30
0.0
 10
141.338730
 20
201.672983
 30
0.0
  0
SPLINE
  5
2ef
100
AcDbEntity
  8
0
 62
7
100
AcDbSpline
 70
8
 71
3
 72
8
 73
4
 74
0
 40
0
 40
0
 40
0
 40
0
 40
1
 40
1
 40
1
 40
1
 10
141.338730
 20
201.672983
 30
0.0
 10
135.334883
 20
202.647465
 30
0.0
 10
122.277473
 20
202.626698
 30
0.0
 10
116.116155
 20
201.632865
 30
0.0
  0
SPLINE
  5
2f0
100
AcDbEntity
  8
0
 62
7
100
AcDbSpline
 70
8
 71
3
 72
8
 73
4
 74
0
 40
0
 40
0
 40
0
 40
0
 40
1
 40
1
 40
1
 40
1
 10
116.116155
 20
201.632865
 30
0.0
 10
108.863678
 20
200.463029
 30
0.0
 10
98.977433
 20
196.926416
 30
0.0
 10
92.774925
 20
193.282988
 30
0.0
  0
SPLINE
  5
2f1
100
AcDbEntity
  8
0
 62
7
100
AcDbSpline
 70
8
 71
3
 72
8
 73
4
 74
0
 40
0
 40
0
 40
0
 40
0
 40
1
 40
1
 40
1
 40
1
 10
92.774925
 20
193.282988
 30
0.0
 10
86.074245
 20
189.346935
 30
0.0
 10
77.503088
 20
180.977250
 30
0.0
 10
74.571817
 20
175.507748
 30
0.0
  0
SPLINE
  5
2f2
100
AcDbEntity
  8
0
 62
7
100
AcDbSpline
 70
8
 71
3
 72
8
 73
4
 74
0
 40
0
 40
0
 40
0
 40
0
 40
1
 40
1
 40
1
 40
1
 10
74.571817
 20
175.507748
 30
0.0
 10
73.378679
 20
173.281463
 30
0.0
 10
72.707347
 20
171.648375
 30
0.0
 10
73.079962
 20
171.878670
 30
0.0
  0
SPLINE
  5
2f3
100
AcDbEntity
  8
0
 62
7
100
AcDbSpline
 70
8
 71
3
 72
8
 73
4
 74
0
 40
0
 40
0
 40
0
 40
0
 40
1
 40
1
 40
1
 40
1
 10
73.079962
 20
171.878670
 30
0.0
 10
73.452577
 20
172.108958
 30
0.0
 10
77.635028
 20
172.818878
 30
0.0
 10
82.374300
 20
173.456265
 30
0.0
  0
LWPOLYLINE
  5
2f4
100
AcDbEntity
  8
0
 62
7
100
AcDbPolyline
 90
1
 70
1
 10
70.366154
 20
171.013020
 30
0.0
  0
LWPOLYLINE
  5
2f5
100
AcDbEntity
  8
0
 62
7
100
AcDbPolyline
 90
1
 70
1
 10
82.374300
 20
173.456265
 30
0.0
  0
SPLINE
  5
2f6
100
AcDbEntity
  8
0
 62
7
100
AcDbSpline
 70
8
 71
3
 72
8
 73
4
 74
0
 40
0
 40
0
 40
0
 40
0
 40
1
 40
1
 40
1
 40
1
 10
23.924107
 20
220.916239
 30
0.0
 10
19.784189
 20
219.259772
 30
0.0
 10
17.322727
 20
219.375836
 30
0.0
 10
13.756439
 20
221.395669
 30
0.0
  0
SPLINE
  5
2f7
100
AcDbEntity
  8
0
 62
7
100
AcDbSpline
 70
8
 71
3
 72
8
 73
4
 74
0
 40
0
 40
0
 40
0
 40
0
 40
1
 40
1
 40
1
 40
1
 10
13.756439
 20
221.395669
 30
0.0
 10
8.442547
 20
224.405291
 30
0.0
 10
5.817847
 20
231.912608
 30
0.0
 10
8.325142
 20
236.930543
 30
0.0
  0
SPLINE
  5
2f8
100
AcDbEntity
  8
0
 62
7
100
AcDbSpline
 70
8
 71
3
 72
8
 73
4
 74
0
 40
0
 40
0
 40
0
 40
0
 40
1
 40
1
 40
1
 40
1
 10
8.325142
 20
236.930543
 30
0.0
 10
9.460522
 20
239.202810
 30
0.0
 10
13.650067
 20
241.427790
 30
0.0
 10
16.796272
 20
241.429380
 30
0.0
  0
SPLINE
  5
2f9
100
AcDbEntity
  8
0
 62
7
100
AcDbSpline
 70
8
 71
3
 72
8
 73
4
 74
0
 40
0
 40
0
 40
0
 40
0
 40
1
 40
1
 40
1
 40
1
 10
16.796272
 20
241.429380
 30
0.0
 10
19.026734
 20
241.430130
 30
0.0
 10
19.129184
 20
241.579958
 30
0.0
 10
19.959292
 20
246.043643
 30
0.0
  0
SPLINE
  5
2fa
100
AcDbEntity
  8
0
 62
7
100
AcDbSpline
 70
8
 71
3
 72
8
 73
4
 74
0
 40
0
 40
0
 40
0
 40
0
 40
1
 40
1
 40
1
 40
1
 10
19.959292
 20
246.043643
 30
0.0
 10
20.926379
 20
251.243887
 30
0.0
 10
22.765454
 20
253.700955
 30
0.0
 10
26.650327
 20
254.983072
 30
0.0
  0
SPLINE
  5
2fb
100
AcDbEntity
  8
0
 62
7
100
AcDbSpline
 70
8
 71
3
 72
8
 73
4
 74
0
 40
0
 40
0
 40
0
 40
0
 40
1
 40
1
 40
1
 40
1
 10
26.650327
 20
254.983072
 30
0.0
 10
29.722259
 20
255.996907
 30
0.0
 10
33.115822
 20
255.460095
 30
0.0
 10
36.435509
 20
253.435215
 30
0.0
  0
SPLINE
  5
2fc
100
AcDbEntity
  8
0
 62
7
100
AcDbSpline
 70
8
 71
3
 72
8
 73
4
 74
0
 40
0
 40
0
 40
0
 40
0
 40
1
 40
1
 40
1
 40
1
 10
36.435509
 20
253.435215
 30
0.0
 10
41.934097
 20
250.081290
 30
0.0
 10
43.582514
 20
242.669062
 30
0.0
 10
40.002892
 20
237.394200
 30
0.0
  0
LWPOLYLINE
  5
2fd
100
AcDbEntity
  8
0
 62
7
100
AcDbPolyline
 90
3
 70
0
 10
36.498104
 20
212.666239
 30
0.0
 10
27.012412
 20
222.151934
 30
0.0
 10
23.924107
 20
220.916239
 30
0.0
  0
SPLINE
  5
2fe
100
AcDbEntity
  8
0
 62
7
100
AcDbSpline
 70
8
 71
3
 72
8
 73
4
 74
0
 40
0
 40
0
 40
0
 40
0
 40
1
 40
1
 40
1
 40
1
 10
52.310339
 20
208.749356
 30
0.0
 10
49.267934
 20
205.686510
 30
0.0
 10
46.599847
 20
203.180544
 30
0.0
 10
46.381244
 20
203.180544
 30
0.0
  0
SPLINE
  5
2ff
100
AcDbEntity
  8
0
 62
7
100
AcDbSpline
 70
8
 71
3
 72
8
 73
4
 74
0
 40
0
 40
0
 40
0
 40
0
 40
1
 40
1
 40
1
 40
1
 10
46.381244
 20
203.180544
 30
0.0
 10
46.162649
 20
203.180544
 30
0.0
 10
41.715239
 20
207.449107
 30
0.0
 10
36.498104
 20
212.666239
 30
0.0
  0
LWPOLYLINE
  5
300
100
AcDbEntity
  8
0
 62
7
100
AcDbPolyline
 90
5
 70
0
 10
40.002892
 20
237.394200
 30
0.0
 10
38.139637
 20
234.648532
 30
0.0
 10
47.990812
 20
224.483353
 30
0.0
 10
57.841987
 20
214.318169
 30
0.0
 10
52.310339
 20
208.749356
 30
0.0
  0
LWPOLYLINE
  5
301
100
AcDbEntity
  8
0
 62
7
100
AcDbPolyline
 90
1
 70
1
 10
36.498104
 20
212.666239
 30
0.0
  0
SPLINE
  5
302
100
AcDbEntity
  8
0
 62
7
100
AcDbSpline
 70
8
 71
3
 72
8
 73
4
 74
0
 40
0
 40
0
 40
0
 40
0
 40
1
 40
1
 40
1
 40
1
 10
46.935524
 20
222.485672
 30
0.0
 10
38.611927
 20
230.892660
 30
0.0
 10
35.866154
 20
234.057653
 30
0.0
 10
35.866154
 20
235.245097
 30
0.0
  0
SPLINE
  5
303
100
AcDbEntity
  8
0
 62
7
100
AcDbSpline
 70
8
 71
3
 72
8
 73
4
 74
0
 40
0
 40
0
 40
0
 40
0
 40
1
 40
1
 40
1
 40
1
 10
35.866154
 20
235.245097
 30
0.0
 10
35.866154
 20
235.631730
 30
0.0
 10
36.528449
 20
236.547427
 30
0.0
 10
37.337917
 20
237.279990
 30
0.0
  0
SPLINE
  5
304
100
AcDbEntity
  8
0
 62
7
100
AcDbSpline
 70
8
 71
3
 72
8
 73
4
 74
0
 40
0
 40
0
 40
0
 40
0
 40
1
 40
1
 40
1
 40
1
 10
37.337917
 20
237.279990
 30
0.0
 10
43.072492
 20
242.469713
 30
0.0
 10
39.039704
 20
252.095827
 30
0.0
 10
30.660059
 20
253.219777
 30
0.0
  0
SPLINE
  5
305
100
AcDbEntity
  8
0
 62
7
100
AcDbSpline
 70
8
 71
3
 72
8
 73
4
 74
0
 40
0
 40
0
 40
0
 40
0
 40
1
 40
1
 40
1
 40
1
 10
30.660059
 20
253.219777
 30
0.0
 10
25.203007
 20
253.951718
 30
0.0
 10
21.616154
 20
249.758670
 30
0.0
 10
21.616154
 20
242.647402
 30
0.0
  0
LWPOLYLINE
  5
306
100
AcDbEntity
  8
0
 62
7
100
AcDbPolyline
 90
3
 70
0
 10
50.858872
 20
210.298172
 30
0.0
 10
54.925357
 20
214.415801
 30
0.0
 10
46.935524
 20
222.485672
 30
0.0
  0
SPLINE
  5
307
100
AcDbEntity
  8
0
 62
7
100
AcDbSpline
 70
8
 71
3
 72
8
 73
4
 74
0
 40
0
 40
0
 40
0
 40
0
 40
1
 40
1
 40
1
 40
1
 10
18.428152
 20
239.364300
 30
0.0
 10
9.042682
 20
239.506185
 30
0.0
 10
6.177892
 20
231.138960
 30
0.0
 10
13.383179
 20
224.629417
 30
0.0
  0
SPLINE
  5
308
100
AcDbEntity
  8
0
 62
7
100
AcDbSpline
 70
8
 71
3
 72
8
 73
4
 74
0
 40
0
 40
0
 40
0
 40
0
 40
1
 40
1
 40
1
 40
1
 10
13.383179
 20
224.629417
 30
0.0
 10
16.907242
 20
221.445640
 30
0.0
 10
20.409292
 20
221.062356
 30
0.0
 10
24.255569
 20
223.439483
 30
0.0
  0
SPLINE
  5
309
100
AcDbEntity
  8
0
 62
7
100
AcDbSpline
 70
8
 71
3
 72
8
 73
4
 74
0
 40
0
 40
0
 40
0
 40
0
 40
1
 40
1
 40
1
 40
1
 10
24.255569
 20
223.439483
 30
0.0
 10
25.598377
 20
224.269384
 30
0.0
 10
27.156959
 20
224.768516
 30
0.0
 10
27.719092
 20
224.548666
 30
0.0
  0
SPLINE
  5
30a
100
AcDbEntity
  8
0
 62
7
100
AcDbSpline
 70
8
 71
3
 72
8
 73
4
 74
0
 40
0
 40
0
 40
0
 40
0
 40
1
 40
1
 40
1
 40
1
 10
27.719092
 20
224.548666
 30
0.0
 10
28.281224
 20
224.328815
 30
0.0
 10
32.622404
 20
220.119896
 30
0.0
 10
37.366154
 20
215.195512
 30
0.0
  0
SPLINE
  5
30b
100
AcDbEntity
  8
0
 62
7
100
AcDbSpline
 70
8
 71
3
 72
8
 73
4
 74
0
 40
0
 40
0
 40
0
 40
0
 40
1
 40
1
 40
1
 40
1
 10
37.366154
 20
215.195512
 30
0.0
 10
42.109904
 20
210.271128
 30
0.0
 10
46.171432
 20
206.228246
 30
0.0
 10
46.391774
 20
206.211330
 30
0.0
  0
SPLINE
  5
30c
100
AcDbEntity
  8
0
 62
7
100
AcDbSpline
 70
8
 71
3
 72
8
 73
4
 74
0
 40
0
 40
0
 40
0
 40
0
 40
1
 40
1
 40
1
 40
1
 10
46.391774
 20
206.211330
 30
0.0
 10
46.612117
 20
206.194418
 30
0.0
 10
48.622312
 20
208.033507
 30
0.0
 10
50.858872
 20
210.298202
 30
0.0
  0
LWPOLYLINE
  5
30d
100
AcDbEntity
  8
0
 62
7
100
AcDbPolyline
 90
3
 70
0
 10
21.616154
 20
242.647402
 30
0.0
 10
21.616154
 20
239.316075
 30
0.0
 10
18.428152
 20
239.364300
 30
0.0
  0
SPLINE
  5
30e
100
AcDbEntity
  8
0
 62
7
100
AcDbSpline
 70
8
 71
3
 72
8
 73
4
 74
0
 40
0
 40
0
 40
0
 40
0
 40
1
 40
1
 40
1
 40
1
 10
203.303655
 20
209.579186
 30
0.0
 10
200.725530
 20
212.163606
 30
0.0
 10
198.616155
 20
214.512315
 30
0.0
 10
198.616155
 20
214.798541
 30
0.0
  0
SPLINE
  5
30f
100
AcDbEntity
  8
0
 62
7
100
AcDbSpline
 70
8
 71
3
 72
8
 73
4
 74
0
 40
0
 40
0
 40
0
 40
0
 40
1
 40
1
 40
1
 40
1
 10
198.616155
 20
214.798541
 30
0.0
 10
198.616155
 20
215.776987
 30
0.0
 10
201.702960
 20
219.305729
 30
0.0
 10
209.184083
 20
226.879480
 30
0.0
  0
SPLINE
  5
310
100
AcDbEntity
  8
0
 62
7
100
AcDbSpline
 70
8
 71
3
 72
8
 73
4
 74
0
 40
0
 40
0
 40
0
 40
0
 40
1
 40
1
 40
1
 40
1
 10
209.184083
 20
226.879480
 30
0.0
 10
216.267517
 20
234.050625
 30
0.0
 10
216.624188
 20
234.561765
 30
0.0
 10
215.890770
 20
236.490803
 30
0.0
  0
SPLINE
  5
311
100
AcDbEntity
  8
0
 62
7
100
AcDbSpline
 70
8
 71
3
 72
8
 73
4
 74
0
 40
0
 40
0
 40
0
 40
0
 40
1
 40
1
 40
1
 40
1
 10
215.890770
 20
236.490803
 30
0.0
 10
215.464733
 20
237.611370
 30
0.0
 10
215.116155
 20
240.375915
 30
0.0
 10
215.116155
 20
242.634248
 30
0.0
  0
SPLINE
  5
312
100
AcDbEntity
  8
0
 62
7
100
AcDbSpline
 70
8
 71
3
 72
8
 73
4
 74
0
 40
0
 40
0
 40
0
 40
0
 40
1
 40
1
 40
1
 40
1
 10
215.116155
 20
242.634248
 30
0.0
 10
215.116155
 20
250.359375
 30
0.0
 10
219.607485
 20
255.671925
 30
0.0
 10
226.143368
 20
255.677738
 30
0.0
  0
SPLINE
  5
313
100
AcDbEntity
  8
0
 62
7
100
AcDbSpline
 70
8
 71
3
 72
8
 73
4
 74
0
 40
0
 40
0
 40
0
 40
0
 40
1
 40
1
 40
1
 40
1
 10
226.143368
 20
255.677738
 30
0.0
 10
232.659195
 20
255.683738
 30
0.0
 10
236.609393
 20
251.575800
 30
0.0
 10
235.925213
 20
245.505773
 30
0.0
  0
LWPOLYLINE
  5
314
100
AcDbEntity
  8
0
 62
7
100
AcDbPolyline
 90
1
 70
1
 10
50.858872
 20
210.298202
 30
0.0
  0
SPLINE
  5
315
100
AcDbEntity
  8
0
 62
7
100
AcDbSpline
 70
8
 71
3
 72
8
 73
4
 74
0
 40
0
 40
0
 40
0
 40
0
 40
1
 40
1
 40
1
 40
1
 10
238.068105
 20
242.180543
 30
0.0
 10
241.947990
 20
242.180543
 30
0.0
 10
246.525698
 20
240.030982
 30
0.0
 10
247.769970
 20
237.624825
 30
0.0
  0
SPLINE
  5
316
100
AcDbEntity
  8
0
 62
7
100
AcDbSpline
 70
8
 71
3
 72
8
 73
4
 74
0
 40
0
 40
0
 40
0
 40
0
 40
1
 40
1
 40
1
 40
1
 10
247.769970
 20
237.624825
 30
0.0
 10
250.471380
 20
232.400872
 30
0.0
 10
248.127218
 20
224.200298
 30
0.0
 10
243.032453
 20
221.051558
 30
0.0
  0
SPLINE
  5
317
100
AcDbEntity
  8
0
 62
7
100
AcDbSpline
 70
8
 71
3
 72
8
 73
4
 74
0
 40
0
 40
0
 40
0
 40
0
 40
1
 40
1
 40
1
 40
1
 10
243.032453
 20
221.051558
 30
0.0
 10
239.885047
 20
219.106356
 30
0.0
 10
235.067085
 20
219.473267
 30
0.0
 10
231.631223
 20
221.919817
 30
0.0
  0
LWPOLYLINE
  5
318
100
AcDbEntity
  8
0
 62
7
100
AcDbPolyline
 90
3
 70
0
 10
235.925213
 20
245.505773
 30
0.0
 10
235.550408
 20
242.180543
 30
0.0
 10
238.068105
 20
242.180543
 30
0.0
  0
SPLINE
  5
319
100
AcDbEntity
  8
0
 62
7
100
AcDbSpline
 70
8
 71
3
 72
8
 73
4
 74
0
 40
0
 40
0
 40
0
 40
0
 40
1
 40
1
 40
1
 40
1
 10
226.875218
 20
221.474925
 30
0.0
 10
225.563985
 20
220.301301
 30
0.0
 10
221.165542
 20
216.042446
 30
0.0
 10
217.100903
 20
212.010803
 30
0.0
  0
SPLINE
  5
31a
100
AcDbEntity
  8
0
 62
7
100
AcDbSpline
 70
8
 71
3
 72
8
 73
4
 74
0
 40
0
 40
0
 40
0
 40
0
 40
1
 40
1
 40
1
 40
1
 10
217.100903
 20
212.010803
 30
0.0
 10
213.036263
 20
207.979161
 30
0.0
 10
209.323762
 20
204.725476
 30
0.0
 10
208.850903
 20
204.780393
 30
0.0
  0
SPLINE
  5
31b
100
AcDbEntity
  8
0
 62
7
100
AcDbSpline
 70
8
 71
3
 72
8
 73
4
 74
0
 40
0
 40
0
 40
0
 40
0
 40
1
 40
1
 40
1
 40
1
 10
208.850903
 20
204.780393
 30
0.0
 10
208.378043
 20
204.835308
 30
0.0
 10
205.881780
 20
206.994767
 30
0.0
 10
203.303655
 20
209.579186
 30
0.0
  0
LWPOLYLINE
  5
31c
100
AcDbEntity
  8
0
 62
7
100
AcDbPolyline
 90
3
 70
0
 10
231.631223
 20
221.919817
 30
0.0
 10
229.259280
 20
223.608788
 30
0.0
 10
226.875218
 20
221.474925
 30
0.0
  0
SPLINE
  5
31d
100
AcDbEntity
  8
0
 62
7
100
AcDbSpline
 70
8
 71
3
 72
8
 73
4
 74
0
 40
0
 40
0
 40
0
 40
0
 40
1
 40
1
 40
1
 40
1
 10
218.675310
 20
216.680544
 30
0.0
 10
223.853768
 20
221.630544
 30
0.0
 10
228.553658
 20
225.680544
 30
0.0
 10
229.119503
 20
225.680544
 30
0.0
  0
SPLINE
  5
31e
100
AcDbEntity
  8
0
 62
7
100
AcDbSpline
 70
8
 71
3
 72
8
 73
4
 74
0
 40
0
 40
0
 40
0
 40
0
 40
1
 40
1
 40
1
 40
1
 10
229.119503
 20
225.680544
 30
0.0
 10
229.685348
 20
225.680544
 30
0.0
 10
231.508305
 20
224.780544
 30
0.0
 10
233.170523
 20
223.680544
 30
0.0
  0
SPLINE
  5
31f
100
AcDbEntity
  8
0
 62
7
100
AcDbSpline
 70
8
 71
3
 72
8
 73
4
 74
0
 40
0
 40
0
 40
0
 40
0
 40
1
 40
1
 40
1
 40
1
 10
233.170523
 20
223.680544
 30
0.0
 10
234.832733
 20
222.580544
 30
0.0
 10
237.198270
 20
221.680544
 30
0.0
 10
238.427265
 20
221.680544
 30
0.0
  0
SPLINE
  5
320
100
AcDbEntity
  8
0
 62
7
100
AcDbSpline
 70
8
 71
3
 72
8
 73
4
 74
0
 40
0
 40
0
 40
0
 40
0
 40
1
 40
1
 40
1
 40
1
 10
238.427265
 20
221.680544
 30
0.0
 10
243.011527
 20
221.680544
 30
0.0
 10
248.173290
 20
229.328528
 30
0.0
 10
246.930638
 20
234.279653
 30
0.0
  0
SPLINE
  5
321
100
AcDbEntity
  8
0
 62
7
100
AcDbSpline
 70
8
 71
3
 72
8
 73
4
 74
0
 40
0
 40
0
 40
0
 40
0
 40
1
 40
1
 40
1
 40
1
 10
246.930638
 20
234.279653
 30
0.0
 10
246.667628
 20
235.327575
 30
0.0
 10
245.450873
 20
237.027720
 30
0.0
 10
244.226753
 20
238.057755
 30
0.0
  0
SPLINE
  5
322
100
AcDbEntity
  8
0
 62
7
100
AcDbSpline
 70
8
 71
3
 72
8
 73
4
 74
0
 40
0
 40
0
 40
0
 40
0
 40
1
 40
1
 40
1
 40
1
 10
244.226753
 20
238.057755
 30
0.0
 10
242.393580
 20
239.600265
 30
0.0
 10
241.205993
 20
239.930543
 30
0.0
 10
237.492690
 20
239.930543
 30
0.0
  0
LWPOLYLINE
  5
323
100
AcDbEntity
  8
0
 62
7
100
AcDbPolyline
 90
1
 70
1
 10
203.303655
 20
209.579186
 30
0.0
  0
SPLINE
  5
324
100
AcDbEntity
  8
0
 62
7
100
AcDbSpline
 70
8
 71
3
 72
8
 73
4
 74
0
 40
0
 40
0
 40
0
 40
0
 40
1
 40
1
 40
1
 40
1
 10
233.547037
 20
243.118043
 30
0.0
 10
234.316770
 20
247.478033
 30
0.0
 10
234.178890
 20
248.595683
 30
0.0
 10
232.601550
 20
250.782060
 30
0.0
  0
SPLINE
  5
325
100
AcDbEntity
  8
0
 62
7
100
AcDbSpline
 70
8
 71
3
 72
8
 73
4
 74
0
 40
0
 40
0
 40
0
 40
0
 40
1
 40
1
 40
1
 40
1
 10
232.601550
 20
250.782060
 30
0.0
 10
230.566298
 20
253.603185
 30
0.0
 10
226.594290
 20
254.609363
 30
0.0
 10
223.159020
 20
253.174020
 30
0.0
  0
SPLINE
  5
326
100
AcDbEntity
  8
0
 62
7
100
AcDbSpline
 70
8
 71
3
 72
8
 73
4
 74
0
 40
0
 40
0
 40
0
 40
0
 40
1
 40
1
 40
1
 40
1
 10
223.159020
 20
253.174020
 30
0.0
 10
217.835730
 20
250.949805
 30
0.0
 10
215.533852
 20
244.450778
 30
0.0
 10
217.754948
 20
237.916410
 30
0.0
  0
LWPOLYLINE
  5
327
100
AcDbEntity
  8
0
 62
7
100
AcDbPolyline
 90
3
 70
0
 10
237.492690
 20
239.930543
 30
0.0
 10
232.984305
 20
239.930543
 30
0.0
 10
233.547037
 20
243.118043
 30
0.0
  0
SPLINE
  5
328
100
AcDbEntity
  8
0
 62
7
100
AcDbSpline
 70
8
 71
3
 72
8
 73
4
 74
0
 40
0
 40
0
 40
0
 40
0
 40
1
 40
1
 40
1
 40
1
 10
204.744000
 20
211.465886
 30
0.0
 10
206.942437
 20
209.415398
 30
0.0
 10
208.857878
 20
207.724861
 30
0.0
 10
209.000542
 20
207.709136
 30
0.0
  0
SPLINE
  5
329
100
AcDbEntity
  8
0
 62
7
100
AcDbSpline
 70
8
 71
3
 72
8
 73
4
 74
0
 40
0
 40
0
 40
0
 40
0
 40
1
 40
1
 40
1
 40
1
 10
209.000542
 20
207.709136
 30
0.0
 10
209.143200
 20
207.693408
 30
0.0
 10
213.496845
 20
211.730544
 30
0.0
 10
218.675310
 20
216.680544
 30
0.0
  0
LWPOLYLINE
  5
32a
100
AcDbEntity
  8
0
 62
7
100
AcDbPolyline
 90
5
 70
0
 10
217.754948
 20
237.916410
 30
0.0
 10
219.111780
 20
233.924678
 30
0.0
 10
209.929313
 20
224.559362
 30
0.0
 10
200.746845
 20
215.194045
 30
0.0
 10
204.744000
 20
211.465886
 30
0.0
  0
LWPOLYLINE
  5
32b
100
AcDbEntity
  8
0
 62
7
100
AcDbPolyline
 90
1
 70
1
 10
218.675310
 20
216.680544
 30
0.0
  0
ENDSEC
  0
SECTION
  2
OBJECTS
  0
DICTIONARY
  5
C
330
0
100
AcDbDictionary
  3
ACAD_GROUP
350
D
  3
ACAD_MLINESTYLE
350
17
  0
DICTIONARY
  5
D
330
C
100
AcDbDictionary
  0
DICTIONARY
  5
1A
330
C
100
AcDbDictionary
  0
DICTIONARY
  5
17
330
C
100
AcDbDictionary
  3
STANDARD
350
18
  0
DICTIONARY
  5
19
330
C
100
AcDbDictionary
  0
ENDSEC
  0
EOF
