  0
SECTION
  2
HEADER
  9
$ACADVER
  1
AC1009
  9
$DWGCODEPAGE
  3
ansi_1252
  9
$INSBASE
 10
0.0
 20
0.0
 30
0.0
  9
$EXTMIN
 10
-0.0000000000000009
 20
0.0
 30
0.0
  9
$EXTMAX
 10
108.5
 20
65.0
 30
0.0
  9
$LIMMIN
 10
0.0
 20
0.0
  9
$LIMMAX
 10
12.0
 20
9.0
  9
$ORTHOMODE
 70
     0
  9
$REGENMODE
 70
     1
  9
$FILLMODE
 70
     1
  9
$QTEXTMODE
 70
     0
  9
$MIRRTEXT
 70
     1
  9
$DRAGMODE
 70
     2
  9
$LTSCALE
 40
1.0
  9
$OSMODE
 70
    37
  9
$ATTMODE
 70
     1
  9
$TEXTSIZE
 40
0.2
  9
$TRACEWID
 40
0.05
  9
$TEXTSTYLE
  7
STANDARD
  9
$CLAYER
  8
STANDARD
  9
$CELTYPE
  6
BYLAYER
  9
$CECOLOR
 62
   256
  9
$DIMSCALE
 40
1.0
  9
$DIMASZ
 40
0.18
  9
$DIMEXO
 40
0.0625
  9
$DIMDLI
 40
0.38
  9
$DIMRND
 40
0.0
  9
$DIMDLE
 40
0.0
  9
$DIMEXE
 40
0.18
  9
$DIMTP
 40
0.0
  9
$DIMTM
 40
0.0
  9
$DIMTXT
 40
0.18
  9
$DIMCEN
 40
0.09
  9
$DIMTSZ
 40
0.0
  9
$DIMTOL
 70
     0
  9
$DIMLIM
 70
     0
  9
$DIMTIH
 70
     1
  9
$DIMTOH
 70
     1
  9
$DIMSE1
 70
     0
  9
$DIMSE2
 70
     0
  9
$DIMTAD
 70
     0
  9
$DIMZIN
 70
     0
  9
$DIMBLK
  1

  9
$DIMASO
 70
     1
  9
$DIMSHO
 70
     1
  9
$DIMPOST
  1

  9
$DIMAPOST
  1

  9
$DIMALT
 70
     0
  9
$DIMALTD
 70
     2
  9
$DIMALTF
 40
25.4
  9
$DIMLFAC
 40
1.0
  9
$DIMTOFL
 70
     0
  9
$DIMTVP
 40
0.0
  9
$DIMTIX
 70
     0
  9
$DIMSOXD
 70
     0
  9
$DIMSAH
 70
     0
  9
$DIMBLK1
  1

  9
$DIMBLK2
  1

  9
$DIMSTYLE
  2
STANDARD
  9
$DIMCLRD
 70
     0
  9
$DIMCLRE
 70
     0
  9
$DIMCLRT
 70
     0
  9
$DIMTFAC
 40
1.0
  9
$DIMGAP
 40
0.09
  9
$LUNITS
 70
     2
  9
$LUPREC
 70
     3
  9
$SKETCHINC
 40
0.1
  9
$FILLETRAD
 40
0.5
  9
$AUNITS
 70
     0
  9
$AUPREC
 70
     0
  9
$MENU
  1
.
  9
$ELEVATION
 40
0.0
  9
$PELEVATION
 40
0.0
  9
$THICKNESS
 40
0.0
  9
$LIMCHECK
 70
     0
  9
$CHAMFERA
 40
0.0
  9
$CHAMFERB
 40
0.0
  9
$SKPOLY
 70
     0
  9
$TDCREATE
 40
2458065.780318137
  9
$TDUPDATE
 40
2458065.780318137
  9
$TDINDWG
 40
0.0000000116
  9
$TDUSRTIMER
 40
0.0000000116
  9
$USRTIMER
 70
     1
  9
$ANGBASE
 50
0.0
  9
$ANGDIR
 70
     0
  9
$PDMODE
 70
     0
  9
$PDSIZE
 40
0.0
  9
$PLINEWID
 40
0.0
  9
$COORDS
 70
     1
  9
$SPLFRAME
 70
     0
  9
$SPLINETYPE
 70
     6
  9
$SPLINESEGS
 70
     8
  9
$ATTDIA
 70
     0
  9
$ATTREQ
 70
     1
  9
$HANDLING
 70
     1
  9
$HANDSEED
  5
1DE
  9
$SURFTAB1
 70
     6
  9
$SURFTAB2
 70
     6
  9
$SURFTYPE
 70
     6
  9
$SURFU
 70
     6
  9
$SURFV
 70
     6
  9
$UCSNAME
  2

  9
$UCSORG
 10
0.0
 20
0.0
 30
0.0
  9
$UCSXDIR
 10
1.0
 20
0.0
 30
0.0
  9
$UCSYDIR
 10
0.0
 20
1.0
 30
0.0
  9
$PUCSNAME
  2

  9
$PUCSORG
 10
0.0
 20
0.0
 30
0.0
  9
$PUCSXDIR
 10
1.0
 20
0.0
 30
0.0
  9
$PUCSYDIR
 10
0.0
 20
1.0
 30
0.0
  9
$USERI1
 70
     0
  9
$USERI2
 70
     0
  9
$USERI3
 70
     0
  9
$USERI4
 70
     0
  9
$USERI5
 70
     0
  9
$USERR1
 40
0.0
  9
$USERR2
 40
0.0
  9
$USERR3
 40
0.0
  9
$USERR4
 40
0.0
  9
$USERR5
 40
0.0
  9
$WORLDVIEW
 70
     1
  9
$SHADEDGE
 70
     3
  9
$SHADEDIF
 70
    70
  9
$TILEMODE
 70
     1
  9
$MAXACTVP
 70
    64
  9
$PLIMCHECK
 70
     0
  9
$PEXTMIN
 10
1.000000000000000E+20
 20
1.000000000000000E+20
 30
1.000000000000000E+20
  9
$PEXTMAX
 10
-1.000000000000000E+20
 20
-1.000000000000000E+20
 30
-1.000000000000000E+20
  9
$PLIMMIN
 10
0.0
 20
0.0
  9
$PLIMMAX
 10
12.0
 20
9.0
  9
$UNITMODE
 70
     0
  9
$VISRETAIN
 70
     1
  9
$PLINEGEN
 70
     0
  9
$PSLTSCALE
 70
     1
  0
ENDSEC
  0
SECTION
  2
TABLES
  0
TABLE
  2
VPORT
 70
     1
  0
VPORT
  2
*ACTIVE
 70
     0
 10
0.0
 20
0.0
 11
1.0
 21
1.0
 12
54.25
 22
32.5
 13
0.0
 23
0.0
 14
0.5
 24
0.5
 15
0.5
 25
0.5
 16
0.0
 26
0.0
 36
1.0
 17
0.0
 27
0.0
 37
0.0
 40
66.3
 41
1.669230769230769
 42
50.0
 43
0.0
 44
0.0
 50
0.0
 51
0.0
 71
     0
 72
   100
 73
     1
 74
     3
 75
     0
 76
     0
 77
     0
 78
     0
  0
ENDTAB
  0
TABLE
  2
LTYPE
 70
     1
  0
LTYPE
  2
CONTINUOUS
 70
     0
  3
Solid line
 72
    65
 73
     0
 40
0.0
  0
ENDTAB
  0
TABLE
  2
LAYER
 70
     2
  0
LAYER
  2
0
 70
     0
 62
     7
  6
CONTINUOUS
  0
LAYER
  2
STANDARD
 70
     0
 62
     7
  6
CONTINUOUS
  0
ENDTAB
  0
TABLE
  2
STYLE
 70
     1
  0
STYLE
  2
STANDARD
 70
     0
 40
0.0
 41
1.0
 50
0.0
 71
     0
 42
0.2
  3
txt
  4

  0
ENDTAB
  0
TABLE
  2
VIEW
 70
     0
  0
ENDTAB
  0
TABLE
  2
UCS
 70
     0
  0
ENDTAB
  0
TABLE
  2
APPID
 70
     1
  0
APPID
  2
ACAD
 70
     0
  0
ENDTAB
  0
TABLE
  2
DIMSTYLE
 70
     1
  0
DIMSTYLE
  2
STANDARD
 70
     0
  3

  4

  5

  6

  7

 40
1.0
 41
0.18
 42
0.0625
 43
0.38
 44
0.18
 45
0.0
 46
0.0
 47
0.0
 48
0.0
140
0.18
141
0.09
142
0.0
143
25.4
144
1.0
145
0.0
146
1.0
147
0.09
 71
     0
 72
     0
 73
     1
 74
     1
 75
     0
 76
     0
 77
     0
 78
     0
170
     0
171
     2
172
     0
173
     0
174
     0
175
     0
176
     0
177
     0
178
     0
  0
ENDTAB
  0
ENDSEC
  0
SECTION
  2
BLOCKS
  0
BLOCK
  8
0
  2
$MODEL_SPACE
 70
     0
 10
0.0
 20
0.0
 30
0.0
  3
$MODEL_SPACE
  1

  0
ENDBLK
  5
21
  8
0
  0
BLOCK
 67
     1
  8
0
  2
$PAPER_SPACE
 70
     0
 10
0.0
 20
0.0
 30
0.0
  3
$PAPER_SPACE
  1

  0
ENDBLK
  5
1D
 67
     1
  8
0
  0
ENDSEC
  0
SECTION
  2
ENTITIES
  0
LINE
  5
6F
  8
STANDARD
 10
21.79081258764751
 20
64.46670009466251
 30
0.0
 11
22.0
 21
65.0
 31
0.0
  0
LINE
  5
70
  8
STANDARD
 10
22.0
 20
65.0
 30
0.0
 11
23.41199089061406
 21
64.47042878495485
 31
0.0
  0
LINE
  5
71
  8
STANDARD
 10
23.41199089061406
 20
64.47042878495485
 30
0.0
 11
24.74498058790365
 21
63.87956090663494
 31
0.0
  0
LINE
  5
72
  8
STANDARD
 10
24.74498058790365
 20
63.87956090663494
 30
0.0
 11
25.94399856746501
 21
63.18462414638947
 31
0.0
  0
LINE
  5
73
  8
STANDARD
 10
25.94399856746501
 20
63.18462414638947
 30
0.0
 11
27.00905120024381
 21
62.38522614843576
 31
0.0
  0
LINE
  5
74
  8
STANDARD
 10
27.00905120024381
 20
62.38522614843576
 30
0.0
 11
27.94779924659833
 21
61.48687507159072
 31
0.0
  0
LINE
  5
75
  8
STANDARD
 10
27.94779924659833
 20
61.48687507159072
 30
0.0
 11
28.76790346688691
 21
60.49507907467126
 31
0.0
  0
LINE
  5
76
  8
STANDARD
 10
28.76790346688691
 20
60.49507907467126
 30
0.0
 11
29.47702462146784
 21
59.41534631649426
 31
0.0
  0
LINE
  5
77
  8
STANDARD
 10
29.47702462146784
 20
59.41534631649426
 30
0.0
 11
30.08282347069943
 21
58.25318495587666
 31
0.0
  0
LINE
  5
78
  8
STANDARD
 10
30.08282347069943
 20
58.25318495587666
 30
0.0
 11
30.59296077494
 21
57.01410315163533
 31
0.0
  0
LINE
  5
79
  8
STANDARD
 10
30.59296077494
 20
57.01410315163533
 30
0.0
 11
31.01509729454785
 21
55.7036090625872
 31
0.0
  0
LINE
  5
7A
  8
STANDARD
 10
31.01509729454785
 20
55.7036090625872
 30
0.0
 11
31.35689378988128
 21
54.32721084754917
 31
0.0
  0
LINE
  5
7B
  8
STANDARD
 10
31.35689378988128
 20
54.32721084754917
 30
0.0
 11
31.62601102129861
 21
52.89041666533814
 31
0.0
  0
LINE
  5
7C
  8
STANDARD
 10
31.62601102129861
 20
52.89041666533814
 30
0.0
 11
31.83010974915814
 21
51.39873467477102
 31
0.0
  0
LINE
  5
7D
  8
STANDARD
 10
31.83010974915814
 20
51.39873467477102
 30
0.0
 11
31.97685073381819
 21
49.85767303466471
 31
0.0
  0
LINE
  5
7E
  8
STANDARD
 10
31.97685073381819
 20
49.85767303466471
 30
0.0
 11
32.07389473563704
 21
48.27273990383612
 31
0.0
  0
LINE
  5
7F
  8
STANDARD
 10
32.07389473563704
 20
48.27273990383612
 30
0.0
 11
32.12890251497303
 21
46.64944344110216
 31
0.0
  0
LINE
  5
80
  8
STANDARD
 10
32.12890251497303
 20
46.64944344110216
 30
0.0
 11
32.14953483218447
 21
44.99329180527972
 31
0.0
  0
LINE
  5
81
  8
STANDARD
 10
32.14953483218447
 20
44.99329180527972
 30
0.0
 11
32.14345244762964
 21
43.30979315518572
 31
0.0
  0
LINE
  5
82
  8
STANDARD
 10
32.14345244762964
 20
43.30979315518572
 30
0.0
 11
32.11831612166686
 21
41.60445564963705
 31
0.0
  0
LINE
  5
83
  8
STANDARD
 10
32.11831612166686
 20
41.60445564963705
 30
0.0
 11
32.08178661465444
 21
39.88278744745062
 31
0.0
  0
LINE
  5
84
  8
STANDARD
 10
32.08178661465444
 20
39.88278744745062
 30
0.0
 11
32.04152468695069
 21
38.15029670744335
 31
0.0
  0
LINE
  5
85
  8
STANDARD
 10
32.04152468695069
 20
38.15029670744335
 30
0.0
 11
32.00519109891393
 21
36.41249158843214
 31
0.0
  0
LINE
  5
86
  8
STANDARD
 10
32.00519109891393
 20
36.41249158843214
 30
0.0
 11
31.98044661090244
 21
34.67488024923387
 31
0.0
  0
LINE
  5
87
  8
STANDARD
 10
31.98044661090244
 20
34.67488024923387
 30
0.0
 11
31.97495198327454
 21
32.94297084866548
 31
0.0
  0
LINE
  5
88
  8
STANDARD
 10
31.97495198327454
 20
32.94297084866548
 30
0.0
 11
31.99636797638855
 21
31.22227154554386
 31
0.0
  0
LINE
  5
89
  8
STANDARD
 10
31.99636797638855
 20
31.22227154554386
 30
0.0
 11
32.05235535060277
 21
29.51829049868591
 31
0.0
  0
LINE
  5
8A
  8
STANDARD
 10
32.05235535060277
 20
29.51829049868591
 30
0.0
 11
32.15057486627549
 21
27.83653586690854
 31
0.0
  0
LINE
  5
8B
  8
STANDARD
 10
32.15057486627549
 20
27.83653586690854
 30
0.0
 11
32.29868728376505
 21
26.18251580902865
 31
0.0
  0
LINE
  5
8C
  8
STANDARD
 10
32.29868728376505
 20
26.18251580902865
 30
0.0
 11
32.50435336342974
 21
24.56173848386316
 31
0.0
  0
LINE
  5
8D
  8
STANDARD
 10
32.50435336342974
 20
24.56173848386316
 30
0.0
 11
32.77523386562787
 21
22.97971205022895
 31
0.0
  0
LINE
  5
8E
  8
STANDARD
 10
32.77523386562787
 20
22.97971205022895
 30
0.0
 11
33.11898955071775
 21
21.44194466694294
 31
0.0
  0
LINE
  5
8F
  8
STANDARD
 10
33.11898955071775
 20
21.44194466694294
 30
0.0
 11
33.54328117905768
 21
19.95394449282205
 31
0.0
  0
LINE
  5
90
  8
STANDARD
 10
33.54328117905768
 20
19.95394449282205
 30
0.0
 11
34.05576951100598
 21
18.52121968668316
 31
0.0
  0
LINE
  5
91
  8
STANDARD
 10
34.05576951100598
 20
18.52121968668316
 30
0.0
 11
34.66411530692096
 21
17.14927840734318
 31
0.0
  0
LINE
  5
92
  8
STANDARD
 10
34.66411530692096
 20
17.14927840734318
 30
0.0
 11
35.37538185121532
 21
15.84323175357397
 31
0.0
  0
LINE
  5
93
  8
STANDARD
 10
35.37538185121532
 20
15.84323175357397
 30
0.0
 11
36.18347385315657
 21
14.59944612994055
 31
0.0
  0
LINE
  5
94
  8
STANDARD
 10
36.18347385315657
 20
14.59944612994055
 30
0.0
 11
37.06945360697494
 21
13.40575335491955
 31
0.0
  0
LINE
  5
95
  8
STANDARD
 10
37.06945360697494
 20
13.40575335491955
 30
0.0
 11
38.01384917470115
 21
12.24963021635787
 31
0.0
  0
LINE
  5
96
  8
STANDARD
 10
38.01384917470115
 20
12.24963021635787
 30
0.0
 11
38.99718861836593
 21
11.1185535021024
 31
0.0
  0
LINE
  5
97
  8
STANDARD
 10
38.99718861836593
 20
11.1185535021024
 30
0.0
 11
40.0
 21
10.0
 31
0.0
  0
LINE
  5
98
  8
STANDARD
 10
40.0
 20
10.0
 30
0.0
 11
44.0
 21
10.0
 31
0.0
  0
ARC
  5
99
  8
STANDARD
 10
44.0
 20
7.999999999999999
 30
0.0
 40
2.000000000000001
 50
0.0
 51
90.0
  0
LINE
  5
9A
  8
STANDARD
 10
46.0
 20
7.999999999999999
 30
0.0
 11
46.0
 21
0.0
 31
0.0
  0
LINE
  5
9B
  8
STANDARD
 10
46.0
 20
0.0
 30
0.0
 11
24.5
 21
0.0
 31
0.0
  0
LINE
  5
9C
  8
STANDARD
 10
24.5
 20
0.0
 30
0.0
 11
24.5
 21
30.0
 31
0.0
  0
LINE
  5
9D
  8
STANDARD
 10
24.5
 20
30.0
 30
0.0
 11
21.5
 21
30.0
 31
0.0
  0
LINE
  5
9E
  8
STANDARD
 10
21.5
 20
30.0
 30
0.0
 11
21.5
 21
0.0
 31
0.0
  0
LINE
  5
9F
  8
STANDARD
 10
21.5
 20
0.0
 30
0.0
 11
0.0
 21
0.0
 31
0.0
  0
LINE
  5
A0
  8
STANDARD
 10
0.0
 20
0.0
 30
0.0
 11
-0.0000000000000004
 21
7.999999999999999
 31
0.0
  0
ARC
  5
A1
  8
STANDARD
 10
2.0
 20
7.999999999999999
 30
0.0
 40
2.000000000000001
 50
90.0
 51
180.0
  0
LINE
  5
A2
  8
STANDARD
 10
2.0
 20
10.0
 30
0.0
 11
6.0
 21
10.0
 31
0.0
  0
LINE
  5
A3
  8
STANDARD
 10
6.0
 20
10.0
 30
0.0
 11
6.0
 21
18.0
 31
0.0
  0
LINE
  5
A4
  8
STANDARD
 10
6.0
 20
18.0
 30
0.0
 11
6.238361347441382
 21
18.51580788694512
 31
0.0
  0
LINE
  5
A5
  8
STANDARD
 10
6.238361347441382
 20
18.51580788694512
 30
0.0
 11
6.476618307587648
 21
19.03120374738602
 31
0.0
  0
LINE
  5
A6
  8
STANDARD
 10
6.476618307587648
 20
19.03120374738602
 30
0.0
 11
6.714666493143683
 21
19.5457755548185
 31
0.0
  0
LINE
  5
A7
  8
STANDARD
 10
6.714666493143683
 20
19.5457755548185
 30
0.0
 11
6.952401516814372
 21
20.05911128273833
 31
0.0
  0
LINE
  5
A8
  8
STANDARD
 10
6.952401516814372
 20
20.05911128273833
 30
0.0
 11
7.189718991304598
 21
20.57079890464131
 31
0.0
  0
LINE
  5
A9
  8
STANDARD
 10
7.189718991304598
 20
20.57079890464131
 30
0.0
 11
7.426514529319245
 21
21.08042639402322
 31
0.0
  0
LINE
  5
AA
  8
STANDARD
 10
7.426514529319245
 20
21.08042639402322
 30
0.0
 11
7.662683743563201
 21
21.58758172437984
 31
0.0
  0
LINE
  5
AB
  8
STANDARD
 10
7.662683743563201
 20
21.58758172437984
 30
0.0
 11
7.898122246741346
 21
22.09185286920697
 31
0.0
  0
LINE
  5
AC
  8
STANDARD
 10
7.898122246741346
 20
22.09185286920697
 30
0.0
 11
8.132725651558566
 21
22.59282780200039
 31
0.0
  0
LINE
  5
AD
  8
STANDARD
 10
8.132725651558566
 20
22.59282780200039
 30
0.0
 11
8.366389570719747
 21
23.09009449625588
 31
0.0
  0
LINE
  5
AE
  8
STANDARD
 10
8.366389570719747
 20
23.09009449625588
 30
0.0
 11
8.59900961692977
 21
23.58324092546923
 31
0.0
  0
LINE
  5
AF
  8
STANDARD
 10
8.59900961692977
 20
23.58324092546923
 30
0.0
 11
8.830481402893527
 21
24.07185506313624
 31
0.0
  0
LINE
  5
B0
  8
STANDARD
 10
8.830481402893527
 20
24.07185506313624
 30
0.0
 11
9.060700541315892
 21
24.55552488275267
 31
0.0
  0
LINE
  5
B1
  8
STANDARD
 10
9.060700541315892
 20
24.55552488275267
 30
0.0
 11
9.289562644901753
 21
25.03383835781433
 31
0.0
  0
LINE
  5
B2
  8
STANDARD
 10
9.289562644901753
 20
25.03383835781433
 30
0.0
 11
9.516963326356
 21
25.50638346181699
 31
0.0
  0
LINE
  5
B3
  8
STANDARD
 10
9.516963326356
 20
25.50638346181699
 30
0.0
 11
9.742798198383513
 21
25.97274816825644
 31
0.0
  0
LINE
  5
B4
  8
STANDARD
 10
9.742798198383513
 20
25.97274816825644
 30
0.0
 11
9.966962873689175
 21
26.43252045062847
 31
0.0
  0
LINE
  5
B5
  8
STANDARD
 10
9.966962873689175
 20
26.43252045062847
 30
0.0
 11
10.18935773732757
 21
26.88540749477226
 31
0.0
  0
LINE
  5
B6
  8
STANDARD
 10
10.18935773732757
 20
26.88540749477226
 30
0.0
 11
10.40991310454821
 21
27.33186413682515
 31
0.0
  0
LINE
  5
B7
  8
STANDARD
 10
10.40991310454821
 20
27.33186413682515
 30
0.0
 11
10.62857086785509
 21
27.77263441043177
 31
0.0
  0
LINE
  5
B8
  8
STANDARD
 10
10.62857086785509
 20
27.77263441043177
 30
0.0
 11
10.84527294479107
 21
28.20846297470327
 31
0.0
  0
LINE
  5
B9
  8
STANDARD
 10
10.84527294479107
 20
28.20846297470327
 30
0.0
 11
11.05996125289906
 21
28.64009448875077
 31
0.0
  0
LINE
  5
BA
  8
STANDARD
 10
11.05996125289906
 20
28.64009448875077
 30
0.0
 11
11.27257770972192
 21
29.06827361168538
 31
0.0
  0
LINE
  5
BB
  8
STANDARD
 10
11.27257770972192
 20
29.06827361168538
 30
0.0
 11
11.48306423280253
 21
29.49374500261825
 31
0.0
  0
LINE
  5
BC
  8
STANDARD
 10
11.48306423280253
 20
29.49374500261825
 30
0.0
 11
11.69136273968379
 21
29.9172533206605
 31
0.0
  0
LINE
  5
BD
  8
STANDARD
 10
11.69136273968379
 20
29.9172533206605
 30
0.0
 11
11.89741514790856
 21
30.33954322492324
 31
0.0
  0
LINE
  5
BE
  8
STANDARD
 10
11.89741514790856
 20
30.33954322492324
 30
0.0
 11
12.10116337501974
 21
30.76135937451761
 31
0.0
  0
LINE
  5
BF
  8
STANDARD
 10
12.10116337501974
 20
30.76135937451761
 30
0.0
 11
12.3025493385602
 21
31.18344642855474
 31
0.0
  0
LINE
  5
C0
  8
STANDARD
 10
12.3025493385602
 20
31.18344642855474
 30
0.0
 11
12.50151495607282
 21
31.60654904614574
 31
0.0
  0
LINE
  5
C1
  8
STANDARD
 10
12.50151495607282
 20
31.60654904614574
 30
0.0
 11
12.69800214510049
 21
32.03141188640176
 31
0.0
  0
LINE
  5
C2
  8
STANDARD
 10
12.69800214510049
 20
32.03141188640176
 30
0.0
 11
12.89195282318608
 21
32.45877960843391
 31
0.0
  0
LINE
  5
C3
  8
STANDARD
 10
12.89195282318608
 20
32.45877960843391
 30
0.0
 11
13.08330890787247
 21
32.88939687135331
 31
0.0
  0
LINE
  5
C4
  8
STANDARD
 10
13.08330890787247
 20
32.88939687135331
 30
0.0
 11
13.27201231670256
 21
33.32400833427111
 31
0.0
  0
LINE
  5
C5
  8
STANDARD
 10
13.27201231670256
 20
33.32400833427111
 30
0.0
 11
13.45800496721921
 21
33.76335865629841
 31
0.0
  0
LINE
  5
C6
  8
STANDARD
 10
13.45800496721921
 20
33.76335865629841
 30
0.0
 11
13.64122877696531
 21
34.20819249654636
 31
0.0
  0
LINE
  5
C7
  8
STANDARD
 10
13.64122877696531
 20
34.20819249654636
 30
0.0
 11
13.82162566348375
 21
34.65925451412608
 31
0.0
  0
LINE
  5
C8
  8
STANDARD
 10
13.82162566348375
 20
34.65925451412608
 30
0.0
 11
13.99913754431739
 21
35.11728936814868
 31
0.0
  0
LINE
  5
C9
  8
STANDARD
 10
13.99913754431739
 20
35.11728936814868
 30
0.0
 11
14.17370633700912
 21
35.58304171772529
 31
0.0
  0
LINE
  5
CA
  8
STANDARD
 10
14.17370633700912
 20
35.58304171772529
 30
0.0
 11
14.34527395910184
 21
36.05725622196707
 31
0.0
  0
LINE
  5
CB
  8
STANDARD
 10
14.34527395910184
 20
36.05725622196707
 30
0.0
 11
14.51378232813839
 21
36.54067753998509
 31
0.0
  0
LINE
  5
CC
  8
STANDARD
 10
14.51378232813839
 20
36.54067753998509
 30
0.0
 11
14.67917336166169
 21
37.03405033089053
 31
0.0
  0
LINE
  5
CD
  8
STANDARD
 10
14.67917336166169
 20
37.03405033089053
 30
0.0
 11
14.84138897721461
 21
37.53811925379449
 31
0.0
  0
LINE
  5
CE
  8
STANDARD
 10
14.84138897721461
 20
37.53811925379449
 30
0.0
 11
15.00037109234002
 21
38.05362896780809
 31
0.0
  0
LINE
  5
CF
  8
STANDARD
 10
15.00037109234002
 20
38.05362896780809
 30
0.0
 11
15.15606162458082
 21
38.58132413204248
 31
0.0
  0
LINE
  5
D0
  8
STANDARD
 10
15.15606162458082
 20
38.58132413204248
 30
0.0
 11
15.30840249147987
 21
39.12194940560877
 31
0.0
  0
LINE
  5
D1
  8
STANDARD
 10
15.30840249147987
 20
39.12194940560877
 30
0.0
 11
15.45733561058006
 21
39.67624944761807
 31
0.0
  0
LINE
  5
D2
  8
STANDARD
 10
15.45733561058006
 20
39.67624944761807
 30
0.0
 11
15.60280289942428
 21
40.24496891718155
 31
0.0
  0
LINE
  5
D3
  8
STANDARD
 10
15.60280289942428
 20
40.24496891718155
 30
0.0
 11
15.7447462755554
 21
40.8288524734103
 31
0.0
  0
LINE
  5
D4
  8
STANDARD
 10
15.7447462755554
 20
40.8288524734103
 30
0.0
 11
15.8831076565163
 21
41.42864477541546
 31
0.0
  0
LINE
  5
D5
  8
STANDARD
 10
15.8831076565163
 20
41.42864477541546
 30
0.0
 11
16.01782895984987
 21
42.04509048230815
 31
0.0
  0
LINE
  5
D6
  8
STANDARD
 10
16.01782895984987
 20
42.04509048230815
 30
0.0
 11
16.14885210309899
 21
42.67893425319951
 31
0.0
  0
LINE
  5
D7
  8
STANDARD
 10
16.14885210309899
 20
42.67893425319951
 30
0.0
 11
16.27611900380652
 21
43.33092074720064
 31
0.0
  0
LINE
  5
D8
  8
STANDARD
 10
16.27611900380652
 20
43.33092074720064
 30
0.0
 11
16.39957157951537
 21
44.0017946234227
 31
0.0
  0
LINE
  5
D9
  8
STANDARD
 10
16.39957157951537
 20
44.0017946234227
 30
0.0
 11
16.51915174776842
 21
44.6923005409768
 31
0.0
  0
LINE
  5
DA
  8
STANDARD
 10
16.51915174776842
 20
44.6923005409768
 30
0.0
 11
16.63480142610852
 21
45.40318315897406
 31
0.0
  0
LINE
  5
DB
  8
STANDARD
 10
16.63480142610852
 20
45.40318315897406
 30
0.0
 11
16.74646253207858
 21
46.1351871365256
 31
0.0
  0
LINE
  5
DC
  8
STANDARD
 10
16.74646253207858
 20
46.1351871365256
 30
0.0
 11
16.85407698322147
 21
46.88905713274258
 31
0.0
  0
LINE
  5
DD
  8
STANDARD
 10
16.85407698322147
 20
46.88905713274258
 30
0.0
 11
16.95758669708008
 21
47.66553780673609
 31
0.0
  0
LINE
  5
DE
  8
STANDARD
 10
16.95758669708008
 20
47.66553780673609
 30
0.0
 11
17.0563883455619
 21
48.46338448257944
 31
0.0
  0
LINE
  5
DF
  8
STANDARD
 10
17.0563883455619
 20
48.46338448257944
 30
0.0
 11
17.14097262082034
 21
49.24885891370278
 31
0.0
  0
LINE
  5
E0
  8
STANDARD
 10
17.14097262082034
 20
49.24885891370278
 30
0.0
 11
17.1945707576333
 21
49.96173663892835
 31
0.0
  0
LINE
  5
E1
  8
STANDARD
 10
17.1945707576333
 20
49.96173663892835
 30
0.0
 11
17.20020236924174
 21
50.54102109344114
 31
0.0
  0
LINE
  5
E2
  8
STANDARD
 10
17.20020236924174
 20
50.54102109344114
 30
0.0
 11
17.1408870688866
 21
50.92571571242614
 31
0.0
  0
LINE
  5
E3
  8
STANDARD
 10
17.1408870688866
 20
50.92571571242614
 30
0.0
 11
16.99964446984398
 21
51.05482393124984
 31
0.0
  0
LINE
  5
E4
  8
STANDARD
 10
16.99964446984398
 20
51.05482393124984
 30
0.0
 11
16.7647026304067
 21
50.89424114514349
 31
0.0
  0
LINE
  5
E5
  8
STANDARD
 10
16.7647026304067
 20
50.89424114514349
 30
0.0
 11
16.4450053844648
 21
50.51682131454076
 31
0.0
  0
LINE
  5
E6
  8
STANDARD
 10
16.4450053844648
 20
50.51682131454076
 30
0.0
 11
16.05464617559583
 21
50.02200658437012
 31
0.0
  0
LINE
  5
E7
  8
STANDARD
 10
16.05464617559583
 20
50.02200658437012
 30
0.0
 11
15.60771844737733
 21
49.50923909956005
 31
0.0
  0
LINE
  5
E8
  8
STANDARD
 10
15.60771844737733
 20
49.50923909956005
 30
0.0
 11
15.11831564338685
 21
49.077961005039
 31
0.0
  0
LINE
  5
E9
  8
STANDARD
 10
15.11831564338685
 20
49.077961005039
 30
0.0
 11
14.5999682977977
 21
48.8163861599164
 31
0.0
  0
LINE
  5
EA
  8
STANDARD
 10
14.5999682977977
 20
48.8163861599164
 30
0.0
 11
14.06158503137231
 21
48.72053567537849
 31
0.0
  0
LINE
  5
EB
  8
STANDARD
 10
14.06158503137231
 20
48.72053567537849
 30
0.0
 11
13.50980737761684
 21
48.74120934724819
 31
0.0
  0
LINE
  5
EC
  8
STANDARD
 10
13.50980737761684
 20
48.74120934724819
 30
0.0
 11
12.95126124905546
 21
48.82889538150967
 31
0.0
  0
LINE
  5
ED
  8
STANDARD
 10
12.95126124905546
 20
48.82889538150967
 30
0.0
 11
12.39257255821235
 21
48.93408198414704
 31
0.0
  0
LINE
  5
EE
  8
STANDARD
 10
12.39257255821235
 20
48.93408198414704
 30
0.0
 11
11.84036164450284
 21
49.00729116614099
 31
0.0
  0
LINE
  5
EF
  8
STANDARD
 10
11.84036164450284
 20
49.00729116614099
 30
0.0
 11
11.29896929125738
 21
49.01287211960332
 31
0.0
  0
LINE
  5
F0
  8
STANDARD
 10
11.29896929125738
 20
49.01287211960332
 30
0.0
 11
10.76696106683007
 21
48.95020495520006
 31
0.0
  0
LINE
  5
F1
  8
STANDARD
 10
10.76696106683007
 20
48.95020495520006
 30
0.0
 11
10.24200176169734
 21
48.82413366270766
 31
0.0
  0
LINE
  5
F2
  8
STANDARD
 10
10.24200176169734
 20
48.82413366270766
 30
0.0
 11
9.72175616633564
 21
48.63950223190256
 31
0.0
  0
LINE
  5
F3
  8
STANDARD
 10
9.72175616633564
 20
48.63950223190256
 30
0.0
 11
9.203889071221413
 21
48.40115465256126
 31
0.0
  0
LINE
  5
F4
  8
STANDARD
 10
9.203889071221413
 20
48.40115465256126
 30
0.0
 11
8.686065266831106
 21
48.11393491446019
 31
0.0
  0
LINE
  5
F5
  8
STANDARD
 10
8.686065266831106
 20
48.11393491446019
 30
0.0
 11
8.16625555704172
 21
47.78494368337373
 31
0.0
  0
LINE
  5
F6
  8
STANDARD
 10
8.16625555704172
 20
47.78494368337373
 30
0.0
 11
7.646333496450629
 21
47.45006220743056
 31
0.0
  0
LINE
  5
F7
  8
STANDARD
 10
7.646333496450629
 20
47.45006220743056
 30
0.0
 11
7.130864860780468
 21
47.16502534503677
 31
0.0
  0
LINE
  5
F8
  8
STANDARD
 10
7.130864860780468
 20
47.16502534503677
 30
0.0
 11
6.62446882032956
 21
46.98596170943776
 31
0.0
  0
LINE
  5
F9
  8
STANDARD
 10
6.62446882032956
 20
46.98596170943776
 30
0.0
 11
6.13176454539622
 21
46.96899991387883
 31
0.0
  0
LINE
  5
FA
  8
STANDARD
 10
6.13176454539622
 20
46.96899991387883
 30
0.0
 11
5.658626013231905
 21
47.16308768364195
 31
0.0
  0
LINE
  5
FB
  8
STANDARD
 10
5.658626013231905
 20
47.16308768364195
 30
0.0
 11
5.222749383599419
 21
47.54951790046197
 31
0.0
  0
LINE
  5
FC
  8
STANDARD
 10
5.222749383599419
 20
47.54951790046197
 30
0.0
 11
4.848322110984903
 21
48.07243569196797
 31
0.0
  0
LINE
  5
FD
  8
STANDARD
 10
4.848322110984903
 20
48.07243569196797
 30
0.0
 11
4.559598606976094
 21
48.67560301015889
 31
0.0
  0
LINE
  5
FE
  8
STANDARD
 10
4.559598606976094
 20
48.67560301015889
 30
0.0
 11
4.380833283160731
 21
49.30278180703367
 31
0.0
  0
LINE
  5
FF
  8
STANDARD
 10
4.380833283160731
 20
49.30278180703367
 30
0.0
 11
4.336280551126556
 21
49.89773403459132
 31
0.0
  0
LINE
  5
100
  8
STANDARD
 10
4.336280551126556
 20
49.89773403459132
 30
0.0
 11
4.450194822461305
 21
50.40422164483074
 31
0.0
  0
LINE
  5
101
  8
STANDARD
 10
4.450194822461305
 20
50.40422164483074
 30
0.0
 11
4.741147246179428
 21
50.77386474860013
 31
0.0
  0
LINE
  5
102
  8
STANDARD
 10
4.741147246179428
 20
50.77386474860013
 30
0.0
 11
5.18225069962867
 21
51.02113790261584
 31
0.0
  0
LINE
  5
103
  8
STANDARD
 10
5.18225069962867
 20
51.02113790261584
 30
0.0
 11
5.724808225746463
 21
51.19067178273549
 31
0.0
  0
LINE
  5
104
  8
STANDARD
 10
5.724808225746463
 20
51.19067178273549
 30
0.0
 11
6.319985201341174
 21
51.3272874136342
 31
0.0
  0
LINE
  5
105
  8
STANDARD
 10
6.319985201341174
 20
51.3272874136342
 30
0.0
 11
6.918947003221176
 21
51.47580581998709
 31
0.0
  0
LINE
  5
106
  8
STANDARD
 10
6.918947003221176
 20
51.47580581998709
 30
0.0
 11
7.478395590439119
 21
51.67564142951645
 31
0.0
  0
LINE
  5
107
  8
STANDARD
 10
7.478395590439119
 20
51.67564142951645
 30
0.0
 11
7.98884031417749
 21
51.93319499197371
 31
0.0
  0
LINE
  5
108
  8
STANDARD
 10
7.98884031417749
 20
51.93319499197371
 30
0.0
 11
8.453548335182582
 21
52.24240896943948
 31
0.0
  0
LINE
  5
109
  8
STANDARD
 10
8.453548335182582
 20
52.24240896943948
 30
0.0
 11
8.87581036771311
 21
52.59720282346029
 31
0.0
  0
LINE
  5
10A
  8
STANDARD
 10
8.87581036771311
 20
52.59720282346029
 30
0.0
 11
9.2589171260278
 21
52.99149601558271
 31
0.0
  0
LINE
  5
10B
  8
STANDARD
 10
9.2589171260278
 20
52.99149601558271
 30
0.0
 11
9.606159324385377
 21
53.41920800735329
 31
0.0
  0
LINE
  5
10C
  8
STANDARD
 10
9.606159324385377
 20
53.41920800735329
 30
0.0
 11
9.920827677044548
 21
53.87425826031855
 31
0.0
  0
LINE
  5
10D
  8
STANDARD
 10
9.920827677044548
 20
53.87425826031855
 30
0.0
 11
10.20661043765251
 21
54.35046571149206
 31
0.0
  0
LINE
  5
10E
  8
STANDARD
 10
10.20661043765251
 20
54.35046571149206
 30
0.0
 11
10.47086982159037
 21
54.84072027475589
 31
0.0
  0
LINE
  5
10F
  8
STANDARD
 10
10.47086982159037
 20
54.84072027475589
 30
0.0
 11
10.72295440836732
 21
55.33740957835173
 31
0.0
  0
LINE
  5
110
  8
STANDARD
 10
10.72295440836732
 20
55.33740957835173
 30
0.0
 11
10.97223223940327
 21
55.83291632924918
 31
0.0
  0
LINE
  5
111
  8
STANDARD
 10
10.97223223940327
 20
55.83291632924918
 30
0.0
 11
11.22807135611816
 21
56.3196232344178
 31
0.0
  0
LINE
  5
112
  8
STANDARD
 10
11.22807135611816
 20
56.3196232344178
 30
0.0
 11
11.49983979993194
 21
56.78991300082721
 31
0.0
  0
LINE
  5
113
  8
STANDARD
 10
11.49983979993194
 20
56.78991300082721
 30
0.0
 11
11.79690561226453
 21
57.23616833544695
 31
0.0
  0
LINE
  5
114
  8
STANDARD
 10
11.79690561226453
 20
57.23616833544695
 30
0.0
 11
12.12849971970023
 21
57.65089352682597
 31
0.0
  0
LINE
  5
115
  8
STANDARD
 10
12.12849971970023
 20
57.65089352682597
 30
0.0
 11
12.49759293846011
 21
58.03214378804223
 31
0.0
  0
LINE
  5
116
  8
STANDARD
 10
12.49759293846011
 20
58.03214378804223
 30
0.0
 11
12.89844104878257
 21
58.38570207245337
 31
0.0
  0
LINE
  5
117
  8
STANDARD
 10
12.89844104878257
 20
58.38570207245337
 30
0.0
 11
13.32465482104535
 21
58.71792327238442
 31
0.0
  0
LINE
  5
118
  8
STANDARD
 10
13.32465482104535
 20
58.71792327238442
 30
0.0
 11
13.7698450256262
 21
59.03516228016038
 31
0.0
  0
LINE
  5
119
  8
STANDARD
 10
13.7698450256262
 20
59.03516228016038
 30
0.0
 11
14.22762243290287
 21
59.34377398810626
 31
0.0
  0
LINE
  5
11A
  8
STANDARD
 10
14.22762243290287
 20
59.34377398810626
 30
0.0
 11
14.69159781325313
 21
59.6501132885471
 31
0.0
  0
LINE
  5
11B
  8
STANDARD
 10
14.69159781325313
 20
59.6501132885471
 30
0.0
 11
15.15538193705471
 21
59.9605350738079
 31
0.0
  0
LINE
  5
11C
  8
STANDARD
 10
15.15538193705471
 20
59.9605350738079
 30
0.0
 11
15.61258557468538
 21
60.28139423621369
 31
0.0
  0
LINE
  5
11D
  8
STANDARD
 10
15.61258557468538
 20
60.28139423621369
 30
0.0
 11
16.05681949652288
 21
60.61904566808948
 31
0.0
  0
LINE
  5
11E
  8
STANDARD
 10
16.05681949652288
 20
60.61904566808948
 30
0.0
 11
16.48169447294498
 21
60.9798442617603
 31
0.0
  0
LINE
  5
11F
  8
STANDARD
 10
16.48169447294498
 20
60.9798442617603
 30
0.0
 11
16.88082127432942
 21
61.37014490955116
 31
0.0
  0
LINE
  5
120
  8
STANDARD
 10
16.88082127432942
 20
61.37014490955116
 30
0.0
 11
17.24986781924356
 21
61.79371227561699
 31
0.0
  0
LINE
  5
121
  8
STANDARD
 10
17.24986781924356
 20
61.79371227561699
 30
0.0
 11
17.60685170861364
 21
62.22616974720784
 31
0.0
  0
LINE
  5
122
  8
STANDARD
 10
17.60685170861364
 20
62.22616974720784
 30
0.0
 11
17.98349990433783
 21
62.62587876945288
 31
0.0
  0
LINE
  5
123
  8
STANDARD
 10
17.98349990433783
 20
62.62587876945288
 30
0.0
 11
18.41173798548315
 21
62.95095070156692
 31
0.0
  0
LINE
  5
124
  8
STANDARD
 10
18.41173798548315
 20
62.95095070156692
 30
0.0
 11
18.91708829960877
 21
63.16778558267569
 31
0.0
  0
LINE
  5
125
  8
STANDARD
 10
18.91708829960877
 20
63.16778558267569
 30
0.0
 11
19.47971409731276
 21
63.30149865457994
 31
0.0
  0
LINE
  5
126
  8
STANDARD
 10
19.47971409731276
 20
63.30149865457994
 30
0.0
 11
20.06019270471526
 21
63.4025582106697
 31
0.0
  0
LINE
  5
127
  8
STANDARD
 10
20.06019270471526
 20
63.4025582106697
 30
0.0
 11
20.61902393326125
 21
63.52153288341067
 31
0.0
  0
LINE
  5
128
  8
STANDARD
 10
20.61902393326125
 20
63.52153288341067
 30
0.0
 11
21.11670759439576
 21
63.70899130526853
 31
0.0
  0
LINE
  5
129
  8
STANDARD
 10
21.11670759439576
 20
63.70899130526853
 30
0.0
 11
21.51374471998489
 21
64.01550060087573
 31
0.0
  0
LINE
  5
12A
  8
STANDARD
 10
21.51374471998489
 20
64.01550060087573
 30
0.0
 11
21.79081258764751
 21
64.46670009466251
 31
0.0
  0
LINE
  5
12B
  8
STANDARD
 10
83.57664795096369
 20
63.68858808009414
 30
0.0
 11
84.0
 21
64.0
 31
0.0
  0
LINE
  5
12C
  8
STANDARD
 10
84.0
 20
64.0
 30
0.0
 11
84.0
 21
30.0
 31
0.0
  0
LINE
  5
12D
  8
STANDARD
 10
84.0
 20
30.0
 30
0.0
 11
87.0
 21
30.0
 31
0.0
  0
LINE
  5
12E
  8
STANDARD
 10
87.0
 20
30.0
 30
0.0
 11
87.0
 21
63.99999999999999
 31
0.0
  0
LINE
  5
12F
  8
STANDARD
 10
86.99999999999997
 20
63.99999999999999
 30
0.0
 11
88.44670985189858
 21
63.18282986398375
 31
0.0
  0
LINE
  5
130
  8
STANDARD
 10
88.44670985189858
 20
63.18282986398375
 30
0.0
 11
89.70262923538864
 21
62.21688676595776
 31
0.0
  0
LINE
  5
131
  8
STANDARD
 10
89.70262923538864
 20
62.21688676595776
 30
0.0
 11
90.78078104492096
 21
61.11153428963116
 31
0.0
  0
LINE
  5
132
  8
STANDARD
 10
90.78078104492096
 20
61.11153428963116
 30
0.0
 11
91.69418817494623
 21
59.87613601871302
 31
0.0
  0
LINE
  5
133
  8
STANDARD
 10
91.69418817494623
 20
59.87613601871302
 30
0.0
 11
92.45587351991523
 21
58.52005553691249
 31
0.0
  0
LINE
  5
134
  8
STANDARD
 10
92.45587351991523
 20
58.52005553691249
 30
0.0
 11
93.07885997427864
 21
57.05265642793865
 31
0.0
  0
LINE
  5
135
  8
STANDARD
 10
93.07885997427864
 20
57.05265642793865
 30
0.0
 11
93.57617043248722
 21
55.48330227550063
 31
0.0
  0
LINE
  5
136
  8
STANDARD
 10
93.57617043248722
 20
55.48330227550063
 30
0.0
 11
93.9608277889917
 21
53.82135666330751
 31
0.0
  0
LINE
  5
137
  8
STANDARD
 10
93.9608277889917
 20
53.82135666330751
 30
0.0
 11
94.24585493824281
 21
52.0761831750684
 31
0.0
  0
LINE
  5
138
  8
STANDARD
 10
94.24585493824281
 20
52.0761831750684
 30
0.0
 11
94.44427477469128
 21
50.25714539449244
 31
0.0
  0
LINE
  5
139
  8
STANDARD
 10
94.44427477469128
 20
50.25714539449244
 30
0.0
 11
94.56911019278787
 21
48.37360690528872
 31
0.0
  0
LINE
  5
13A
  8
STANDARD
 10
94.56911019278787
 20
48.37360690528872
 30
0.0
 11
94.63338408698328
 21
46.43493129116633
 31
0.0
  0
LINE
  5
13B
  8
STANDARD
 10
94.63338408698328
 20
46.43493129116633
 30
0.0
 11
94.65011935172825
 21
44.45048213583439
 31
0.0
  0
LINE
  5
13C
  8
STANDARD
 10
94.65011935172825
 20
44.45048213583439
 30
0.0
 11
94.63233888147352
 21
42.42962302300202
 31
0.0
  0
LINE
  5
13D
  8
STANDARD
 10
94.63233888147352
 20
42.42962302300202
 30
0.0
 11
94.59306557066985
 21
40.38171753637832
 31
0.0
  0
LINE
  5
13E
  8
STANDARD
 10
94.59306557066985
 20
40.38171753637832
 30
0.0
 11
94.54532231376793
 21
38.31612925967239
 31
0.0
  0
LINE
  5
13F
  8
STANDARD
 10
94.54532231376793
 20
38.31612925967239
 30
0.0
 11
94.5021320052185
 21
36.24222177659335
 31
0.0
  0
LINE
  5
140
  8
STANDARD
 10
94.5021320052185
 20
36.24222177659335
 30
0.0
 11
94.47651753947235
 21
34.16935867085031
 31
0.0
  0
LINE
  5
141
  8
STANDARD
 10
94.47651753947235
 20
34.16935867085031
 30
0.0
 11
94.48150181098012
 21
32.10690352615236
 31
0.0
  0
LINE
  5
142
  8
STANDARD
 10
94.48150181098012
 20
32.10690352615236
 30
0.0
 11
94.5301077141926
 21
30.06421992620862
 31
0.0
  0
LINE
  5
143
  8
STANDARD
 10
94.5301077141926
 20
30.06421992620862
 30
0.0
 11
94.63535814356052
 21
28.0506714547282
 31
0.0
  0
LINE
  5
144
  8
STANDARD
 10
94.63535814356052
 20
28.0506714547282
 30
0.0
 11
94.8102759935346
 21
26.0756216954202
 31
0.0
  0
LINE
  5
145
  8
STANDARD
 10
94.8102759935346
 20
26.0756216954202
 30
0.0
 11
95.0678841585656
 21
24.14843423199373
 31
0.0
  0
LINE
  5
146
  8
STANDARD
 10
95.0678841585656
 20
24.14843423199373
 30
0.0
 11
95.42120553310423
 21
22.2784726481579
 31
0.0
  0
LINE
  5
147
  8
STANDARD
 10
95.42120553310423
 20
22.2784726481579
 30
0.0
 11
95.88326301160123
 21
20.47510052762182
 31
0.0
  0
LINE
  5
148
  8
STANDARD
 10
95.88326301160123
 20
20.47510052762182
 30
0.0
 11
96.46707948850735
 21
18.7476814540946
 31
0.0
  0
LINE
  5
149
  8
STANDARD
 10
96.46707948850735
 20
18.7476814540946
 30
0.0
 11
97.18567785827327
 21
17.10557901128533
 31
0.0
  0
LINE
  5
14A
  8
STANDARD
 10
97.18567785827327
 20
17.10557901128533
 30
0.0
 11
98.05028222443696
 21
15.55696137410689
 31
0.0
  0
LINE
  5
14B
  8
STANDARD
 10
98.05028222443696
 20
15.55696137410689
 30
0.0
 11
99.04685717951376
 21
14.09321019634293
 31
0.0
  0
LINE
  5
14C
  8
STANDARD
 10
99.04685717951376
 20
14.09321019634293
 30
0.0
 11
100.1427359821454
 21
12.69332544792518
 31
0.0
  0
LINE
  5
14D
  8
STANDARD
 10
100.1427359821454
 20
12.69332544792518
 30
0.0
 11
101.3048173498136
 21
11.33601831907156
 31
0.0
  0
LINE
  5
14E
  8
STANDARD
 10
101.3048173498136
 20
11.33601831907156
 30
0.0
 11
102.5
 21
10.0
 31
0.0
  0
LINE
  5
14F
  8
STANDARD
 10
102.5
 20
10.0
 30
0.0
 11
106.5
 21
10.0
 31
0.0
  0
ARC
  5
150
  8
STANDARD
 10
106.5
 20
7.999999999999999
 30
0.0
 40
2.000000000000001
 50
0.0
 51
90.0
  0
LINE
  5
151
  8
STANDARD
 10
108.5
 20
7.999999999999999
 30
0.0
 11
108.5
 21
0.0
 31
0.0
  0
LINE
  5
152
  8
STANDARD
 10
108.5
 20
0.0
 30
0.0
 11
84.0
 21
0.0
 31
0.0
  0
LINE
  5
153
  8
STANDARD
 10
84.0
 20
0.0
 30
0.0
 11
62.5
 21
0.0
 31
0.0
  0
LINE
  5
154
  8
STANDARD
 10
62.5
 20
0.0
 30
0.0
 11
62.5
 21
7.999999999999999
 31
0.0
  0
ARC
  5
155
  8
STANDARD
 10
64.5
 20
7.999999999999999
 30
0.0
 40
2.000000000000001
 50
90.0
 51
180.0
  0
LINE
  5
156
  8
STANDARD
 10
64.5
 20
10.0
 30
0.0
 11
68.5
 21
10.0
 31
0.0
  0
LINE
  5
157
  8
STANDARD
 10
68.5
 20
10.0
 30
0.0
 11
68.5
 21
18.0
 31
0.0
  0
LINE
  5
158
  8
STANDARD
 10
68.5
 20
18.0
 30
0.0
 11
68.74945672071446
 21
18.53981489880297
 31
0.0
  0
LINE
  5
159
  8
STANDARD
 10
68.74945672071446
 20
18.53981489880297
 30
0.0
 11
68.9987937853309
 21
19.07915750369576
 31
0.0
  0
LINE
  5
15A
  8
STANDARD
 10
68.9987937853309
 20
19.07915750369576
 30
0.0
 11
69.24789153775126
 21
19.61755552076822
 31
0.0
  0
LINE
  5
15B
  8
STANDARD
 10
69.24789153775126
 20
19.61755552076822
 30
0.0
 11
69.49663032187752
 21
20.15453665611018
 31
0.0
  0
LINE
  5
15C
  8
STANDARD
 10
69.49663032187752
 20
20.15453665611018
 30
0.0
 11
69.74489048161162
 21
20.68962861581146
 31
0.0
  0
LINE
  5
15D
  8
STANDARD
 10
69.74489048161162
 20
20.68962861581146
 30
0.0
 11
69.99255236085554
 21
21.2223591059619
 31
0.0
  0
LINE
  5
15E
  8
STANDARD
 10
69.99255236085554
 20
21.2223591059619
 30
0.0
 11
70.23949630351125
 21
21.75225583265133
 31
0.0
  0
LINE
  5
15F
  8
STANDARD
 10
70.23949630351125
 20
21.75225583265133
 30
0.0
 11
70.48560265348065
 21
22.27884650196958
 31
0.0
  0
LINE
  5
160
  8
STANDARD
 10
70.48560265348065
 20
22.27884650196958
 30
0.0
 11
70.7307517546658
 21
22.80165882000649
 31
0.0
  0
LINE
  5
161
  8
STANDARD
 10
70.7307517546658
 20
22.80165882000649
 30
0.0
 11
70.97482395096861
 21
23.32022049285188
 31
0.0
  0
LINE
  5
162
  8
STANDARD
 10
70.97482395096861
 20
23.32022049285188
 30
0.0
 11
71.21769958629105
 21
23.8340592265956
 31
0.0
  0
LINE
  5
163
  8
STANDARD
 10
71.21769958629105
 20
23.8340592265956
 30
0.0
 11
71.4592590045351
 21
24.34270272732745
 31
0.0
  0
LINE
  5
164
  8
STANDARD
 10
71.4592590045351
 20
24.34270272732745
 30
0.0
 11
71.69938254960269
 21
24.8456787011373
 31
0.0
  0
LINE
  5
165
  8
STANDARD
 10
71.69938254960269
 20
24.8456787011373
 30
0.0
 11
71.9379505653958
 21
25.34251485411495
 31
0.0
  0
LINE
  5
166
  8
STANDARD
 10
71.9379505653958
 20
25.34251485411495
 30
0.0
 11
72.17484339581638
 21
25.83273889235025
 31
0.0
  0
LINE
  5
167
  8
STANDARD
 10
72.17484339581638
 20
25.83273889235025
 30
0.0
 11
72.40994138476643
 21
26.31587852193302
 31
0.0
  0
LINE
  5
168
  8
STANDARD
 10
72.40994138476643
 20
26.31587852193302
 30
0.0
 11
72.64312693173449
 21
26.79151279709663
 31
0.0
  0
LINE
  5
169
  8
STANDARD
 10
72.64312693173449
 20
26.79151279709663
 30
0.0
 11
72.87431146228069
 21
27.25994583755082
 31
0.0
  0
LINE
  5
16A
  8
STANDARD
 10
72.87431146228069
 20
27.25994583755082
 30
0.0
 11
73.10342789251752
 21
27.72201859271629
 31
0.0
  0
LINE
  5
16B
  8
STANDARD
 10
73.10342789251752
 20
27.72201859271629
 30
0.0
 11
73.33040964422611
 21
28.17858464351499
 31
0.0
  0
LINE
  5
16C
  8
STANDARD
 10
73.33040964422611
 20
28.17858464351499
 30
0.0
 11
73.55519013918754
 21
28.63049757086886
 31
0.0
  0
LINE
  5
16D
  8
STANDARD
 10
73.55519013918754
 20
28.63049757086886
 30
0.0
 11
73.77770279918296
 21
29.07861095569986
 31
0.0
  0
LINE
  5
16E
  8
STANDARD
 10
73.77770279918296
 20
29.07861095569986
 30
0.0
 11
73.99788104599345
 21
29.52377837892996
 31
0.0
  0
LINE
  5
16F
  8
STANDARD
 10
73.99788104599345
 20
29.52377837892996
 30
0.0
 11
74.21565830140015
 21
29.96685342148108
 31
0.0
  0
LINE
  5
170
  8
STANDARD
 10
74.21565830140015
 20
29.96685342148108
 30
0.0
 11
74.43096798718415
 21
30.40868966427521
 31
0.0
  0
LINE
  5
171
  8
STANDARD
 10
74.43096798718415
 20
30.40868966427521
 30
0.0
 11
74.64374352512657
 21
30.85014068823428
 31
0.0
  0
LINE
  5
172
  8
STANDARD
 10
74.64374352512657
 20
30.85014068823428
 30
0.0
 11
74.85391833700854
 21
31.29206007428026
 31
0.0
  0
LINE
  5
173
  8
STANDARD
 10
74.85391833700854
 20
31.29206007428026
 30
0.0
 11
75.06142584461115
 21
31.73530140333509
 31
0.0
  0
LINE
  5
174
  8
STANDARD
 10
75.06142584461115
 20
31.73530140333509
 30
0.0
 11
75.2661994697155
 21
32.18071825632073
 31
0.0
  0
LINE
  5
175
  8
STANDARD
 10
75.2661994697155
 20
32.18071825632073
 30
0.0
 11
75.46817263410276
 21
32.62916421415913
 31
0.0
  0
LINE
  5
176
  8
STANDARD
 10
75.46817263410276
 20
32.62916421415913
 30
0.0
 11
75.66727875955398
 21
33.08149285777225
 31
0.0
  0
LINE
  5
177
  8
STANDARD
 10
75.66727875955398
 20
33.08149285777225
 30
0.0
 11
75.86345126785031
 21
33.53855776808204
 31
0.0
  0
LINE
  5
178
  8
STANDARD
 10
75.86345126785031
 20
33.53855776808204
 30
0.0
 11
76.05662358077286
 21
34.00121252601046
 31
0.0
  0
LINE
  5
179
  8
STANDARD
 10
76.05662358077286
 20
34.00121252601046
 30
0.0
 11
76.24672912010271
 21
34.47031071247945
 31
0.0
  0
LINE
  5
17A
  8
STANDARD
 10
76.24672912010271
 20
34.47031071247945
 30
0.0
 11
76.433701307621
 21
34.94670590841098
 31
0.0
  0
LINE
  5
17B
  8
STANDARD
 10
76.433701307621
 20
34.94670590841098
 30
0.0
 11
76.6174735651089
 21
35.431251694727
 31
0.0
  0
LINE
  5
17C
  8
STANDARD
 10
76.6174735651089
 20
35.431251694727
 30
0.0
 11
76.79797931434739
 21
35.92480165234945
 31
0.0
  0
LINE
  5
17D
  8
STANDARD
 10
76.79797931434739
 20
35.92480165234945
 30
0.0
 11
76.97515197711768
 21
36.4282093622003
 31
0.0
  0
LINE
  5
17E
  8
STANDARD
 10
76.97515197711768
 20
36.4282093622003
 30
0.0
 11
77.14892497520087
 21
36.94232840520149
 31
0.0
  0
LINE
  5
17F
  8
STANDARD
 10
77.14892497520087
 20
36.94232840520149
 30
0.0
 11
77.31923173037804
 21
37.46801236227499
 31
0.0
  0
LINE
  5
180
  8
STANDARD
 10
77.31923173037804
 20
37.46801236227499
 30
0.0
 11
77.48600566443035
 21
38.00611481434274
 31
0.0
  0
LINE
  5
181
  8
STANDARD
 10
77.48600566443035
 20
38.00611481434274
 30
0.0
 11
77.64918019913888
 21
38.55748934232672
 31
0.0
  0
LINE
  5
182
  8
STANDARD
 10
77.64918019913888
 20
38.55748934232672
 30
0.0
 11
77.80868875628472
 21
39.12298952714883
 31
0.0
  0
LINE
  5
183
  8
STANDARD
 10
77.80868875628472
 20
39.12298952714883
 30
0.0
 11
77.96446475764904
 21
39.70346894973108
 31
0.0
  0
LINE
  5
184
  8
STANDARD
 10
77.96446475764904
 20
39.70346894973108
 30
0.0
 11
78.11644162501294
 21
40.2997811909954
 31
0.0
  0
LINE
  5
185
  8
STANDARD
 10
78.11644162501294
 20
40.2997811909954
 30
0.0
 11
78.26455278015749
 21
40.91277983186374
 31
0.0
  0
LINE
  5
186
  8
STANDARD
 10
78.26455278015749
 20
40.91277983186374
 30
0.0
 11
78.40873164486383
 21
41.54331845325805
 31
0.0
  0
LINE
  5
187
  8
STANDARD
 10
78.40873164486383
 20
41.54331845325805
 30
0.0
 11
78.54891164091309
 21
42.19225063610031
 31
0.0
  0
LINE
  5
188
  8
STANDARD
 10
78.54891164091309
 20
42.19225063610031
 30
0.0
 11
78.68502619008636
 21
42.86042996131245
 31
0.0
  0
LINE
  5
189
  8
STANDARD
 10
78.68502619008636
 20
42.86042996131245
 30
0.0
 11
78.81700871416476
 21
43.54871000981642
 31
0.0
  0
LINE
  5
18A
  8
STANDARD
 10
78.81700871416476
 20
43.54871000981642
 30
0.0
 11
78.9447926349294
 21
44.2579443625342
 31
0.0
  0
LINE
  5
18B
  8
STANDARD
 10
78.9447926349294
 20
44.2579443625342
 30
0.0
 11
79.06831137416138
 21
44.98898660038772
 31
0.0
  0
LINE
  5
18C
  8
STANDARD
 10
79.06831137416138
 20
44.98898660038772
 30
0.0
 11
79.18749835364187
 21
45.74269030429895
 31
0.0
  0
LINE
  5
18D
  8
STANDARD
 10
79.18749835364187
 20
45.74269030429895
 30
0.0
 11
79.30228699515189
 21
46.51990905518982
 31
0.0
  0
LINE
  5
18E
  8
STANDARD
 10
79.30228699515189
 20
46.51990905518982
 30
0.0
 11
79.41261072047263
 21
47.3214964339823
 31
0.0
  0
LINE
  5
18F
  8
STANDARD
 10
79.41261072047263
 20
47.3214964339823
 30
0.0
 11
79.51838499280733
 21
48.1482404995183
 31
0.0
  0
LINE
  5
190
  8
STANDARD
 10
79.51838499280733
 20
48.1482404995183
 30
0.0
 11
79.61432434178855
 21
48.98195364405895
 31
0.0
  0
LINE
  5
191
  8
STANDARD
 10
79.61432434178855
 20
48.98195364405895
 30
0.0
 11
79.68276613878541
 21
49.75929005408707
 31
0.0
  0
LINE
  5
192
  8
STANDARD
 10
79.68276613878541
 20
49.75929005408707
 30
0.0
 11
79.70424626394995
 21
50.41033115444141
 31
0.0
  0
LINE
  5
193
  8
STANDARD
 10
79.70424626394995
 20
50.41033115444141
 30
0.0
 11
79.65930059743401
 21
50.86515836996069
 31
0.0
  0
LINE
  5
194
  8
STANDARD
 10
79.65930059743401
 20
50.86515836996069
 30
0.0
 11
79.52846501938953
 21
51.05385312548362
 31
0.0
  0
LINE
  5
195
  8
STANDARD
 10
79.52846501938953
 20
51.05385312548362
 30
0.0
 11
79.2959062083388
 21
50.92524318640559
 31
0.0
  0
LINE
  5
196
  8
STANDARD
 10
79.2959062083388
 20
50.92524318640559
 30
0.0
 11
78.96878446007004
 21
50.5468757114667
 31
0.0
  0
LINE
  5
197
  8
STANDARD
 10
78.96878446007004
 20
50.5468757114667
 30
0.0
 11
78.56323417029279
 21
50.0326324437472
 31
0.0
  0
LINE
  5
198
  8
STANDARD
 10
78.56323417029279
 20
50.0326324437472
 30
0.0
 11
78.09541024046821
 21
49.49650100050825
 31
0.0
  0
LINE
  5
199
  8
STANDARD
 10
78.09541024046821
 20
49.49650100050825
 30
0.0
 11
77.58146757205749
 21
49.05246899901099
 31
0.0
  0
LINE
  5
19A
  8
STANDARD
 10
77.58146757205749
 20
49.05246899901099
 30
0.0
 11
77.03669296936529
 21
48.7972082275048
 31
0.0
  0
LINE
  5
19B
  8
STANDARD
 10
77.03669296936529
 20
48.7972082275048
 30
0.0
 11
76.4708508317935
 21
48.71723573141671
 31
0.0
  0
LINE
  5
19C
  8
STANDARD
 10
76.4708508317935
 20
48.71723573141671
 30
0.0
 11
75.89154131902511
 21
48.75589872820223
 31
0.0
  0
LINE
  5
19D
  8
STANDARD
 10
75.89154131902511
 20
48.75589872820223
 30
0.0
 11
75.3063595204597
 21
48.85644329898472
 31
0.0
  0
LINE
  5
19E
  8
STANDARD
 10
75.3063595204597
 20
48.85644329898472
 30
0.0
 11
74.72290052549677
 21
48.96211552488749
 31
0.0
  0
LINE
  5
19F
  8
STANDARD
 10
74.72290052549677
 20
48.96211552488749
 30
0.0
 11
74.14856463805764
 21
49.01734300395579
 31
0.0
  0
LINE
  5
1A0
  8
STANDARD
 10
74.14856463805764
 20
49.01734300395579
 30
0.0
 11
73.58592990281548
 21
48.99580387671026
 31
0.0
  0
LINE
  5
1A1
  8
STANDARD
 10
73.58592990281548
 20
48.99580387671026
 30
0.0
 11
73.03255397014158
 21
48.90162866070292
 31
0.0
  0
LINE
  5
1A2
  8
STANDARD
 10
73.03255397014158
 20
48.90162866070292
 30
0.0
 11
72.48576005777642
 21
48.7403698794946
 31
0.0
  0
LINE
  5
1A3
  8
STANDARD
 10
72.48576005777642
 20
48.7403698794946
 30
0.0
 11
71.94287138346043
 21
48.51758005664614
 31
0.0
  0
LINE
  5
1A4
  8
STANDARD
 10
71.94287138346043
 20
48.51758005664614
 30
0.0
 11
71.4012111649341
 21
48.23881171571839
 31
0.0
  0
LINE
  5
1A5
  8
STANDARD
 10
71.4012111649341
 20
48.23881171571839
 30
0.0
 11
70.85812617042708
 21
47.90979105182938
 31
0.0
  0
LINE
  5
1A6
  8
STANDARD
 10
70.85812617042708
 20
47.90979105182938
 30
0.0
 11
70.31353132968593
 21
47.55518300082922
 31
0.0
  0
LINE
  5
1A7
  8
STANDARD
 10
70.31353132968593
 20
47.55518300082922
 30
0.0
 11
69.77218468750308
 21
47.23536773672123
 31
0.0
  0
LINE
  5
1A8
  8
STANDARD
 10
69.77218468750308
 20
47.23536773672123
 30
0.0
 11
69.2393810634584
 21
47.01468384440433
 31
0.0
  0
LINE
  5
1A9
  8
STANDARD
 10
69.2393810634584
 20
47.01468384440433
 30
0.0
 11
68.72041527713172
 21
46.95746990877743
 31
0.0
  0
LINE
  5
1AA
  8
STANDARD
 10
68.72041527713172
 20
46.95746990877743
 30
0.0
 11
68.22125639657509
 21
47.12420599074379
 31
0.0
  0
LINE
  5
1AB
  8
STANDARD
 10
68.22125639657509
 20
47.12420599074379
 30
0.0
 11
67.75953716775506
 21
47.5086243824484
 31
0.0
  0
LINE
  5
1AC
  8
STANDARD
 10
67.75953716775506
 20
47.5086243824484
 30
0.0
 11
67.36274955441979
 21
48.04803599733785
 31
0.0
  0
LINE
  5
1AD
  8
STANDARD
 10
67.36274955441979
 20
48.04803599733785
 30
0.0
 11
67.05869567796303
 21
48.67797680865895
 31
0.0
  0
LINE
  5
1AE
  8
STANDARD
 10
67.05869567796303
 20
48.67797680865895
 30
0.0
 11
66.87517765977859
 21
49.33398278965861
 31
0.0
  0
LINE
  5
1AF
  8
STANDARD
 10
66.87517765977859
 20
49.33398278965861
 30
0.0
 11
66.8399976212602
 21
49.95158991358366
 31
0.0
  0
LINE
  5
1B0
  8
STANDARD
 10
66.8399976212602
 20
49.95158991358366
 30
0.0
 11
66.98095768380165
 21
50.46633415368099
 31
0.0
  0
LINE
  5
1B1
  8
STANDARD
 10
66.98095768380165
 20
50.46633415368099
 30
0.0
 11
67.31489237037418
 21
50.82891621111332
 31
0.0
  0
LINE
  5
1B2
  8
STANDARD
 10
67.31489237037418
 20
50.82891621111332
 30
0.0
 11
67.80326475427695
 21
51.06659803010114
 31
0.0
  0
LINE
  5
1B3
  8
STANDARD
 10
67.80326475427695
 20
51.06659803010114
 30
0.0
 11
68.39010359753851
 21
51.23074770615113
 31
0.0
  0
LINE
  5
1B4
  8
STANDARD
 10
68.39010359753851
 20
51.23074770615113
 30
0.0
 11
69.01943120235815
 21
51.37274226667554
 31
0.0
  0
LINE
  5
1B5
  8
STANDARD
 10
69.01943120235815
 20
51.37274226667554
 30
0.0
 11
69.63538523865849
 21
51.54384607991268
 31
0.0
  0
LINE
  5
1B6
  8
STANDARD
 10
69.63538523865849
 20
51.54384607991268
 30
0.0
 11
70.20000502913
 21
51.77784214797396
 31
0.0
  0
LINE
  5
1B7
  8
STANDARD
 10
70.20000502913
 20
51.77784214797396
 30
0.0
 11
70.71245000288954
 21
52.07226485506188
 31
0.0
  0
LINE
  5
1B8
  8
STANDARD
 10
70.71245000288954
 20
52.07226485506188
 30
0.0
 11
71.17649220928006
 21
52.42014425809573
 31
0.0
  0
LINE
  5
1B9
  8
STANDARD
 10
71.17649220928006
 20
52.42014425809573
 30
0.0
 11
71.59590369764452
 21
52.81451041399483
 31
0.0
  0
LINE
  5
1BA
  8
STANDARD
 10
71.59590369764452
 20
52.81451041399483
 30
0.0
 11
71.97445651732586
 21
53.24839337967848
 31
0.0
  0
LINE
  5
1BB
  8
STANDARD
 10
71.97445651732586
 20
53.24839337967848
 30
0.0
 11
72.31592271766704
 21
53.71482321206597
 31
0.0
  0
LINE
  5
1BC
  8
STANDARD
 10
72.31592271766704
 20
53.71482321206597
 30
0.0
 11
72.62415731891366
 21
54.20680898748578
 31
0.0
  0
LINE
  5
1BD
  8
STANDARD
 10
72.62415731891366
 20
54.20680898748578
 30
0.0
 11
72.9059727178103
 21
54.71661195978624
 31
0.0
  0
LINE
  5
1BE
  8
STANDARD
 10
72.9059727178103
 20
54.71661195978624
 30
0.0
 11
73.17187475748739
 21
55.2355594326616
 31
0.0
  0
LINE
  5
1BF
  8
STANDARD
 10
73.17187475748739
 20
55.2355594326616
 30
0.0
 11
73.43260174935841
 21
55.75491992628369
 31
0.0
  0
LINE
  5
1C0
  8
STANDARD
 10
73.43260174935841
 20
55.75491992628369
 30
0.0
 11
73.69889200483678
 21
56.26596196082428
 31
0.0
  0
LINE
  5
1C1
  8
STANDARD
 10
73.69889200483678
 20
56.26596196082428
 30
0.0
 11
73.98148383533594
 21
56.75995405645519
 31
0.0
  0
LINE
  5
1C2
  8
STANDARD
 10
73.98148383533594
 20
56.75995405645519
 30
0.0
 11
74.29111555226936
 21
57.22816473334818
 31
0.0
  0
LINE
  5
1C3
  8
STANDARD
 10
74.29111555226936
 20
57.22816473334818
 30
0.0
 11
74.63835513337733
 21
57.66201354884682
 31
0.0
  0
LINE
  5
1C4
  8
STANDARD
 10
74.63835513337733
 20
57.66201354884682
 30
0.0
 11
75.02647306161884
 21
58.05939084761832
 31
0.0
  0
LINE
  5
1C5
  8
STANDARD
 10
75.02647306161884
 20
58.05939084761832
 30
0.0
 11
75.44884951736735
 21
58.42695683940219
 31
0.0
  0
LINE
  5
1C6
  8
STANDARD
 10
75.44884951736735
 20
58.42695683940219
 30
0.0
 11
75.89816071389937
 21
58.77199595108403
 31
0.0
  0
LINE
  5
1C7
  8
STANDARD
 10
75.89816071389937
 20
58.77199595108403
 30
0.0
 11
76.36708286449154
 21
59.10179260954945
 31
0.0
  0
LINE
  5
1C8
  8
STANDARD
 10
76.36708286449154
 20
59.10179260954945
 30
0.0
 11
76.84829218242045
 21
59.42363124168407
 31
0.0
  0
LINE
  5
1C9
  8
STANDARD
 10
76.84829218242045
 20
59.42363124168407
 30
0.0
 11
77.33446488096266
 21
59.74479627437351
 31
0.0
  0
LINE
  5
1CA
  8
STANDARD
 10
77.33446488096266
 20
59.74479627437351
 30
0.0
 11
77.81827717339476
 21
60.07257213450337
 31
0.0
  0
LINE
  5
1CB
  8
STANDARD
 10
77.81827717339476
 20
60.07257213450337
 30
0.0
 11
78.29240527299339
 21
60.41424324895927
 31
0.0
  0
LINE
  5
1CC
  8
STANDARD
 10
78.29240527299339
 20
60.41424324895927
 30
0.0
 11
78.74952539303509
 21
60.77709404462682
 31
0.0
  0
LINE
  5
1CD
  8
STANDARD
 10
78.74952539303509
 20
60.77709404462682
 30
0.0
 11
79.18231374679647
 21
61.16840894839164
 31
0.0
  0
LINE
  5
1CE
  8
STANDARD
 10
79.18231374679647
 20
61.16840894839164
 30
0.0
 11
79.58351992512549
 21
61.59537999483946
 31
0.0
  0
LINE
  5
1CF
  8
STANDARD
 10
79.58351992512549
 20
61.59537999483946
 30
0.0
 11
79.95874907681859
 21
62.04901233007207
 31
0.0
  0
LINE
  5
1D0
  8
STANDARD
 10
79.95874907681859
 20
62.04901233007207
 30
0.0
 11
80.34106404376705
 21
62.48573814599246
 31
0.0
  0
LINE
  5
1D1
  8
STANDARD
 10
80.34106404376705
 20
62.48573814599246
 30
0.0
 11
80.76706018189519
 21
62.85754172092803
 31
0.0
  0
LINE
  5
1D2
  8
STANDARD
 10
80.76706018189519
 20
62.85754172092803
 30
0.0
 11
81.2714621948204
 21
63.11882880401779
 31
0.0
  0
LINE
  5
1D3
  8
STANDARD
 10
81.2714621948204
 20
63.11882880401779
 30
0.0
 11
81.84896945013924
 21
63.27581604616146
 31
0.0
  0
LINE
  5
1D4
  8
STANDARD
 10
81.84896945013924
 20
63.27581604616146
 30
0.0
 11
82.45585476717497
 21
63.3844614450032
 31
0.0
  0
LINE
  5
1D5
  8
STANDARD
 10
82.45585476717497
 20
63.3844614450032
 30
0.0
 11
83.04684023706923
 21
63.50273034237132
 31
0.0
  0
LINE
  5
1D6
  8
STANDARD
 10
83.04684023706923
 20
63.50273034237132
 30
0.0
 11
83.57664795096369
 21
63.68858808009414
 31
0.0
  0
ENDSEC
  0
EOF
