  0
SECTION
  2
HEADER
  9
$ACADVER
  1
AC1015
  9
$ACADMAINTVER
 70
     6
  9
$DWGCODEPAGE
  3
ANSI_1252
  9
$INSBASE
 10
0.0
 20
0.0
 30
0.0
  9
$EXTMIN
 10
-112.5497041122
 20
-80.6289913924
 30
0.0
  9
$EXTMAX
 10
91.2579723287
 20
21.6994206116
 30
0.0
  9
$LIMMIN
 10
0.0
 20
0.0
  9
$LIMMAX
 10
420.0
 20
297.0
  9
$ORTHOMODE
 70
     0
  9
$REGENMODE
 70
     1
  9
$FILLMODE
 70
     1
  9
$QTEXTMODE
 70
     0
  9
$MIRRTEXT
 70
     1
  9
$LTSCALE
 40
1.0
  9
$ATTMODE
 70
     1
  9
$TEXTSIZE
 40
3.5
  9
$TRACEWID
 40
1.0
  9
$TEXTSTYLE
  7
Standard
  9
$CLAYER
  8
0
  9
$CELTYPE
  6
ByLayer
  9
$CECOLOR
 62
   256
  9
$CELTSCALE
 40
1.0
  9
$DISPSILH
 70
     0
  9
$DIMSCALE
 40
1.0
  9
$DIMASZ
 40
3.302
  9
$DIMEXO
 40
1.0
  9
$DIMDLI
 40
3.75
  9
$DIMRND
 40
0.0
  9
$DIMDLE
 40
0.0
  9
$DIMEXE
 40
1.0
  9
$DIMTP
 40
0.0
  9
$DIMTM
 40
0.0
  9
$DIMTXT
 40
3.5
  9
$DIMCEN
 40
2.5
  9
$DIMTSZ
 40
0.0
  9
$DIMTOL
 70
     0
  9
$DIMLIM
 70
     0
  9
$DIMTIH
 70
     1
  9
$DIMTOH
 70
     1
  9
$DIMSE1
 70
     0
  9
$DIMSE2
 70
     0
  9
$DIMTAD
 70
     1
  9
$DIMZIN
 70
     0
  9
$DIMBLK
  1

  9
$DIMASO
 70
     1
  9
$DIMSHO
 70
     1
  9
$DIMPOST
  1

  9
$DIMAPOST
  1

  9
$DIMALT
 70
     0
  9
$DIMALTD
 70
     3
  9
$DIMALTF
 40
0.0393700787
  9
$DIMLFAC
 40
1.0
  9
$DIMTOFL
 70
     1
  9
$DIMTVP
 40
0.0
  9
$DIMTIX
 70
     0
  9
$DIMSOXD
 70
     0
  9
$DIMSAH
 70
     0
  9
$DIMBLK1
  1

  9
$DIMBLK2
  1

  9
$DIMSTYLE
  2
ISO-25
  9
$DIMCLRD
 70
     0
  9
$DIMCLRE
 70
     0
  9
$DIMCLRT
 70
     0
  9
$DIMTFAC
 40
1.0
  9
$DIMGAP
 40
1.524
  9
$DIMJUST
 70
     0
  9
$DIMSD1
 70
     0
  9
$DIMSD2
 70
     0
  9
$DIMTOLJ
 70
     0
  9
$DIMTZIN
 70
     0
  9
$DIMALTZ
 70
     0
  9
$DIMALTTZ
 70
     0
  9
$DIMUPT
 70
     0
  9
$DIMDEC
 70
     2
  9
$DIMTDEC
 70
     2
  9
$DIMALTU
 70
     2
  9
$DIMALTTD
 70
     3
  9
$DIMTXSTY
  7
Standard
  9
$DIMAUNIT
 70
     0
  9
$DIMADEC
 70
     2
  9
$DIMALTRND
 40
0.0
  9
$DIMAZIN
 70
     0
  9
$DIMDSEP
 70
    44
  9
$DIMATFIT
 70
     3
  9
$DIMFRAC
 70
     0
  9
$DIMLDRBLK
  1

  9
$DIMLUNIT
 70
     2
  9
$DIMLWD
 70
    -2
  9
$DIMLWE
 70
    -2
  9
$DIMTMOVE
 70
     0
  9
$LUNITS
 70
     2
  9
$LUPREC
 70
     2
  9
$SKETCHINC
 40
1.0
  9
$FILLETRAD
 40
10.0
  9
$AUNITS
 70
     0
  9
$AUPREC
 70
     2
  9
$MENU
  1
.
  9
$ELEVATION
 40
0.0
  9
$PELEVATION
 40
0.0
  9
$THICKNESS
 40
0.0
  9
$LIMCHECK
 70
     0
  9
$CHAMFERA
 40
0.0
  9
$CHAMFERB
 40
0.0
  9
$CHAMFERC
 40
0.0
  9
$CHAMFERD
 40
0.0
  9
$SKPOLY
 70
     0
  9
$TDCREATE
 40
2458215.516055799
  9
$TDUCREATE
 40
2458215.286889132
  9
$TDUPDATE
 40
2458215.516260069
  9
$TDUUPDATE
 40
2458215.287093403
  9
$TDINDWG
 40
0.0000000116
  9
$TDUSRTIMER
 40
0.0000000116
  9
$USRTIMER
 70
     1
  9
$ANGBASE
 50
0.0
  9
$ANGDIR
 70
     0
  9
$PDMODE
 70
     0
  9
$PDSIZE
 40
-1.0
  9
$PLINEWID
 40
0.0
  9
$SPLFRAME
 70
     0
  9
$SPLINETYPE
 70
     6
  9
$SPLINESEGS
 70
     8
  9
$HANDSEED
  5
157
  9
$SURFTAB1
 70
     6
  9
$SURFTAB2
 70
     6
  9
$SURFTYPE
 70
     6
  9
$SURFU
 70
     6
  9
$SURFV
 70
     6
  9
$UCSBASE
  2

  9
$UCSNAME
  2

  9
$UCSORG
 10
0.0
 20
0.0
 30
0.0
  9
$UCSXDIR
 10
1.0
 20
0.0
 30
0.0
  9
$UCSYDIR
 10
0.0
 20
1.0
 30
0.0
  9
$UCSORTHOREF
  2

  9
$UCSORTHOVIEW
 70
     0
  9
$UCSORGTOP
 10
0.0
 20
0.0
 30
0.0
  9
$UCSORGBOTTOM
 10
0.0
 20
0.0
 30
0.0
  9
$UCSORGLEFT
 10
0.0
 20
0.0
 30
0.0
  9
$UCSORGRIGHT
 10
0.0
 20
0.0
 30
0.0
  9
$UCSORGFRONT
 10
0.0
 20
0.0
 30
0.0
  9
$UCSORGBACK
 10
0.0
 20
0.0
 30
0.0
  9
$PUCSBASE
  2

  9
$PUCSNAME
  2

  9
$PUCSORG
 10
0.0
 20
0.0
 30
0.0
  9
$PUCSXDIR
 10
1.0
 20
0.0
 30
0.0
  9
$PUCSYDIR
 10
0.0
 20
1.0
 30
0.0
  9
$PUCSORTHOREF
  2

  9
$PUCSORTHOVIEW
 70
     0
  9
$PUCSORGTOP
 10
0.0
 20
0.0
 30
0.0
  9
$PUCSORGBOTTOM
 10
0.0
 20
0.0
 30
0.0
  9
$PUCSORGLEFT
 10
0.0
 20
0.0
 30
0.0
  9
$PUCSORGRIGHT
 10
0.0
 20
0.0
 30
0.0
  9
$PUCSORGFRONT
 10
0.0
 20
0.0
 30
0.0
  9
$PUCSORGBACK
 10
0.0
 20
0.0
 30
0.0
  9
$USERI1
 70
     0
  9
$USERI2
 70
     0
  9
$USERI3
 70
     0
  9
$USERI4
 70
     0
  9
$USERI5
 70
     0
  9
$USERR1
 40
0.0
  9
$USERR2
 40
0.0
  9
$USERR3
 40
0.0
  9
$USERR4
 40
0.0
  9
$USERR5
 40
0.0
  9
$WORLDVIEW
 70
     1
  9
$SHADEDGE
 70
     3
  9
$SHADEDIF
 70
    70
  9
$TILEMODE
 70
     1
  9
$MAXACTVP
 70
    64
  9
$PINSBASE
 10
0.0
 20
0.0
 30
0.0
  9
$PLIMCHECK
 70
     0
  9
$PEXTMIN
 10
1.0000000000E+20
 20
1.0000000000E+20
 30
1.0000000000E+20
  9
$PEXTMAX
 10
-1.0000000000E+20
 20
-1.0000000000E+20
 30
-1.0000000000E+20
  9
$PLIMMIN
 10
0.0
 20
0.0
  9
$PLIMMAX
 10
420.0
 20
297.0
  9
$UNITMODE
 70
     0
  9
$VISRETAIN
 70
     1
  9
$PLINEGEN
 70
     0
  9
$PSLTSCALE
 70
     1
  9
$TREEDEPTH
 70
  3020
  9
$CMLSTYLE
  2
Standard
  9
$CMLJUST
 70
     0
  9
$CMLSCALE
 40
20.0
  9
$PROXYGRAPHICS
 70
     1
  9
$MEASUREMENT
 70
     1
  9
$CELWEIGHT
370
    -1
  9
$ENDCAPS
280
     0
  9
$JOINSTYLE
280
     0
  9
$LWDISPLAY
290
     1
  9
$INSUNITS
 70
     4
  9
$HYPERLINKBASE
  1

  9
$STYLESHEET
  1

  9
$XEDIT
290
     1
  9
$CEPSNTYPE
380
     0
  9
$PSTYLEMODE
290
     1
  9
$FINGERPRINTGUID
  2
{56F37F21-7019-404A-B1C0-1ABAF02AA74B}
  9
$VERSIONGUID
  2
{FAEB1C32-E019-11D5-929B-00C0DF256EC4}
  9
$EXTNAMES
290
     1
  9
$PSVPSCALE
 40
0.0
  9
$OLESTARTUP
290
     0
  0
ENDSEC
  0
SECTION
  2
CLASSES
  0
CLASS
  1
ACDBDICTIONARYWDFLT
  2
AcDbDictionaryWithDefault
  3
ObjectDBX Classes
 90
        0
280
     0
281
     0
  0
CLASS
  1
VISUALSTYLE
  2
AcDbVisualStyle
  3
ObjectDBX Classes
 90
     4095
280
     0
281
     0
  0
CLASS
  1
MATERIAL
  2
AcDbMaterial
  3
ObjectDBX Classes
 90
     1153
280
     0
281
     0
  0
CLASS
  1
SCALE
  2
AcDbScale
  3
ObjectDBX Classes
 90
     1153
280
     0
281
     0
  0
CLASS
  1
TABLESTYLE
  2
AcDbTableStyle
  3
ObjectDBX Classes
 90
     4095
280
     0
281
     0
  0
CLASS
  1
MLEADERSTYLE
  2
AcDbMLeaderStyle
  3
ACDB_MLEADERSTYLE_CLASS
 90
     4095
280
     0
281
     0
  0
CLASS
  1
SUN
  2
AcDbSun
  3
SCENEOE
 90
     1153
280
     0
281
     0
  0
CLASS
  1
ACDBPLACEHOLDER
  2
AcDbPlaceHolder
  3
ObjectDBX Classes
 90
        0
280
     0
281
     0
  0
CLASS
  1
LAYOUT
  2
AcDbLayout
  3
ObjectDBX Classes
 90
        0
280
     0
281
     0
  0
ENDSEC
  0
SECTION
  2
TABLES
  0
TABLE
  2
VPORT
  5
8
330
0
100
AcDbSymbolTable
 70
     1
  0
VPORT
  5
29
330
8
100
AcDbSymbolTableRecord
100
AcDbViewportTableRecord
  2
*Active
 70
     0
 10
0.0
 20
0.0
 11
1.0
 21
1.0
 12
-10.6458658917
 22
-29.4647853904
 13
0.0
 23
0.0
 14
10.0
 24
10.0
 15
10.0
 25
10.0
 16
0.0
 26
0.0
 36
1.0
 17
0.0
 27
0.0
 37
0.0
 40
104.374980244
 41
1.991701742
 42
50.0
 43
0.0
 44
0.0
 50
0.0
 51
0.0
 71
     0
 72
   100
 73
     1
 74
     3
 75
     0
 76
     0
 77
     0
 78
     0
281
     0
 65
     1
110
0.0
120
0.0
130
0.0
111
1.0
121
0.0
131
0.0
112
0.0
122
1.0
132
0.0
 79
     0
146
0.0
  0
ENDTAB
  0
TABLE
  2
LTYPE
  5
5
330
0
100
AcDbSymbolTable
 70
     6
  0
LTYPE
  5
14
330
5
100
AcDbSymbolTableRecord
100
AcDbLinetypeTableRecord
  2
ByBlock
 70
     0
  3

 72
    65
 73
     0
 40
0.0
  0
LTYPE
  5
15
330
5
100
AcDbSymbolTableRecord
100
AcDbLinetypeTableRecord
  2
ByLayer
 70
     0
  3

 72
    65
 73
     0
 40
0.0
  0
LTYPE
  5
16
330
5
100
AcDbSymbolTableRecord
100
AcDbLinetypeTableRecord
  2
Continuous
 70
     0
  3
Solid line
 72
    65
 73
     0
 40
0.0
  0
LTYPE
  5
6E
330
5
100
AcDbSymbolTableRecord
100
AcDbLinetypeTableRecord
  2
HIDDEN
 70
     0
  3
Hidden __ __ __ __ __ __ __ __ __ __ __ __ __ __
 72
    65
 73
     2
 40
1.905
 49
1.27
 74
     0
 49
-0.635
 74
     0
  0
LTYPE
  5
6F
330
5
100
AcDbSymbolTableRecord
100
AcDbLinetypeTableRecord
  2
PHANTOM
 70
     0
  3
Phantom ______  __  __  ______  __  __  ______
 72
    65
 73
     6
 40
12.7
 49
6.35
 74
     0
 49
-1.27
 74
     0
 49
1.27
 74
     0
 49
-1.27
 74
     0
 49
1.27
 74
     0
 49
-1.27
 74
     0
  0
LTYPE
  5
70
330
5
100
AcDbSymbolTableRecord
100
AcDbLinetypeTableRecord
  2
CENTER
 70
     0
  3
Center ____ _ ____ _ ____ _ ____ _ ____ _ ____
 72
    65
 73
     4
 40
10.16
 49
6.35
 74
     0
 49
-1.27
 74
     0
 49
1.27
 74
     0
 49
-1.27
 74
     0
  0
LTYPE
  5
71
330
5
100
AcDbSymbolTableRecord
100
AcDbLinetypeTableRecord
  2
CENTERX2
 70
     0
  3
Center (2x) ________  __  ________  __  _____
 72
    65
 73
     4
 40
20.32
 49
12.7
 74
     0
 49
-2.54
 74
     0
 49
2.54
 74
     0
 49
-2.54
 74
     0
  0
LTYPE
  5
72
330
5
100
AcDbSymbolTableRecord
100
AcDbLinetypeTableRecord
  2
DOT2
 70
     0
  3
Dot (.5x) ........................................
 72
    65
 73
     2
 40
0.635
 49
0.0
 74
     0
 49
-0.635
 74
     0
  0
ENDTAB
  0
TABLE
  2
LAYER
  5
2
330
0
100
AcDbSymbolTable
 70
     1
  0
LAYER
  5
10
330
2
100
AcDbSymbolTableRecord
100
AcDbLayerTableRecord
  2
0
 70
     0
 62
     7
  6
Continuous
370
    -3
390
F
  0
ENDTAB
  0
TABLE
  2
STYLE
  5
3
330
0
100
AcDbSymbolTable
 70
     2
  0
STYLE
  5
11
330
3
100
AcDbSymbolTableRecord
100
AcDbTextStyleTableRecord
  2
Standard
 70
     0
 40
0.0
 41
1.0
 50
0.0
 71
     0
 42
3.5
  3
txt
  4

  0
STYLE
  5
154
330
3
100
AcDbSymbolTableRecord
100
AcDbTextStyleTableRecord
  2
SLDTEXTSTYLE0
 70
     0
 40
0.0
 41
0.7
 50
0.0
 71
     0
 42
3.5
  3
TXT
  4

  0
ENDTAB
  0
TABLE
  2
VIEW
  5
6
330
0
100
AcDbSymbolTable
 70
     0
  0
ENDTAB
  0
TABLE
  2
UCS
  5
7
330
0
100
AcDbSymbolTable
 70
     0
  0
ENDTAB
  0
TABLE
  2
APPID
  5
9
330
0
100
AcDbSymbolTable
 70
     1
  0
APPID
  5
12
330
9
100
AcDbSymbolTableRecord
100
AcDbRegAppTableRecord
  2
ACAD
 70
     0
  0
ENDTAB
  0
TABLE
  2
DIMSTYLE
  5
A
330
0
100
AcDbSymbolTable
 70
     1
100
AcDbDimStyleTable
  0
DIMSTYLE
105
27
330
A
100
AcDbSymbolTableRecord
100
AcDbDimStyleTableRecord
  2
ISO-25
 70
     0
 41
2.5
 42
0.625
 43
3.75
 44
1.25
 73
     0
 74
     0
 77
     1
 78
     8
140
2.5
141
2.5
143
0.0393700787
147
0.625
171
     3
172
     1
178
     0
271
     2
272
     2
274
     3
278
    44
283
     0
284
     8
340
11
  0
ENDTAB
  0
TABLE
  2
BLOCK_RECORD
  5
1
330
0
100
AcDbSymbolTable
 70
     1
  0
BLOCK_RECORD
  5
1F
330
1
100
AcDbSymbolTableRecord
100
AcDbBlockTableRecord
  2
*Model_Space
340
22
  0
BLOCK_RECORD
  5
1B
330
1
100
AcDbSymbolTableRecord
100
AcDbBlockTableRecord
  2
*Paper_Space
340
1E
  0
BLOCK_RECORD
  5
23
330
1
100
AcDbSymbolTableRecord
100
AcDbBlockTableRecord
  2
*Paper_Space0
340
26
  0
ENDTAB
  0
ENDSEC
  0
SECTION
  2
BLOCKS
  0
BLOCK
  5
20
330
1F
100
AcDbEntity
  8
0
100
AcDbBlockBegin
  2
*Model_Space
 70
     0
 10
0.0
 20
0.0
 30
0.0
  3
*Model_Space
  1

  0
ENDBLK
  5
21
330
1F
100
AcDbEntity
  8
0
100
AcDbBlockEnd
  0
BLOCK
  5
1C
330
1B
100
AcDbEntity
 67
     1
  8
0
100
AcDbBlockBegin
  2
*Paper_Space
 70
     0
 10
0.0
 20
0.0
 30
0.0
  3
*Paper_Space
  1

  0
ENDBLK
  5
1D
330
1B
100
AcDbEntity
 67
     1
  8
0
100
AcDbBlockEnd
  0
BLOCK
  5
24
330
23
100
AcDbEntity
  8
0
100
AcDbBlockBegin
  2
*Paper_Space0
 70
     0
 10
0.0
 20
0.0
 30
0.0
  3
*Paper_Space0
  1

  0
ENDBLK
  5
25
330
23
100
AcDbEntity
  8
0
100
AcDbBlockEnd
  0
ENDSEC
  0
SECTION
  2
ENTITIES
  0
LWPOLYLINE
  5
88
330
1F
100
AcDbEntity
  8
0
  6
Continuous
 62
     7
370
    15
100
AcDbPolyline
 90
        3
 70
   128
 43
0.0
 10
-48.1618934745
 20
-10.9439190799
 10
-48.5367161817
 20
-10.9438209125
 10
-48.9115388913
 20
-10.9437748884
  0
LWPOLYLINE
  5
89
330
1F
100
AcDbEntity
  8
0
  6
Continuous
 62
     7
370
    15
100
AcDbPolyline
 90
        5
 70
   128
 43
0.0
 10
-53.4638252538
 20
-23.5491525993
 10
-52.3018116051
 20
-20.786489868
 10
-51.1397979785
 20
-18.0238271276
 10
-49.6508454228
 20
-14.4838732311
 10
-48.1618934745
 20
-10.9439190799
  0
LWPOLYLINE
  5
8A
330
1F
100
AcDbEntity
  8
0
  6
Continuous
 62
     7
370
    15
100
AcDbPolyline
 90
        8
 70
   128
 43
0.0
 10
-53.0817079857
 20
-23.8649262432
 10
-53.1723130719
 20
-23.7900508943
 10
-53.2176156016
 20
-23.7526132035
 10
-53.2629181585
 20
-23.7151755457
 10
-53.3082208776
 20
-23.6777380834
 10
-53.3535238962
 20
-23.6403009824
 10
-53.3988272028
 20
-23.6028642286
 10
-53.4638252538
 20
-23.5491525993
  0
SPLINE
  5
8B
330
1F
100
AcDbEntity
  8
0
  6
Continuous
 62
     7
370
    15
100
AcDbSpline
210
0.0
220
0.0
230
1.0
 70
     8
 71
     3
 72
    11
 73
     7
 74
     0
 42
0.000000001
 43
0.00000001
 40
78.80545114563655
 40
78.80545114563655
 40
78.80545114563655
 40
78.80545114563655
 40
79.80545114563655
 40
79.80545114563655
 40
79.80545114563655
 40
80.01132143229117
 40
80.01132143229117
 40
80.01132143229117
 40
80.01132143229117
 10
-52.41680463371964
 20
-23.41007519188688
 30
0.0
 10
-52.60156905929028
 20
-23.55803900927863
 30
0.0
 10
-52.79759497169233
 20
-23.67197991020318
 30
0.0
 10
-52.97323240155473
 20
-23.79125849432942
 30
0.0
 10
-53.00939092958779
 20
-23.81581441063524
 30
0.0
 10
-53.04554945762084
 20
-23.84037032694107
 30
0.0
 10
-53.08170798565389
 20
-23.8649262432469
 30
0.0
  0
SPLINE
  5
8C
330
1F
100
AcDbEntity
  8
0
  6
Continuous
 62
     7
370
    15
100
AcDbSpline
210
0.0
220
0.0
230
1.0
 70
     8
 71
     3
 72
     8
 73
     4
 74
     0
 42
0.000000001
 43
0.00000001
 40
77.80545114563655
 40
77.80545114563655
 40
77.80545114563655
 40
77.80545114563655
 40
78.8054511785842
 40
78.8054511785842
 40
78.8054511785842
 40
78.8054511785842
 10
-37.54534389921194
 20
-11.47766587186402
 30
0.0
 10
-42.49231808992956
 20
-15.46817431045766
 30
0.0
 10
-47.45613387510045
 20
-19.43742045603858
 30
0.0
 10
-52.41680418861402
 20
-23.41007483543408
 30
0.0
  0
SPLINE
  5
8D
330
1F
100
AcDbEntity
  8
0
  6
Continuous
 62
     7
370
    15
100
AcDbSpline
210
0.0
220
0.0
230
1.0
 70
     8
 71
     3
 72
    10
 73
     6
 74
     0
 42
0.000000001
 43
0.00000001
 40
76.80545114563655
 40
76.80545114563655
 40
76.80545114563655
 40
76.80545114563655
 40
77.30545114563655
 40
77.30545114563655
 40
77.80545120360834
 40
77.80545120360834
 40
77.80545120360834
 40
77.80545120360834
 10
-35.99507384587571
 20
-10.92972134605009
 30
0.0
 10
-36.3049429557659
 20
-10.9280745994648
 30
0.0
 10
-36.57116682226398
 20
-10.96983624621279
 30
0.0
 10
-37.07013942984069
 20
-11.14702222711795
 30
0.0
 10
-37.30390777551272
 20
-11.2829096251342
 30
0.0
 10
-37.54534381523517
 20
-11.47766580412358
 30
0.0
  0
SPLINE
  5
8E
330
1F
100
AcDbEntity
  8
0
  6
Continuous
 62
     7
370
    15
100
AcDbSpline
210
0.0
220
0.0
230
1.0
 70
     8
 71
     3
 72
    24
 73
    20
 74
     0
 42
0.000000001
 43
0.00000001
 40
0.0296776725019629
 40
0.0296776725019629
 40
0.0296776725019629
 40
0.0296776725019629
 40
0.03125
 40
0.03125
 40
0.0625
 40
0.0625
 40
0.0703125
 40
0.0703125
 40
0.078125
 40
0.078125
 40
0.09375
 40
0.09375
 40
0.125
 40
0.125
 40
0.25
 40
0.25
 40
0.5
 40
0.5
 40
1.0
 40
1.0
 40
1.0
 40
1.0
 10
-22.76759707097233
 20
-10.93930491982632
 30
0.0
 10
-22.77469636499103
 20
-10.93930281054714
 30
0.0
 10
-22.78174230252764
 20
-10.93930071993044
 30
0.0
 10
-22.9277832173219
 20
-10.93925750325354
 30
0.0
 10
-23.04761770919627
 20
-10.9392229281988
 30
0.0
 10
-23.19824054221156
 20
-10.93921310873849
 30
0.0
 10
-23.22843924817818
 20
-10.93921296998658
 30
0.0
 10
-23.28976558968963
 20
-10.93921755776465
 30
0.0
 10
-23.32113908472569
 20
-10.93922300025543
 30
0.0
 10
-23.4157330129235
 20
-10.93924226189338
 30
0.0
 10
-23.47907941903621
 20
-10.93925836854115
 30
0.0
 10
-23.66994831575709
 20
-10.93931581510412
 30
0.0
 10
-23.79830048536082
 20
-10.93936628168535
 30
0.0
 10
-24.44530346068263
 20
-10.93967052482551
 30
0.0
 10
-24.97968051660268
 20
-10.94008003408615
 30
0.0
 10
-26.62203951014103
 20
-10.94146379016251
 30
0.0
 10
-27.7692484523992
 20
-10.94259327433778
 30
0.0
 10
-31.27905996625834
 20
-10.94385721810424
 30
0.0
 10
-33.7098404827122
 20
-10.94186758357403
 30
0.0
 10
-35.9950739806732
 20
-10.92972134533368
 30
0.0
  0
SPLINE
  5
8F
330
1F
100
AcDbEntity
  8
0
  6
Continuous
 62
     7
370
    15
100
AcDbSpline
210
0.0
220
0.0
230
1.0
 70
     8
 71
     3
 72
     8
 73
     4
 74
     0
 42
0.000000001
 43
0.00000001
 40
73.80545114563655
 40
73.80545114563655
 40
73.80545114563655
 40
73.80545114563655
 40
74.70672153205429
 40
74.70672153205429
 40
74.70672153205429
 40
74.70672153205429
 10
-25.85906537225116
 20
-13.50974014186227
 30
0.0
 10
-24.86606412505377
 20
-12.69196289987589
 30
0.0
 10
-23.8793538486429
 20
-11.86544656433825
 30
0.0
 10
-22.76759707097309
 20
-10.93930491982604
 30
0.0
  0
SPLINE
  5
90
330
1F
100
AcDbEntity
  8
0
  6
Continuous
 62
     7
370
    15
100
AcDbSpline
210
0.0
220
0.0
230
1.0
 70
     8
 71
     3
 72
     8
 73
     4
 74
     0
 42
0.000000001
 43
0.00000001
 40
72.80545114563655
 40
72.80545114563655
 40
72.80545114563655
 40
72.80545114563655
 40
73.80545114563655
 40
73.80545114563655
 40
73.80545114563655
 40
73.80545114563655
 10
-38.79330361356584
 20
-24.13162226204673
 30
0.0
 10
-34.4670877605668
 20
-20.60992131897851
 30
0.0
 10
-30.16598748550592
 20
-17.05665127524963
 30
0.0
 10
-25.85906507753881
 20
-13.50973989915511
 30
0.0
  0
SPLINE
  5
91
330
1F
100
AcDbEntity
  8
0
  6
Continuous
 62
     7
370
    15
100
AcDbSpline
210
0.0
220
0.0
230
1.0
 70
     8
 71
     3
 72
    18
 73
    14
 74
     0
 42
0.000000001
 43
0.00000001
 40
71.80545114563655
 40
71.80545114563655
 40
71.80545114563655
 40
71.80545114563655
 40
72.05545114563655
 40
72.05545114563655
 40
72.18045114563655
 40
72.18045114563655
 40
72.30545114563655
 40
72.30545114563655
 40
72.43045114563655
 40
72.43045114563655
 40
72.55545114563655
 40
72.55545114563655
 40
72.80545114563655
 40
72.80545114563655
 40
72.80545114563655
 40
72.80545114563655
 10
-38.96544775287976
 20
-25.62728822543751
 30
0.0
 10
-39.07681742375115
 20
-25.48444688120827
 30
0.0
 10
-39.16256276234068
 20
-25.35522694263061
 30
0.0
 10
-39.24858445957447
 20
-25.1615414259927
 30
0.0
 10
-39.27002325543218
 20
-25.09678419704321
 30
0.0
 10
-39.29469435705873
 20
-24.9651932973246
 30
0.0
 10
-39.29766570061228
 20
-24.89833056976227
 30
0.0
 10
-39.28230107038083
 20
-24.76670858288922
 30
0.0
 10
-39.26401826422772
 20
-24.70234781908608
 30
0.0
 10
-39.20984820943448
 20
-24.57992980541725
 30
0.0
 10
-39.17420139496708
 20
-24.52177541514796
 30
0.0
 10
-39.04641857942015
 20
-24.35261438599728
 30
0.0
 10
-38.9337483626455
 20
-24.24594812923641
 30
0.0
 10
-38.79330281879816
 20
-24.13162161508009
 30
0.0
  0
SPLINE
  5
92
330
1F
100
AcDbEntity
  8
0
  6
Continuous
 62
     7
370
    15
100
AcDbSpline
210
0.0
220
0.0
230
1.0
 70
     8
 71
     3
 72
     8
 73
     4
 74
     0
 42
0.000000001
 43
0.00000001
 40
70.80545114563655
 40
70.80545114563655
 40
70.80545114563655
 40
70.80545114563655
 40
71.80545114563655
 40
71.80545114563655
 40
71.80545114563655
 40
71.80545114563655
 10
-30.73496248248953
 20
-36.30713557934009
 30
0.0
 10
-33.47670535946659
 20
-32.7447060141285
 30
0.0
 10
-36.20252413514704
 20
-29.17103360877006
 30
0.0
 10
-38.96544853795568
 20
-25.62728721850118
 30
0.0
  0
SPLINE
  5
93
330
1F
100
AcDbEntity
  8
0
  6
Continuous
 62
     7
370
    15
100
AcDbSpline
210
0.0
220
0.0
230
1.0
 70
     8
 71
     3
 72
    11
 73
     7
 74
     0
 42
0.000000001
 43
0.00000001
 40
69.61658457506235
 40
69.61658457506235
 40
69.61658457506235
 40
69.61658457506235
 40
69.80545114563655
 40
69.80545114563655
 40
69.80545114563655
 40
70.80545206183537
 40
70.80545206183537
 40
70.80545206183537
 40
70.80545206183537
 10
-29.79257649650734
 20
-37.41297851910035
 30
0.0
 10
-29.85529354779469
 20
-37.33962642313652
 30
0.0
 10
-29.91801059908205
 20
-37.26627432717268
 30
0.0
 10
-29.9807276503694
 20
-37.19292223120883
 30
0.0
 10
-30.31279833443317
 20
-36.80454171611386
 30
0.0
 10
-30.53279509011782
 20
-36.56981491024891
 30
0.0
 10
-30.73496192682337
 20
-36.30713630133005
 30
0.0
  0
LWPOLYLINE
  5
94
330
1F
100
AcDbEntity
  8
0
  6
Continuous
 62
     7
370
    15
100
AcDbPolyline
 90
        5
 70
   128
 43
0.0
 10
-17.5013389123
 20
-6.5092587414
 10
-19.7165598595
 20
-12.0789626344
 10
-21.9317806534
 20
-17.6486665882
 10
-25.8621788641
 20
-27.530822439
 10
-29.7925764965
 20
-37.4129785191
  0
SPLINE
  5
96
330
1F
100
AcDbEntity
  8
0
  6
Continuous
 62
     7
370
    15
100
AcDbSpline
210
0.0
220
0.0
230
1.0
 70
     8
 71
     3
 72
     8
 73
     4
 74
     0
 42
0.000000001
 43
0.00000001
 40
66.80545114563657
 40
66.80545114563657
 40
66.80545114563657
 40
66.80545114563657
 40
67.73183180764158
 40
67.73183180764158
 40
67.73183180764158
 40
67.73183180764158
 10
-45.70179539217406
 20
-3.81864086006924
 30
0.0
 10
-46.0266218639173
 20
-4.670299910749249
 30
0.0
 10
-46.34470243396394
 20
-5.525290674571932
 30
0.0
 10
-46.71156189773153
 20
-6.503003715431558
 30
0.0
  0
SPLINE
  5
97
330
1F
100
AcDbEntity
  8
0
  6
Continuous
 62
     7
370
    15
100
AcDbSpline
210
0.0
220
0.0
230
1.0
 70
     8
 71
     3
 72
     8
 73
     4
 74
     0
 42
0.000000001
 43
0.00000001
 40
65.80545114563657
 40
65.80545114563657
 40
65.80545114563657
 40
65.80545114563657
 40
66.80545114563657
 40
66.80545114563657
 40
66.80545114563657
 40
66.80545114563657
 10
-44.6003737863394
 20
-0.9419260374853091
 30
0.0
 10
-44.94350433351921
 20
-1.914389796417264
 30
0.0
 10
-45.3375764419981
 20
-2.86371363292142
 30
0.0
 10
-45.70179570627837
 20
-3.818641683609711
 30
0.0
  0
SPLINE
  5
98
330
1F
100
AcDbEntity
  8
0
  6
Continuous
 62
     7
370
    15
100
AcDbSpline
210
0.0
220
0.0
230
1.0
 70
     8
 71
     3
 72
    14
 73
    10
 74
     0
 42
0.000000001
 43
0.00000001
 40
64.80545114563657
 40
64.80545114563657
 40
64.80545114563657
 40
64.80545114563657
 40
65.05545114563657
 40
65.05545114563657
 40
65.30545114563657
 40
65.30545114563657
 40
65.55545114563657
 40
65.55545114563657
 40
65.80545114563657
 40
65.80545114563657
 40
65.80545114563657
 40
65.80545114563657
 10
-43.86429470907146
 20
-0.456738361584625
 30
0.0
 10
-43.97327372716119
 20
-0.442182371783395
 30
0.0
 10
-44.06388544844431
 20
-0.4430883123259302
 30
0.0
 10
-44.21416363888354
 20
-0.4687306561326661
 30
0.0
 10
-44.27381178711919
 20
-0.4925813451455083
 30
0.0
 10
-44.38076658486818
 20
-0.5638903684059248
 30
0.0
 10
-44.42898492961061
 20
-0.6123965083254385
 30
0.0
 10
-44.52027673664795
 20
-0.7478629146322087
 30
0.0
 10
-44.56254563726871
 20
-0.834720910626266
 30
0.0
 10
-44.60037435441337
 20
-0.9419276474344553
 30
0.0
  0
SPLINE
  5
99
330
1F
100
AcDbEntity
  8
0
  6
Continuous
 62
     7
370
    15
100
AcDbSpline
210
0.0
220
0.0
230
1.0
 70
     8
 71
     3
 72
    10
 73
     6
 74
     0
 42
0.000000001
 43
0.00000001
 40
63.80545092342655
 40
63.80545092342655
 40
63.80545092342655
 40
63.80545092342655
 40
64.30545114563657
 40
64.30545114563657
 40
64.80545200737475
 40
64.80545200737475
 40
64.80545200737475
 40
64.80545200737475
 10
-43.25817776436469
 20
-0.4622385651625732
 30
0.0
 10
-43.34897541506835
 20
-0.4622200647260086
 30
0.0
 10
-43.44563037273035
 20
-0.4674789655318215
 30
0.0
 10
-43.64831172359206
 20
-0.4720608633031198
 30
0.0
 10
-43.75444515312898
 20
-0.4714101717136904
 30
0.0
 10
-43.86429414421129
 20
-0.456738437030365
 30
0.0
  0
LWPOLYLINE
  5
9A
330
1F
100
AcDbEntity
  8
0
  6
Continuous
 62
     7
370
    15
100
AcDbPolyline
 90
        5
 70
   128
 43
0.0
 10
35.3161604616
 20
-0.4784298618
 10
23.3089240349
 20
-0.4759506043
 10
-0.7055488175
 20
-0.4710009658
 10
-21.9818632304
 20
-0.4666170161
 10
-43.2581776433
 20
-0.4622385652
  0
SPLINE
  5
9B
330
1F
100
AcDbEntity
  8
0
  6
Continuous
 62
     7
370
    15
100
AcDbSpline
210
0.0
220
0.0
230
1.0
 70
     8
 71
     3
 72
     8
 73
     4
 74
     0
 42
0.000000001
 43
0.00000001
 40
60.80545114563656
 40
60.80545114563656
 40
60.80545114563656
 40
60.80545114563656
 40
61.75465418266172
 40
61.75465418266172
 40
61.75465418266172
 40
61.75465418266172
 10
34.48036826299362
 20
-4.23850748080078
 30
0.0
 10
34.77338260742208
 20
-3.021505245341182
 30
0.0
 10
35.02822907267433
 20
-1.792618470794861
 30
0.0
 10
35.3161604615788
 20
-0.4784298617543266
 30
0.0
  0
SPLINE
  5
9C
330
1F
100
AcDbEntity
  8
0
  6
Continuous
 62
     7
370
    15
100
AcDbSpline
210
0.0
220
0.0
230
1.0
 70
     8
 71
     3
 72
    12
 73
     8
 74
     0
 42
0.000000001
 43
0.00000001
 40
59.80545114563656
 40
59.80545114563656
 40
59.80545114563656
 40
59.80545114563656
 40
60.05545114563656
 40
60.05545114563656
 40
60.30545114563656
 40
60.30545114563656
 40
60.80545114563656
 40
60.80545114563656
 40
60.80545114563656
 40
60.80545114563656
 10
33.79692410322262
 20
-6.425962864486864
 30
0.0
 10
33.90019271227698
 20
-6.341809362711985
 30
0.0
 10
33.98685829468156
 20
-6.219001109090517
 30
0.0
 10
34.13007802645878
 20
-5.908394645114306
 30
0.0
 10
34.1861982039615
 20
-5.721737431030355
 30
0.0
 10
34.32613927917593
 20
-5.115261532793177
 30
0.0
 10
34.38119121054401
 20
-4.65041532805088
 30
0.0
 10
34.48036855889575
 20
-4.238506251824092
 30
0.0
  0
SPLINE
  5
9D
330
1F
100
AcDbEntity
  8
0
  6
Continuous
 62
     7
370
    15
100
AcDbSpline
210
0.0
220
0.0
230
1.0
 70
     8
 71
     3
 72
    12
 73
     8
 74
     0
 42
0.000000001
 43
0.00000001
 40
58.80545114563656
 40
58.80545114563656
 40
58.80545114563656
 40
58.80545114563656
 40
59.30545114563656
 40
59.30545114563656
 40
59.55545114563656
 40
59.55545114563656
 40
59.80545134991343
 40
59.80545134991343
 40
59.80545134991343
 40
59.80545134991343
 10
31.56679956218134
 20
-6.537860817598409
 30
0.0
 10
31.98463835336207
 20
-6.538133552066654
 30
0.0
 10
32.44829338266326
 20
-6.601332586204157
 30
0.0
 10
33.06276983415752
 20
-6.619349025334832
 30
0.0
 10
33.25369341051164
 20
-6.612491802818584
 30
0.0
 10
33.57556331659683
 20
-6.553334278622595
 30
0.0
 10
33.7046739001131
 20
-6.501137741929213
 30
0.0
 10
33.79692384085694
 20
-6.42596307828881
 30
0.0
  0
SPLINE
  5
9E
330
1F
100
AcDbEntity
  8
0
  6
Continuous
 62
     7
370
    15
100
AcDbSpline
210
0.0
220
0.0
230
1.0
 70
     8
 71
     3
 72
     8
 73
     4
 74
     0
 42
0.000000001
 43
0.00000001
 40
57.80545114563656
 40
57.80545114563656
 40
57.80545114563656
 40
57.80545114563656
 40
58.80545114563656
 40
58.80545114563656
 40
58.80545114563656
 40
58.80545114563656
 10
4.809513389467677
 20
-6.488301269049684
 30
0.0
 10
13.72819393598863
 20
-6.530969614994598
 30
0.0
 10
22.64737069412864
 20
-6.532047150941443
 30
0.0
 10
31.56679942534531
 20
-6.537860817509167
 30
0.0
  0
SPLINE
  5
9F
330
1F
100
AcDbEntity
  8
0
  6
Continuous
 62
     7
370
    15
100
AcDbSpline
210
0.0
220
0.0
230
1.0
 70
     8
 71
     3
 72
    14
 73
    10
 74
     0
 42
0.000000001
 43
0.00000001
 40
56.80545114563656
 40
56.80545114563656
 40
56.80545114563656
 40
56.80545114563656
 40
57.05545114563656
 40
57.05545114563656
 40
57.30545114563656
 40
57.30545114563656
 40
57.55545114563656
 40
57.55545114563656
 40
57.80545114563656
 40
57.80545114563656
 40
57.80545114563656
 40
57.80545114563656
 10
3.166885261166869
 20
-7.646667088536108
 30
0.0
 10
3.237771796963171
 20
-7.439827279111775
 30
0.0
 10
3.316591797930275
 20
-7.262853756423215
 30
0.0
 10
3.508411864320422
 20
-6.96124820719312
 30
0.0
 10
3.622593931532079
 20
-6.836554846394713
 30
0.0
 10
3.894619734846961
 20
-6.646112245478179
 30
0.0
 10
4.050761527529095
 20
-6.581472167603891
 30
0.0
 10
4.399122661256546
 20
-6.502568106329553
 30
0.0
 10
4.591859156406071
 20
-6.487259541567959
 30
0.0
 10
4.809513731398547
 20
-6.488301270685868
 30
0.0
  0
SPLINE
  5
A0
330
1F
100
AcDbEntity
  8
0
  6
Continuous
 62
     7
370
    15
100
AcDbSpline
210
0.0
220
0.0
230
1.0
 70
     8
 71
     3
 72
     8
 73
     4
 74
     0
 42
0.000000001
 43
0.00000001
 40
55.80545114563656
 40
55.80545114563656
 40
55.80545114563656
 40
55.80545114563656
 40
56.8054511792218
 40
56.8054511792218
 40
56.8054511792218
 40
56.8054511792218
 10
-4.04895895663326
 20
-28.4535486651642
 30
0.0
 10
-1.638900186225192
 20
-21.518998778809
 30
0.0
 10
0.7871876274037747
 20
-14.59048228672665
 30
0.0
 10
3.166885019580639
 20
-7.646667793465341
 30
0.0
  0
SPLINE
  5
A1
330
1F
100
AcDbEntity
  8
0
  6
Continuous
 62
     7
370
    15
100
AcDbSpline
210
0.0
220
0.0
230
1.0
 70
     8
 71
     3
 72
    13
 73
     9
 74
     0
 42
0.000000001
 43
0.00000001
 40
54.57727806099956
 40
54.57727806099956
 40
54.57727806099956
 40
54.57727806099956
 40
54.80545114563656
 40
54.80545114563656
 40
54.80545114563656
 40
55.30545114563656
 40
55.30545114563656
 40
55.80545365264758
 40
55.80545365264758
 40
55.80545365264758
 40
55.80545365264758
 10
-4.059386580282705
 20
-29.71679776635512
 30
0.0
 10
-4.079843340327156
 20
-29.62300008268632
 30
0.0
 10
-4.100300100371605
 20
-29.52920239901751
 30
0.0
 10
-4.120756860416055
 20
-29.4354047153487
 30
0.0
 10
-4.165584145976476
 20
-29.22986407540419
 30
0.0
 10
-4.172123807707763
 20
-29.04924869822637
 30
0.0
 10
-4.136178781549697
 20
-28.72602352123312
 30
0.0
 10
-4.09435500288337
 20
-28.58417313007018
 30
0.0
 10
-4.048959639484036
 20
-28.45355062999348
 30
0.0
  0
SPLINE
  5
A2
330
1F
100
AcDbEntity
  8
0
  6
Continuous
 62
     7
370
    15
100
AcDbSpline
210
0.0
220
0.0
230
1.0
 70
     8
 71
     3
 72
    11
 73
     7
 74
     0
 42
0.000000001
 43
0.00000001
 40
53.80545114563656
 40
53.80545114563656
 40
53.80545114563656
 40
53.80545114563656
 40
54.80545114563656
 40
54.80545114563656
 40
54.80545114563656
 40
55.20675797376138
 40
55.20675797376138
 40
55.20675797376138
 40
55.20675797376138
 10
-3.258104312886474
 20
-29.04365004003194
 30
0.0
 10
-3.446795094106628
 20
-29.23013048047499
 30
0.0
 10
-3.654331609189295
 20
-29.37863672902887
 30
0.0
 10
-3.838119987202567
 20
-29.53207286237568
 30
0.0
 10
-3.911875518229278
 20
-29.59364783036882
 30
0.0
 10
-3.98563104925599
 20
-29.65522279836198
 30
0.0
 10
-4.059386580282702
 20
-29.71679776635511
 30
0.0
  0
SPLINE
  5
A3
330
1F
100
AcDbEntity
  8
0
  6
Continuous
 62
     7
370
    15
100
AcDbSpline
210
0.0
220
0.0
230
1.0
 70
     8
 71
     3
 72
     8
 73
     4
 74
     0
 42
0.000000001
 43
0.00000001
 40
52.80545114563656
 40
52.80545114563656
 40
52.80545114563656
 40
52.80545114563656
 40
53.80545129533748
 40
53.80545129533748
 40
53.80545129533748
 40
53.80545129533748
 10
14.13653196787113
 20
-11.82271953562557
 30
0.0
 10
8.352388461309376
 20
-17.57752486580307
 30
0.0
 10
2.544813699118307
 20
-23.3084664825028
 30
0.0
 10
-3.25810174147154
 20
-29.04364749868449
 30
0.0
  0
SPLINE
  5
A4
330
1F
100
AcDbEntity
  8
0
  6
Continuous
 62
     7
370
    15
100
AcDbSpline
210
0.0
220
0.0
230
1.0
 70
     8
 71
     3
 72
    10
 73
     6
 74
     0
 42
0.000000001
 43
0.00000001
 40
51.80545114563655
 40
51.80545114563655
 40
51.80545114563655
 40
51.80545114563655
 40
52.30545114563655
 40
52.30545114563655
 40
52.80545114563656
 40
52.80545114563656
 40
52.80545114563656
 40
52.80545114563656
 10
16.25519502360828
 20
-10.92458140430916
 30
0.0
 10
15.79736088483873
 20
-10.92015862135596
 30
0.0
 10
15.42655128316534
 20
-10.99227014438513
 30
0.0
 10
14.75387173044769
 20
-11.28669186208466
 30
0.0
 10
14.4501972726489
 20
-11.51064627595884
 30
0.0
 10
14.13653175170197
 20
-11.8227197506979
 30
0.0
  0
SPLINE
  5
A5
330
1F
100
AcDbEntity
  8
0
  6
Continuous
 62
     7
370
    15
100
AcDbSpline
210
0.0
220
0.0
230
1.0
 70
     8
 71
     3
 72
     8
 73
     4
 74
     0
 42
0.000000001
 43
0.00000001
 40
50.80545114563655
 40
50.80545114563655
 40
50.80545114563655
 40
50.80545114563655
 40
51.80545115928898
 40
51.80545115928898
 40
51.80545115928898
 40
51.80545115928898
 10
32.51270108854156
 20
-10.95337570327506
 30
0.0
 10
27.09457181692339
 20
-10.95201104353643
 30
0.0
 10
21.67507406899315
 20
-10.97693182669211
 30
0.0
 10
16.25519524545464
 20
-10.92458140645211
 30
0.0
  0
LWPOLYLINE
  5
A6
330
1F
100
AcDbEntity
  8
0
  6
Continuous
 62
     7
370
    15
100
AcDbPolyline
 90
        4
 70
   128
 43
0.0
 10
33.2816399995
 20
-10.9535435629
 10
32.9498665073
 20
-10.9534748328
 10
32.7312837979
 20
-10.953427851
 10
32.5127010886
 20
-10.9533757033
  0
LWPOLYLINE
  5
A7
330
1F
100
AcDbEntity
  8
0
  6
Continuous
 62
     7
370
    15
100
AcDbPolyline
 90
        6
 70
   128
 43
0.0
 10
30.4509800914
 20
-23.6969900497
 10
31.1586442186
 20
-20.5111282397
 10
31.6893935798
 20
-18.1217321626
 10
32.2201431643
 20
-15.7323361351
 10
32.7508922134
 20
-13.3429399889
 10
33.2816399995
 20
-10.9535435629
  0
LWPOLYLINE
  5
A8
330
1F
100
AcDbEntity
  8
0
  6
Continuous
 62
     7
370
    15
100
AcDbPolyline
 90
        8
 70
   128
 43
0.0
 10
30.8911586105
 20
-23.9379933279
 10
30.8363322263
 20
-23.9079741826
 10
30.7815058393
 20
-23.8779550423
 10
30.7266788572
 20
-23.8479369853
 10
30.6718512757
 20
-23.8179200197
 10
30.6170237372
 20
-23.7879029759
 10
30.5621968807
 20
-23.7578846902
 10
30.4509800914
 20
-23.6969900497
  0
SPLINE
  5
A9
330
1F
100
AcDbEntity
  8
0
  6
Continuous
 62
     7
370
    15
100
AcDbSpline
210
0.0
220
0.0
230
1.0
 70
     8
 71
     3
 72
    11
 73
     7
 74
     0
 42
0.000000001
 43
0.00000001
 40
46.80545114563655
 40
46.80545114563655
 40
46.80545114563655
 40
46.80545114563655
 40
47.80545114563655
 40
47.80545114563655
 40
47.80545114563655
 40
47.84049706879343
 40
47.84049706879343
 40
47.84049706879343
 40
47.84049706879343
 10
33.60181678800857
 20
-21.61199965168763
 30
0.0
 10
32.73415486503088
 20
-22.36930474602013
 30
0.0
 10
31.85512479518319
 20
-23.1115279823657
 30
0.0
 10
30.98286595897714
 20
-23.85936718245799
 30
0.0
 10
30.95229684283055
 20
-23.88557589759812
 30
0.0
 10
30.92172772668397
 20
-23.91178461273826
 30
0.0
 10
30.89115861053737
 20
-23.9379933278784
 30
0.0
  0
SPLINE
  5
AA
330
1F
100
AcDbEntity
  8
0
  6
Continuous
 62
     7
370
    15
100
AcDbSpline
210
0.0
220
0.0
230
1.0
 70
     8
 71
     3
 72
     8
 73
     4
 74
     0
 42
0.000000001
 43
0.00000001
 40
45.80545114563655
 40
45.80545114563655
 40
45.80545114563655
 40
45.80545114563655
 40
46.80545117898607
 40
46.80545117898607
 40
46.80545117898607
 40
46.80545117898607
 10
45.27425241980961
 20
-11.43502212997547
 30
0.0
 10
41.37103808605846
 20
-14.81218998840796
 30
0.0
 10
37.49126679334704
 20
-18.21722361218456
 30
0.0
 10
33.60181717696887
 20
-21.61199931219769
 30
0.0
  0
SPLINE
  5
AB
330
1F
100
AcDbEntity
  8
0
  6
Continuous
 62
     7
370
    15
100
AcDbSpline
210
0.0
220
0.0
230
1.0
 70
     8
 71
     3
 72
    10
 73
     6
 74
     0
 42
0.000000001
 43
0.00000001
 40
44.80545110414462
 40
44.80545110414462
 40
44.80545110414462
 40
44.80545110414462
 40
45.30545114563655
 40
45.30545114563655
 40
45.80545114563655
 40
45.80545114563655
 40
45.80545114563655
 40
45.80545114563655
 10
46.32138690266042
 20
-10.98374894324237
 30
0.0
 10
46.1591787333804
 20
-10.98448424422284
 30
0.0
 10
45.9657464636083
 20
-11.03416586194094
 30
0.0
 10
45.59272510254038
 20
-11.19980452152771
 30
0.0
 10
45.41315329240916
 20
-11.31484455764508
 30
0.0
 10
45.27425064232558
 20
-11.43502366788235
 30
0.0
  0
SPLINE
  5
AC
330
1F
100
AcDbEntity
  8
0
  6
Continuous
 62
     7
370
    15
100
AcDbSpline
210
0.0
220
0.0
230
1.0
 70
     8
 71
     3
 72
     8
 73
     4
 74
     0
 42
0.000000001
 43
0.00000001
 40
43.80545114563655
 40
43.80545114563655
 40
43.80545114563655
 40
43.80545114563655
 40
44.80545116043332
 40
44.80545116043332
 40
44.80545116043332
 40
44.80545116043332
 10
63.91017593124116
 20
-10.97859497572199
 30
0.0
 10
58.04675030978313
 20
-10.9708209050846
 30
0.0
 10
52.18374271562953
 20
-10.95716444083421
 30
0.0
 10
46.32138720327423
 20
-10.98374894187941
 30
0.0
  0
SPLINE
  5
AD
330
1F
100
AcDbEntity
  8
0
  6
Continuous
 62
     7
370
    15
100
AcDbSpline
210
0.0
220
0.0
230
1.0
 70
     8
 71
     3
 72
     8
 73
     4
 74
     0
 42
0.000000001
 43
0.00000001
 40
43.01405492884336
 40
43.01405492884336
 40
43.01405492884336
 40
43.01405492884336
 40
43.80545200678089
 40
43.80545200678089
 40
43.80545200678089
 40
43.80545200678089
 10
64.45650844426538
 20
-11.02584420963082
 30
0.0
 10
64.22796457555837
 20
-11.00112191515213
 30
0.0
 10
64.06295562664343
 20
-10.97879714383622
 30
0.0
 10
63.91017642997087
 20
-10.97859497638253
 30
0.0
  0
SPLINE
  5
AE
330
1F
100
AcDbEntity
  8
0
  6
Continuous
 62
     7
370
    15
100
AcDbSpline
210
0.0
220
0.0
230
1.0
 70
     8
 71
     3
 72
     8
 73
     4
 74
     0
 42
0.000000001
 43
0.00000001
 40
41.80545114563655
 40
41.80545114563655
 40
41.80545114563655
 40
41.80545114563655
 40
42.75457502237808
 40
42.75457502237808
 40
42.75457502237808
 40
42.75457502237808
 10
63.72854534226492
 20
-14.44710836871566
 30
0.0
 10
63.9810064957316
 20
-13.32968317805356
 30
0.0
 10
64.20777266191264
 20
-12.20445670726007
 30
0.0
 10
64.4565084442601
 20
-11.02584420963025
 30
0.0
  0
SPLINE
  5
AF
330
1F
100
AcDbEntity
  8
0
  6
Continuous
 62
     7
370
    15
100
AcDbSpline
210
0.0
220
0.0
230
1.0
 70
     8
 71
     3
 72
     8
 73
     4
 74
     0
 42
0.000000001
 43
0.00000001
 40
40.80545114563655
 40
40.80545114563655
 40
40.80545114563655
 40
40.80545114563655
 40
41.80545114563655
 40
41.80545114563655
 40
41.80545114563655
 40
41.80545114563655
 10
56.77593713122383
 20
-45.25110863875256
 30
0.0
 10
59.07604533202085
 20
-34.97895070238758
 30
0.0
 10
61.40878643910946
 20
-24.71435311843328
 30
0.0
 10
63.72854558574078
 20
-14.44710729107647
 30
0.0
  0
SPLINE
  5
B0
330
1F
100
AcDbEntity
  8
0
  6
Continuous
 62
     7
370
    15
100
AcDbSpline
210
0.0
220
0.0
230
1.0
 70
     8
 71
     3
 72
    14
 73
    10
 74
     0
 42
0.000000001
 43
0.00000001
 40
39.80545114563655
 40
39.80545114563655
 40
39.80545114563655
 40
39.80545114563655
 40
40.05545114563655
 40
40.05545114563655
 40
40.30545114563655
 40
40.30545114563655
 40
40.55545114563655
 40
40.55545114563655
 40
40.80545114563655
 40
40.80545114563655
 40
40.80545114563655
 40
40.80545114563655
 10
55.66963674147004
 20
-46.18063418558709
 30
0.0
 10
55.87333092436683
 20
-46.18225267660773
 30
0.0
 10
56.03399368788866
 20
-46.16471385282037
 30
0.0
 10
56.28433361045582
 20
-46.09673644341504
 30
0.0
 10
56.37345140185509
 20
-46.04834278452488
 30
0.0
 10
56.52107150533316
 20
-45.91576500118555
 30
0.0
 10
56.58153885592333
 20
-45.82863680090747
 30
0.0
 10
56.68901429255372
 20
-45.58833314708907
 30
0.0
 10
56.73450455361454
 20
-45.4361394542297
 30
0.0
 10
56.77593734475867
 20
-45.25110768513015
 30
0.0
  0
SPLINE
  5
B1
330
1F
100
AcDbEntity
  8
0
  6
Continuous
 62
     7
370
    15
100
AcDbSpline
210
0.0
220
0.0
230
1.0
 70
     8
 71
     3
 72
     8
 73
     4
 74
     0
 42
0.000000001
 43
0.00000001
 40
38.80545114563655
 40
38.80545114563655
 40
38.80545114563655
 40
38.80545114563655
 40
39.80545114563655
 40
39.80545114563655
 40
39.80545114563655
 40
39.80545114563655
 10
38.57861911633854
 20
-46.15372502048447
 30
0.0
 10
44.27475293160204
 20
-46.15689008265092
 30
0.0
 10
49.97197610460911
 20
-46.1353484242213
 30
0.0
 10
55.66963716842182
 20
-46.18063418898003
 30
0.0
  0
SPLINE
  5
B2
330
1F
100
AcDbEntity
  8
0
  6
Continuous
 62
     7
370
    15
100
AcDbSpline
210
0.0
220
0.0
230
1.0
 70
     8
 71
     3
 72
     8
 73
     4
 74
     0
 42
0.000000001
 43
0.00000001
 40
37.96033033968137
 40
37.96033033968137
 40
37.96033033968137
 40
37.96033033968137
 40
38.8054526180655
 40
38.8054526180655
 40
38.8054526180655
 40
38.8054526180655
 10
37.79881438337651
 20
-46.11272967067149
 30
0.0
 10
38.13026360459466
 20
-46.13370213235507
 30
0.0
 10
38.35877830044052
 20
-46.15360428651464
 30
0.0
 10
38.57861796727425
 20
-46.15372501984977
 30
0.0
  0
LWPOLYLINE
  5
B3
330
1F
100
AcDbEntity
  8
0
  6
Continuous
 62
     7
370
    15
100
AcDbPolyline
 90
        5
 70
   128
 43
0.0
 10
39.7700126164
 20
-33.8107869315
 10
39.2772159746
 20
-36.8862730826
 10
38.7844177082
 20
-39.9617589739
 10
38.2916173221
 20
-43.0372445263
 10
37.7988143834
 20
-46.1127296707
  0
SPLINE
  5
B4
330
1F
100
AcDbEntity
  8
0
  6
Continuous
 62
     7
370
    15
100
AcDbSpline
210
0.0
220
0.0
230
1.0
 70
     8
 71
     3
 72
    13
 73
     9
 74
     0
 42
0.000000001
 43
0.00000001
 40
35.80545114563655
 40
35.80545114563655
 40
35.80545114563655
 40
35.80545114563655
 40
36.30545114563655
 40
36.30545114563655
 40
36.80545114563655
 40
36.80545114563655
 40
36.80545114563655
 40
37.05866850857194
 40
37.05866850857194
 40
37.05866850857194
 40
37.05866850857194
 10
38.47679624097369
 20
-34.74204391931069
 30
0.0
 10
38.5979365233966
 20
-34.63626456142304
 30
0.0
 10
38.7252447629027
 20
-34.54427253584416
 30
0.0
 10
39.02886491564059
 20
-34.33360911801744
 30
0.0
 10
39.20569005080909
 20
-34.21472055133731
 30
0.0
 10
39.42968942756382
 20
-34.05438516053636
 30
0.0
 10
39.54313049052582
 20
-33.97318575084871
 30
0.0
 10
39.65657155348784
 20
-33.89198634116105
 30
0.0
 10
39.77001261644985
 20
-33.81078693147339
 30
0.0
  0
SPLINE
  5
B5
330
1F
100
AcDbEntity
  8
0
  6
Continuous
 62
     7
370
    15
100
AcDbSpline
210
0.0
220
0.0
230
1.0
 70
     8
 71
     3
 72
     8
 73
     4
 74
     0
 42
0.000000001
 43
0.00000001
 40
34.80545114563655
 40
34.80545114563655
 40
34.80545114563655
 40
34.80545114563655
 40
35.80545124096642
 40
35.80545124096642
 40
35.80545124096642
 40
35.80545124096642
 10
25.87078541002426
 20
-45.74864519528033
 30
0.0
 10
30.08038293103315
 20
-42.08904029026451
 30
0.0
 10
34.27469623840875
 20
-38.41137384095508
 30
0.0
 10
38.47679505906628
 20
-34.7420449513587
 30
0.0
  0
SPLINE
  5
B6
330
1F
100
AcDbEntity
  8
0
  6
Continuous
 62
     7
370
    15
100
AcDbSpline
210
0.0
220
0.0
230
1.0
 70
     8
 71
     3
 72
    12
 73
     8
 74
     0
 42
0.000000001
 43
0.00000001
 40
33.80545103007488
 40
33.80545103007488
 40
33.80545103007488
 40
33.80545103007488
 40
34.05545114563655
 40
34.05545114563655
 40
34.30545114563655
 40
34.30545114563655
 40
34.80545114563655
 40
34.80545114563655
 40
34.80545114563655
 40
34.80545114563655
 10
25.05583805814331
 20
-46.13011641405311
 30
0.0
 10
25.11494902714367
 20
-46.12987386413702
 30
0.0
 10
25.18161274349317
 20
-46.11968744948589
 30
0.0
 10
25.32189110353817
 20
-46.08062889896949
 30
0.0
 10
25.39542551193929
 20
-46.05187181914093
 30
0.0
 10
25.6141815122408
 20
-45.94538667926239
 30
0.0
 10
25.75735279014632
 20
-45.84725627785663
 30
0.0
 10
25.87078630419174
 20
-45.74864441794301
 30
0.0
  0
SPLINE
  5
B7
330
1F
100
AcDbEntity
  8
0
  6
Continuous
 62
     7
370
    15
100
AcDbSpline
210
0.0
220
0.0
230
1.0
 70
     8
 71
     3
 72
    30
 73
    26
 74
     0
 42
0.000000001
 43
0.00000001
 40
0.008058430938439
 40
0.008058430938439
 40
0.008058430938439
 40
0.008058430938439
 40
0.015625
 40
0.015625
 40
0.0234375
 40
0.0234375
 40
0.02734375
 40
0.02734375
 40
0.029296875
 40
0.029296875
 40
0.02978515625
 40
0.02978515625
 40
0.0302734375
 40
0.0302734375
 40
0.03125
 40
0.03125
 40
0.0625
 40
0.0625
 40
0.125
 40
0.125
 40
0.25
 40
0.25
 40
0.5
 40
0.5
 40
1.0
 40
1.0
 40
1.0
 40
1.0
 10
7.816412582202675
 20
-46.09744621841066
 30
0.0
 10
7.864919983864434
 20
-46.10556144613135
 30
0.0
 10
7.906648384931945
 20
-46.11284249416038
 30
0.0
 10
7.985748038930168
 20
-46.1258345257417
 30
0.0
 10
8.02053066867449
 20
-46.13121145840661
 30
0.0
 10
8.068832383177572
 20
-46.13642029844343
 30
0.0
 10
8.084321121536524
 20
-46.13769840095974
 30
0.0
 10
8.107473503748036
 20
-46.13886851562485
 30
0.0
 10
8.115179465338256
 20
-46.13913391365143
 30
0.0
 10
8.124895563735567
 20
-46.13929918827982
 30
0.0
 10
8.126842950948642
 20
-46.13932390431616
 30
0.0
 10
8.130748636784038
 20
-46.13935629877001
 30
0.0
 10
8.132440487725075
 20
-46.13936162574626
 30
0.0
 10
8.139876878013217
 20
-46.13936829850119
 30
0.0
 10
8.14483592712434
 20
-46.1393727524848
 30
0.0
 10
8.308532508906918
 20
-46.13951991350468
 30
0.0
 10
8.468756847040996
 20
-46.13966818712286
 30
0.0
 10
8.953678485925142
 20
-46.14012591732099
 30
0.0
 10
9.282624416746888
 20
-46.14044828324494
 30
0.0
 10
10.28472736492737
 20
-46.14143656553541
 30
0.0
 10
10.97314958164139
 20
-46.14212366628284
 30
0.0
 10
13.08564029030712
 20
-46.14402609190763
 30
0.0
 10
14.55693323535785
 20
-46.14508253756577
 30
0.0
 10
19.04899679864338
 20
-46.1456675451882
 30
0.0
 10
22.14790965864941
 20
-46.14203920315349
 30
0.0
 10
25.05583864698351
 20
-46.13011641163781
 30
0.0
  0
LWPOLYLINE
  5
B8
330
1F
100
AcDbEntity
  8
0
  6
Continuous
 62
     7
370
    15
100
AcDbPolyline
 90
        4
 70
   128
 43
0.0
 10
10.007177753
 20
-34.2699226882
 10
8.9117998056
 20
-40.1836853103
 10
8.3641079762
 20
-43.1405660937
 10
7.8164125822
 20
-46.0974462184
  0
LWPOLYLINE
  5
B9
330
1F
100
AcDbEntity
  8
0
  6
Continuous
 62
     7
370
    15
100
AcDbPolyline
 90
        7
 70
   128
 43
0.0
 10
9.5768124442
 20
-34.0115702357
 10
9.6848489172
 20
-34.0764255511
 10
9.7388675255
 20
-34.1088525914
 10
9.7928865627
 20
-34.1412789197
 10
9.8469054177
 20
-34.1737055504
 10
9.9009234787
 20
-34.2061334995
 10
10.007177753
 20
-34.2699226882
  0
SPLINE
  5
BA
330
1F
100
AcDbEntity
  8
0
  6
Continuous
 62
     7
370
    15
100
AcDbSpline
210
0.0
220
0.0
230
1.0
 70
     8
 71
     3
 72
    11
 73
     7
 74
     0
 42
0.000000001
 43
0.00000001
 40
28.80545114563655
 40
28.80545114563655
 40
28.80545114563655
 40
28.80545114563655
 40
29.80545114563655
 40
29.80545114563655
 40
29.80545114563655
 40
29.85068255488431
 40
29.85068255488431
 40
29.85068255488431
 40
29.85068255488431
 10
7.35459689523586
 20
-36.0048098713083
 30
0.0
 10
8.056579207935048
 20
-35.35861266221782
 30
0.0
 10
8.773226835842435
 20
-34.73144165228022
 30
0.0
 10
9.480798987492339
 20
-34.09758141157553
 30
0.0
 10
9.51280347305593
 20
-34.06891101962233
 30
0.0
 10
9.544807958619522
 20
-34.04024062766913
 30
0.0
 10
9.576812444183119
 20
-34.01157023571593
 30
0.0
  0
SPLINE
  5
BB
330
1F
100
AcDbEntity
  8
0
  6
Continuous
 62
     7
370
    15
100
AcDbSpline
210
0.0
220
0.0
230
1.0
 70
     8
 71
     3
 72
     8
 73
     4
 74
     0
 42
0.000000001
 43
0.00000001
 40
27.80545114563655
 40
27.80545114563655
 40
27.80545114563655
 40
27.80545114563655
 40
28.80545116208531
 40
28.80545116208531
 40
28.80545116208531
 40
28.80545116208531
 10
-3.126708310980246
 20
-45.63406372741868
 30
0.0
 10
0.3874137255951444
 20
-42.44813775597635
 30
0.0
 10
3.86324837801838
 20
-39.21871669720865
 30
0.0
 10
7.354596723337403
 20
-36.00481002954655
 30
0.0
  0
SPLINE
  5
BC
330
1F
100
AcDbEntity
  8
0
  6
Continuous
 62
     7
370
    15
100
AcDbSpline
210
0.0
220
0.0
230
1.0
 70
     8
 71
     3
 72
    10
 73
     6
 74
     0
 42
0.000000001
 43
0.00000001
 40
26.80545114563655
 40
26.80545114563655
 40
26.80545114563655
 40
26.80545114563655
 40
27.30545114563655
 40
27.30545114563655
 40
27.80545279775097
 40
27.80545279775097
 40
27.80545279775097
 40
27.80545279775097
 10
-4.402668257183493
 20
-46.12154143755196
 30
0.0
 10
-4.194211590054722
 20
-46.12117844251124
 30
0.0
 10
-3.950556584974594
 20
-46.07136120896685
 30
0.0
 10
-3.493086478505466
 20
-45.89705234892792
 30
0.0
 10
-3.27945800914024
 20
-45.77255085788033
 30
0.0
 10
-3.126709825140668
 20
-45.63406510018256
 30
0.0
  0
SPLINE
  5
BD
330
1F
100
AcDbEntity
  8
0
  6
Continuous
 62
     7
370
    15
100
AcDbSpline
210
0.0
220
0.0
230
1.0
 70
     8
 71
     3
 72
     8
 73
     4
 74
     0
 42
0.000000001
 43
0.00000001
 40
25.80545114563655
 40
25.80545114563655
 40
25.80545114563655
 40
25.80545114563655
 40
26.80545114563655
 40
26.80545114563655
 40
26.80545114563655
 40
26.80545114563655
 10
-47.75214943665183
 20
-46.1466166010547
 30
0.0
 10
-33.30208515717779
 20
-46.1362448194219
 30
0.0
 10
-18.85223229169892
 20
-46.14661288306566
 30
0.0
 10
-4.402667166535598
 20
-46.12154143565618
 30
0.0
  0
SPLINE
  5
BE
330
1F
100
AcDbEntity
  8
0
  6
Continuous
 62
     7
370
    15
100
AcDbSpline
210
0.0
220
0.0
230
1.0
 70
     8
 71
     3
 72
    12
 73
     8
 74
     0
 42
0.000000001
 43
0.00000001
 40
24.80545114563655
 40
24.80545114563655
 40
24.80545114563655
 40
24.80545114563655
 40
25.30545114563655
 40
25.30545114563655
 40
25.55545114563655
 40
25.55545114563655
 40
25.80545165720253
 40
25.80545165720253
 40
25.80545165720253
 40
25.80545165720253
 10
-48.84807281126288
 20
-45.5844637920474
 30
0.0
 10
-48.68956604640925
 20
-45.79713307360996
 30
0.0
 10
-48.54132511704836
 20
-45.93235096195804
 30
0.0
 10
-48.28948525717053
 20
-46.06237702689929
 30
0.0
 10
-48.19983537613955
 20
-46.09385723233945
 30
0.0
 10
-47.99628631624487
 20
-46.13614174717618
 30
0.0
 10
-47.88238022411359
 20
-46.14671067228863
 30
0.0
 10
-47.75215023610772
 20
-46.14661660163035
 30
0.0
  0
SPLINE
  5
BF
330
1F
100
AcDbEntity
  8
0
  6
Continuous
 62
     7
370
    15
100
AcDbSpline
210
0.0
220
0.0
230
1.0
 70
     8
 71
     3
 72
     8
 73
     4
 74
     0
 42
0.000000001
 43
0.00000001
 40
23.80545114563655
 40
23.80545114563655
 40
23.80545114563655
 40
23.80545114563655
 40
24.80545119831872
 40
24.80545119831872
 40
24.80545119831872
 40
24.80545119831872
 10
-57.05728722996285
 20
-34.6784362593863
 30
0.0
 10
-54.31526312295638
 20
-38.30890890243511
 30
0.0
 10
-51.56749644058495
 20
-41.93583135844681
 30
0.0
 10
-48.84807323593158
 20
-45.58446322226983
 30
0.0
  0
SPLINE
  5
C0
330
1F
100
AcDbEntity
  8
0
  6
Continuous
 62
     7
370
    15
100
AcDbSpline
210
0.0
220
0.0
230
1.0
 70
     8
 71
     3
 72
    11
 73
     7
 74
     0
 42
0.000000001
 43
0.00000001
 40
22.58277368970765
 40
22.58277368970765
 40
22.58277368970765
 40
22.58277368970765
 40
22.80545114563655
 40
22.80545114563655
 40
22.80545114563655
 40
23.80545299804859
 40
23.80545299804859
 40
23.80545299804859
 40
23.80545299804859
 10
-57.87846305101221
 20
-33.73769906900891
 30
0.0
 10
-57.8167680994157
 20
-33.80803877799352
 30
0.0
 10
-57.75507314781918
 20
-33.87837848697811
 30
0.0
 10
-57.69337819622268
 20
-33.94871819596272
 30
0.0
 10
-57.41631848517494
 20
-34.26459978663018
 30
0.0
 10
-57.22683140584001
 20
-34.45396201761589
 30
0.0
 10
-57.05728817215505
 20
-34.67843501192421
 30
0.0
  0
SPLINE
  5
C1
330
1F
100
AcDbEntity
  8
0
  6
Continuous
 62
     7
370
    15
100
AcDbSpline
210
0.0
220
0.0
230
1.0
 70
     8
 71
     3
 72
    11
 73
     7
 74
     0
 42
0.000000001
 43
0.00000001
 40
21.80545114563655
 40
21.80545114563655
 40
21.80545114563655
 40
21.80545114563655
 40
22.80545114563655
 40
22.80545114563655
 40
22.80545114563655
 40
22.87449749981942
 40
22.87449749981942
 40
22.87449749981942
 40
22.87449749981942
 10
-59.43000043851553
 20
-37.47767217647437
 30
0.0
 10
-58.97432333668561
 20
-36.3591939047694
 30
0.0
 10
-58.50532940617997
 20
-35.24735312592163
 30
0.0
 10
-57.98603020146011
 20
-33.99674820081432
 30
0.0
 10
-57.95017448464415
 20
-33.91039849021251
 30
0.0
 10
-57.91431876782818
 20
-33.82404877961071
 30
0.0
 10
-57.87846305101221
 20
-33.7376990690089
 30
0.0
  0
SPLINE
  5
C2
330
1F
100
AcDbEntity
  8
0
  6
Continuous
 62
     7
370
    15
100
AcDbSpline
210
0.0
220
0.0
230
1.0
 70
     8
 71
     3
 72
     8
 73
     4
 74
     0
 42
0.000000001
 43
0.00000001
 40
20.80545114563655
 40
20.80545114563655
 40
20.80545114563655
 40
20.80545114563655
 40
21.80545114563655
 40
21.80545114563655
 40
21.80545114563655
 40
21.80545114563655
 10
-62.73909816566869
 20
-45.64546151971965
 30
0.0
 10
-61.6454620795089
 20
-42.91881352058706
 30
0.0
 10
-60.5382377458325
 20
-40.19787778028343
 30
0.0
 10
-59.43000036547141
 20
-37.47767199718486
 30
0.0
  0
SPLINE
  5
C3
330
1F
100
AcDbEntity
  8
0
  6
Continuous
 62
     7
370
    15
100
AcDbSpline
210
0.0
220
0.0
230
1.0
 70
     8
 71
     3
 72
    14
 73
    10
 74
     0
 42
0.000000001
 43
0.00000001
 40
19.80545114563655
 40
19.80545114563655
 40
19.80545114563655
 40
19.80545114563655
 40
20.05545114563655
 40
20.05545114563655
 40
20.30545114563655
 40
20.30545114563655
 40
20.55545114563655
 40
20.55545114563655
 40
20.80545114563655
 40
20.80545114563655
 40
20.80545114563655
 40
20.80545114563655
 10
-63.41988889343556
 20
-46.14309438680075
 30
0.0
 10
-63.31155469965608
 20
-46.14338918651627
 30
0.0
 10
-63.22531402356854
 20
-46.13201610367723
 30
0.0
 10
-63.08621919356812
 20
-46.09247806663766
 30
0.0
 10
-63.03320737707804
 20
-46.06510143355514
 30
0.0
 10
-62.93878235163225
 20
-45.99158379460791
 30
0.0
 10
-62.89675829022546
 20
-45.94435113806331
 30
0.0
 10
-62.81548846215285
 20
-45.81833924580943
 30
0.0
 10
-62.77692873408171
 20
-45.73978033993961
 30
0.0
 10
-62.73909811763436
 20
-45.64546139996082
 30
0.0
  0
SPLINE
  5
C4
330
1F
100
AcDbEntity
  8
0
  6
Continuous
 62
     7
370
    15
100
AcDbSpline
210
0.0
220
0.0
230
1.0
 70
     8
 71
     3
 72
    11
 73
     7
 74
     0
 42
0.000000001
 43
0.00000001
 40
19.18105875917305
 40
19.18105875917305
 40
19.18105875917305
 40
19.18105875917305
 40
19.18996566822949
 40
19.18996566822949
 40
19.18996566822949
 40
19.80545116828933
 40
19.80545116828933
 40
19.80545116828933
 40
19.80545116828933
 10
-75.80878980396729
 20
-46.1273335442167
 30
0.0
 10
-75.74988211422558
 20
-46.12735667755772
 30
0.0
 10
-75.69097442448387
 20
-46.12737981089875
 30
0.0
 10
-75.63206673474215
 20
-46.12740294423977
 30
0.0
 10
-71.5614259194065
 20
-46.12900150501493
 30
0.0
 10
-67.49069488192194
 20
-46.13202690011857
 30
0.0
 10
-63.41988934357834
 20
-46.14309438557634
 30
0.0
  0
SPLINE
  5
C6
330
1F
100
AcDbEntity
  8
0
  6
Continuous
 62
     7
370
    15
100
AcDbSpline
210
0.0
220
0.0
230
1.0
 70
     8
 71
     3
 72
    11
 73
     7
 74
     0
 42
0.000000001
 43
0.00000001
 40
84.80545114563655
 40
84.80545114563655
 40
84.80545114563655
 40
84.80545114563655
 40
85.688629760661
 40
85.688629760661
 40
85.688629760661
 40
85.69387354079572
 40
85.69387354079572
 40
85.69387354079572
 40
85.69387354079572
 10
-69.64950992806077
 20
-13.27424530148416
 30
0.0
 10
-73.27189707253785
 20
-21.91809197311144
 30
0.0
 10
-76.90730238406796
 20
-30.55636186821778
 30
0.0
 10
-80.53679777618345
 20
-39.19696479768066
 30
0.0
 10
-80.55834752332684
 20
-39.24826746876295
 30
0.0
 10
-80.57989727047023
 20
-39.29957013984525
 30
0.0
 10
-80.60144701761362
 20
-39.35087281092755
 30
0.0
  0
SPLINE
  5
C7
330
1F
100
AcDbEntity
  8
0
  6
Continuous
 62
     7
370
    15
100
AcDbSpline
210
0.0
220
0.0
230
1.0
 70
     8
 71
     3
 72
    34
 73
    30
 74
     0
 42
0.000000001
 43
0.00000001
 40
0.0
 40
0.0
 40
0.0
 40
0.0
 40
0.5
 40
0.5
 40
0.75
 40
0.75
 40
0.765625
 40
0.765625
 40
0.7734375
 40
0.7734375
 40
0.78125
 40
0.78125
 40
0.8125
 40
0.8125
 40
0.84375
 40
0.84375
 40
0.859375
 40
0.859375
 40
0.875
 40
0.875
 40
0.90625
 40
0.90625
 40
0.921875
 40
0.921875
 40
0.9375
 40
0.9375
 40
0.96875
 40
0.96875
 40
1.0
 40
1.0
 40
1.0
 40
1.0
 10
-48.91153889131348
 20
-10.94377488843112
 30
0.0
 10
-52.61514749637963
 20
-10.94394580814153
 30
0.0
 10
-55.68749362379288
 20
-10.94440694654945
 30
0.0
 10
-61.17818516689213
 20
-10.94460665905961
 30
0.0
 10
-63.1554438045024
 20
-10.94459123039697
 30
0.0
 10
-65.57444559384638
 20
-10.94440560607153
 30
0.0
 10
-65.71790953930297
 20
-10.94439406481998
 30
0.0
 10
-65.93491586033365
 20
-10.9443757913818
 30
0.0
 10
-66.00755303433723
 20
-10.94436953997576
 30
0.0
 10
-66.15344015313237
 20
-10.94435671192689
 30
0.0
 10
-66.2268503132089
 20
-10.94434043415292
 30
0.0
 10
-66.58788119708089
 20
-10.94440424299837
 30
0.0
 10
-66.86259876932237
 20
-10.94495456120307
 30
0.0
 10
-67.36128386499975
 20
-10.95683989941006
 30
0.0
 10
-67.5856570895832
 20
-10.96847119325769
 30
0.0
 10
-67.87705997786598
 20
-11.0040247634932
 30
0.0
 10
-67.96688221602659
 20
-11.01892520223271
 30
0.0
 10
-68.13188896201277
 20
-11.05612323419741
 30
0.0
 10
-68.20701894875754
 20
-11.07840260494526
 30
0.0
 10
-68.41414718966575
 20
-11.15828024086485
 30
0.0
 10
-68.5273330522897
 20
-11.22775172095515
 30
0.0
 10
-68.68726315280949
 20
-11.37623591010005
 30
0.0
 10
-68.7388136791549
 20
-11.43329930867783
 30
0.0
 10
-68.84131800376406
 20
-11.56656039099813
 30
0.0
 10
-68.89220447775934
 20
-11.64268556869684
 30
0.0
 10
-69.04645165550798
 20
-11.90218395811263
 30
0.0
 10
-69.15142730371515
 20
-12.11730250728496
 30
0.0
 10
-69.38156955172855
 20
-12.63334693271996
 30
0.0
 10
-69.5070384014742
 20
-12.93427569791865
 30
0.0
 10
-69.6495099387414
 20
-13.27424532697059
 30
0.0
  0
LWPOLYLINE
  5
C8
330
1F
100
AcDbEntity
  8
0
  6
Continuous
 62
     7
370
    15
100
AcDbPolyline
 90
        3
 70
   128
 43
0.0
 10
35.3161604616
 20
-0.4784298618
 10
35.4168634579
 20
-0.2765590975
 10
35.5512417521
 20
-0.0073369495
  0
LWPOLYLINE
  5
CA
330
1F
100
AcDbEntity
  8
0
  6
Continuous
 62
     7
370
    15
100
AcDbPolyline
 90
        5
 70
   128
 43
0.0
 10
35.5512417521
 20
-0.0073369495
 10
23.5440053255
 20
-0.004855776
 10
-0.4704675269
 20
0.0000938515
 10
-21.8553063211
 20
0.004500187
 10
-43.2401451153
 20
0.0089009889
  0
SPLINE
  5
CC
330
1F
100
AcDbEntity
  8
0
  6
Continuous
 62
     7
370
    15
100
AcDbSpline
210
0.0
220
0.0
230
1.0
 70
     8
 71
     3
 72
     8
 73
     4
 74
     0
 42
0.000000001
 43
0.00000001
 40
60.80545114563656
 40
60.80545114563656
 40
60.80545114563656
 40
60.80545114563656
 40
61.80545114563656
 40
61.80545114563656
 40
61.80545114563656
 40
61.80545114563656
 10
34.66817129407411
 20
-3.982429248277932
 30
0.0
 10
34.97778686062132
 20
-2.696475697538017
 30
0.0
 10
35.24429256522738
 20
-1.400167740064899
 30
0.0
 10
35.55124175207024
 20
-0.0073369494512331
 30
0.0
  0
SPLINE
  5
CD
330
1F
100
AcDbEntity
  8
0
  6
Continuous
 62
     7
370
    15
100
AcDbSpline
210
0.0
220
0.0
230
1.0
 70
     8
 71
     3
 72
    11
 73
     7
 74
     0
 42
0.000000001
 43
0.00000001
 40
0.0
 40
0.0
 40
0.0
 40
0.0
 40
0.006567449470751
 40
0.2931274646213964
 40
0.6463821080144503
 40
1.0
 40
1.0
 40
1.0
 40
1.0
 10
34.14514991614774
 20
-6.004140661216552
 30
0.0
 10
34.14812839512303
 20
-6.000641703756083
 30
0.0
 10
34.28106797758083
 20
-5.844471407543884
 30
0.0
 10
34.39420575719315
 20
-5.383195056982291
 30
0.0
 10
34.52904655150286
 20
-4.712739616036032
 30
0.0
 10
34.62178049513652
 20
-4.225949421660064
 30
0.0
 10
34.66817129407411
 20
-3.982429248277932
 30
0.0
  0
SPLINE
  5
D0
330
1F
100
AcDbEntity
  8
0
  6
Continuous
 62
     7
370
    15
100
AcDbSpline
210
0.0
220
0.0
230
1.0
 70
     8
 71
     3
 72
    14
 73
    10
 74
     0
 42
0.000000001
 43
0.00000001
 40
64.80545114563657
 40
64.80545114563657
 40
64.80545114563657
 40
64.80545114563657
 40
65.05545114563657
 40
65.05545114563657
 40
65.30545114563657
 40
65.30545114563657
 40
65.55545114563657
 40
65.55545114563657
 40
65.80545114563657
 40
65.80545114563657
 40
65.80545114563657
 40
65.80545114563657
 10
-43.82314096323199
 20
0.0128615400301069
 30
0.0
 10
-43.94537082999179
 20
0.0291874185723053
 30
0.0
 10
-44.0538658335718
 20
0.0292179513429608
 30
0.0
 10
-44.24702367589928
 20
-0.0037410991538152
 30
0.0
 10
-44.33168647340614
 20
-0.036730680989517
 30
0.0
 10
-44.48081740408132
 20
-0.1361594054863947
 30
0.0
 10
-44.54528549008283
 20
-0.2025985425791257
 30
0.0
 10
-44.65766448416885
 20
-0.3693558138416729
 30
0.0
 10
-44.7055753639371
 20
-0.4696739392021053
 30
0.0
 10
-44.74702637175114
 20
-0.5871462890656778
 30
0.0
  0
SPLINE
  5
D1
330
1F
100
AcDbEntity
  8
0
  6
Continuous
 62
     7
370
    15
100
AcDbSpline
210
0.0
220
0.0
230
1.0
 70
     8
 71
     3
 72
    10
 73
     6
 74
     0
 42
0.000000001
 43
0.00000001
 40
63.80545114563656
 40
63.80545114563656
 40
63.80545114563656
 40
63.80545114563656
 40
64.30545114563657
 40
64.30545114563657
 40
64.80545114563657
 40
64.80545114563657
 40
64.80545114563657
 40
64.80545114563657
 10
-43.24014511529268
 20
0.0089009888723096
 30
0.0
 10
-43.33740437598208
 20
0.0089207960667879
 30
0.0
 10
-43.43537985580082
 20
0.0035301645439252
 30
0.0
 10
-43.6304746488899
 20
-0.0008802334385202
 30
0.0
 10
-43.72759397412242
 20
0.0001000021711377
 30
0.0
 10
-43.82314096323199
 20
0.0128615400301069
 30
0.0
  0
SPLINE
  5
D3
330
1F
100
AcDbEntity
  8
0
  6
Continuous
 62
     7
370
    15
100
AcDbSpline
210
0.0
220
0.0
230
1.0
 70
     8
 71
     3
 72
     8
 73
     4
 74
     0
 42
0.000000001
 43
0.00000001
 40
65.80545114563657
 40
65.80545114563657
 40
65.80545114563657
 40
65.80545114563657
 40
66.80545114563657
 40
66.80545114563657
 40
66.80545114563657
 40
66.80545114563657
 10
-44.74702637175114
 20
-0.5871462890656778
 30
0.0
 10
-45.08806350480323
 20
-1.553677118632607
 30
0.0
 10
-45.48151737762282
 20
-2.501669637408436
 30
0.0
 10
-45.84693865764545
 20
-3.459749192224897
 30
0.0
  0
SPLINE
  5
D5
330
1F
100
AcDbEntity
  8
0
  6
Continuous
 62
     7
370
    15
100
AcDbSpline
210
0.0
220
0.0
230
1.0
 70
     8
 71
     3
 72
     9
 73
     5
 74
     0
 42
0.000000001
 43
0.00000001
 40
0.0
 40
0.0
 40
0.0
 40
0.0
 40
0.8614041125879148
 40
1.0
 40
1.0
 40
1.0
 40
1.0
 10
3.350123450488083
 20
-7.406273192754869
 30
0.0
 10
3.413078699326902
 20
-7.211802990254798
 30
0.0
 10
3.486163152859033
 20
-6.986043442954958
 30
0.0
 10
3.648194637711719
 20
-6.820677761989729
 30
0.0
 10
3.670651535143576
 20
-6.797758758688849
 30
0.0
  0
LWPOLYLINE
  5
D6
330
1F
100
AcDbEntity
  8
0
  6
Continuous
 62
     7
370
    15
100
AcDbPolyline
 90
        4
 70
   128
 43
0.0
 10
-46.7115618977
 20
-6.5030037154
 10
-46.7922737874
 20
-6.460684117
 10
-46.8688434096
 20
-6.4205430255
 10
-46.9454311603
 20
-6.3804019463
  0
SPLINE
  5
D7
330
1F
100
AcDbEntity
  8
0
  6
Continuous
 62
     7
370
    15
100
AcDbSpline
210
0.0
220
0.0
230
1.0
 70
     8
 71
     3
 72
     8
 73
     4
 74
     0
 42
0.000000001
 43
0.00000001
 40
66.80545114563657
 40
66.80545114563657
 40
66.80545114563657
 40
66.80545114563657
 40
67.80545114563657
 40
67.80545114563657
 40
67.80545114563657
 40
67.80545114563657
 10
-45.84693865764545
 20
-3.459749192224897
 30
0.0
 10
-46.19795435522075
 20
-4.380073493907396
 30
0.0
 10
-46.54080808272003
 20
-5.303501889189359
 30
0.0
 10
-46.94542616032767
 20
-6.380401947339139
 30
0.0
  0
SPLINE
  5
D8
330
1F
100
AcDbEntity
  8
0
  6
Continuous
 62
     7
370
    15
100
AcDbSpline
210
0.0
220
0.0
230
1.0
 70
     8
 71
     3
 72
    11
 73
     7
 74
     0
 42
0.000000001
 43
0.00000001
 40
0.0
 40
0.0
 40
0.0
 40
0.0
 40
0.0020304364417627
 40
0.0020304364417627
 40
0.0020304364417627
 40
0.0050068251979158
 40
0.0050068251979158
 40
0.0050068251979158
 40
0.0050068251979158
 10
64.45650844426008
 20
-11.02584420963025
 30
0.0
 10
64.48742351816314
 20
-10.96507955450777
 30
0.0
 10
64.51835260626554
 20
-10.90427183977217
 30
0.0
 10
64.54930190817306
 20
-10.84339368780411
 30
0.0
 10
64.59467006209314
 20
-10.75415324622294
 30
0.0
 10
64.64008165387962
 20
-10.66476138018523
 30
0.0
 10
64.68555489714421
 20
-10.57513914578165
 30
0.0
  0
SPLINE
  5
DA
330
1F
100
AcDbEntity
  8
0
  6
Continuous
 62
     7
370
    15
100
AcDbSpline
210
0.0
220
0.0
230
1.0
 70
     8
 71
     3
 72
     8
 73
     4
 74
     0
 42
0.000000001
 43
0.00000001
 40
42.80545114563655
 40
42.80545114563655
 40
42.80545114563655
 40
42.80545114563655
 40
43.80545114563655
 40
43.80545114563655
 40
43.80545114563655
 40
43.80545114563655
 10
64.6855548971442
 20
-10.57513914578164
 30
0.0
 10
64.35668439740824
 20
-10.54465984616542
 30
0.0
 10
64.14255984028773
 20
-10.50773897023968
 30
0.0
 10
63.92840474405087
 20
-10.50745557177233
 30
0.0
  0
SPLINE
  5
DC
330
1F
100
AcDbEntity
  8
0
  6
Continuous
 62
     7
370
    15
100
AcDbSpline
210
0.0
220
0.0
230
1.0
 70
     8
 71
     3
 72
     8
 73
     4
 74
     0
 42
0.000000001
 43
0.00000001
 40
43.80545114563655
 40
43.80545114563655
 40
43.80545114563655
 40
43.80545114563655
 40
44.80545114563655
 40
44.80545114563655
 40
44.80545114563655
 40
44.80545114563655
 10
63.92840474405086
 20
-10.50745557177233
 30
0.0
 10
58.06509616046308
 20
-10.49968165630776
 30
0.0
 10
52.20174686878659
 20
-10.48602305185977
 30
0.0
 10
46.33859094054249
 20
-10.51261118260809
 30
0.0
  0
SPLINE
  5
DE
330
1F
100
AcDbEntity
  8
0
  6
Continuous
 62
     7
370
    15
100
AcDbSpline
210
0.0
220
0.0
230
1.0
 70
     8
 71
     3
 72
     8
 73
     4
 74
     0
 42
0.000000001
 43
0.00000001
 40
41.80545114563655
 40
41.80545114563655
 40
41.80545114563655
 40
41.80545114563655
 40
42.80545114563655
 40
42.80545114563655
 40
42.80545114563655
 40
42.80545114563655
 10
63.9169047081231
 20
-14.18864588256408
 30
0.0
 10
64.18353253015229
 20
-13.00851721409401
 30
0.0
 10
64.42112531189466
 20
-11.82184746411188
 30
0.0
 10
64.68555489714421
 20
-10.57513914578165
 30
0.0
  0
SPLINE
  5
E0
330
1F
100
AcDbEntity
  8
0
  6
Continuous
 62
     7
370
    15
100
AcDbSpline
210
0.0
220
0.0
230
1.0
 70
     8
 71
     3
 72
     8
 73
     4
 74
     0
 42
0.000000001
 43
0.00000001
 40
55.80545114563656
 40
55.80545114563656
 40
55.80545114563656
 40
55.80545114563656
 40
56.80545114563656
 40
56.80545114563656
 40
56.80545114563656
 40
56.80545114563656
 10
-3.865965908118119
 20
-28.21386506266634
 30
0.0
 10
-1.455995989465341
 20
-21.27957083273106
 30
0.0
 10
0.9701757495036347
 20
-14.35081807212258
 30
0.0
 10
3.350123450488083
 20
-7.406273192754869
 30
0.0
  0
LWPOLYLINE
  5
E2
330
1F
100
AcDbEntity
  8
0
  6
Continuous
 62
     7
370
    15
100
AcDbPolyline
 90
        5
 70
   128
 43
0.0
 10
-17.7892166921
 20
-6.5091970957
 10
-19.9557003285
 20
-11.9563597389
 10
-22.1709211156
 20
-17.5260636954
 10
-26.0004094552
 20
-27.154503014
 10
-29.8298972457
 20
-36.7829425503
  0
SPLINE
  5
E4
330
1F
100
AcDbEntity
  8
0
  6
Continuous
 62
     7
370
    15
100
AcDbSpline
210
0.0
220
0.0
230
1.0
 70
     8
 71
     3
 72
    10
 73
     6
 74
     0
 42
0.000000001
 43
0.00000001
 40
44.80545114563655
 40
44.80545114563655
 40
44.80545114563655
 40
44.80545114563655
 40
45.30545114563655
 40
45.30545114563655
 40
45.80545114563655
 40
45.80545114563655
 40
45.80545114563655
 40
45.80545114563655
 10
46.3385909405425
 20
-10.5126111826081
 30
0.0
 10
46.14291224826813
 20
-10.51349825157505
 30
0.0
 10
45.92926596768969
 20
-10.5707519160401
 30
0.0
 10
45.52328929981682
 20
-10.7510242453913
 30
0.0
 10
45.33095879558282
 20
-10.87404295061941
 30
0.0
 10
45.17791165064149
 20
-11.00645992089316
 30
0.0
  0
SPLINE
  5
E6
330
1F
100
AcDbEntity
  8
0
  6
Continuous
 62
     7
370
    15
100
AcDbSpline
210
0.0
220
0.0
230
1.0
 70
     8
 71
     3
 72
     8
 73
     4
 74
     0
 42
0.000000001
 43
0.00000001
 40
45.80545114563655
 40
45.80545114563655
 40
45.80545114563655
 40
45.80545114563655
 40
46.80545114563655
 40
46.80545114563655
 40
46.80545114563655
 40
46.80545114563655
 10
45.17791165064149
 20
-11.00645992089316
 30
0.0
 10
41.27407688807808
 20
-14.38416459132571
 30
0.0
 10
37.39411742097887
 20
-17.78936500071912
 30
0.0
 10
33.5049070403446
 20
-21.18393189184815
 30
0.0
  0
LWPOLYLINE
  5
E7
330
1F
100
AcDbEntity
  8
0
  6
Continuous
 62
     7
370
    15
100
AcDbPolyline
 90
        4
 70
   128
 43
0.0
 10
30.4509800914
 20
-23.6969900497
 10
30.4726545349
 20
-23.6583346651
 10
30.5593523086
 20
-23.5037131268
 10
30.6678425311
 20
-23.310234832
  0
LWPOLYLINE
  5
E8
330
1F
100
AcDbEntity
  8
0
  6
Continuous
 62
     7
370
    15
100
AcDbPolyline
 90
        3
 70
   128
 43
0.0
 10
33.2816399995
 20
-10.9535435629
 10
33.4065074396
 20
-10.7038558794
 10
33.5172314151
 20
-10.482449936
  0
LWPOLYLINE
  5
E9
330
1F
100
AcDbEntity
  8
0
  6
Continuous
 62
     7
370
    15
100
AcDbPolyline
 90
        5
 70
   128
 43
0.0
 10
30.6678425311
 20
-23.310234832
 10
31.3801856305
 20
-20.1032876949
 10
32.0925349756
 20
-16.8963419415
 10
32.8048841677
 20
-13.6893961542
 10
33.5172314151
 20
-10.482449936
  0
LWPOLYLINE
  5
EB
330
1F
100
AcDbEntity
  8
0
  6
Continuous
 62
     7
370
    15
100
AcDbPolyline
 90
        4
 70
   128
 43
0.0
 10
33.5172314151
 20
-10.482449936
 10
33.1854579229
 20
-10.4823803142
 10
32.8580999864
 20
-10.4823120842
 10
32.53074205
 20
-10.4822361511
  0
SPLINE
  5
ED
330
1F
100
AcDbEntity
  8
0
  6
Continuous
 62
     7
370
    15
100
AcDbSpline
210
0.0
220
0.0
230
1.0
 70
     8
 71
     3
 72
     8
 73
     4
 74
     0
 42
0.000000001
 43
0.00000001
 40
50.80545114563655
 40
50.80545114563655
 40
50.80545114563655
 40
50.80545114563655
 40
51.80545114563655
 40
51.80545114563655
 40
51.80545114563655
 40
51.80545114563655
 10
32.5307420499637
 20
-10.48223615113629
 30
0.0
 10
27.11204724481496
 20
-10.48087134896566
 30
0.0
 10
21.69309801409593
 20
-10.50578437116448
 30
0.0
 10
16.27488152902534
 20
-10.45345000739778
 30
0.0
  0
SPLINE
  5
EF
330
1F
100
AcDbEntity
  8
0
  6
Continuous
 62
     7
370
    15
100
AcDbSpline
210
0.0
220
0.0
230
1.0
 70
     8
 71
     3
 72
    10
 73
     6
 74
     0
 42
0.000000001
 43
0.00000001
 40
51.80545114563655
 40
51.80545114563655
 40
51.80545114563655
 40
51.80545114563655
 40
52.30545114563655
 40
52.30545114563655
 40
52.80545114563656
 40
52.80545114563656
 40
52.80545114563656
 40
52.80545114563656
 10
16.27488152902534
 20
-10.45345000739778
 30
0.0
 10
15.79797096119697
 20
-10.44884293951539
 30
0.0
 10
15.39887393437588
 20
-10.52510530290644
 30
0.0
 10
14.67733570997889
 20
-10.84091172506103
 30
0.0
 10
14.3548945539419
 20
-11.08045577307374
 30
0.0
 10
14.03129575857143
 20
-11.40241210713124
 30
0.0
  0
SPLINE
  5
F1
330
1F
100
AcDbEntity
  8
0
  6
Continuous
 62
     7
370
    15
100
AcDbSpline
210
0.0
220
0.0
230
1.0
 70
     8
 71
     3
 72
     8
 73
     4
 74
     0
 42
0.000000001
 43
0.00000001
 40
40.80545114563655
 40
40.80545114563655
 40
40.80545114563655
 40
40.80545114563655
 40
41.80545114563655
 40
41.80545114563655
 40
41.80545114563655
 40
41.80545114563655
 10
56.96436971273432
 20
-44.99232063936164
 30
0.0
 10
59.26439725247081
 20
-34.72052293095866
 30
0.0
 10
61.59711338966032
 20
-24.45603410263928
 30
0.0
 10
63.9169047081231
 20
-14.18864588256408
 30
0.0
  0
SPLINE
  5
F3
330
1F
100
AcDbEntity
  8
0
  6
Continuous
 62
     7
370
    15
100
AcDbSpline
210
0.0
220
0.0
230
1.0
 70
     8
 71
     3
 72
     8
 73
     4
 74
     0
 42
0.000000001
 43
0.00000001
 40
52.80545114563656
 40
52.80545114563656
 40
52.80545114563656
 40
52.80545114563656
 40
53.80545114563656
 40
53.80545114563656
 40
53.80545114563656
 40
53.80545114563656
 10
14.03129575857143
 20
-11.40241210713124
 30
0.0
 10
8.24749007819754
 20
-17.15688132462145
 30
0.0
 10
2.440053350665052
 20
-22.88768738987162
 30
0.0
 10
-3.362925840948938
 20
-28.62293141293423
 30
0.0
  0
LWPOLYLINE
  5
F4
330
1F
100
AcDbEntity
  8
0
  6
Continuous
 62
     7
370
    15
100
AcDbPolyline
 90
        3
 70
   128
 43
0.0
 10
-22.767597071
 20
-10.9393049198
 10
-22.5177253017
 20
-10.7038040139
 10
-22.2677229563
 20
-10.4682933613
  0
SPLINE
  5
F6
330
1F
100
AcDbEntity
  8
0
  6
Continuous
 62
     7
370
    15
100
AcDbSpline
210
0.0
220
0.0
230
1.0
 70
     8
 71
     3
 72
    24
 73
    20
 74
     0
 42
0.000000001
 43
0.00000001
 40
0.0
 40
0.0
 40
0.0
 40
0.0
 40
0.03125
 40
0.03125
 40
0.0625
 40
0.0625
 40
0.0703125
 40
0.0703125
 40
0.078125
 40
0.078125
 40
0.09375
 40
0.09375
 40
0.125
 40
0.125
 40
0.25
 40
0.25
 40
0.5
 40
0.5
 40
1.0
 40
1.0
 40
1.0
 40
1.0
 10
-22.26772295625713
 20
-10.46829336131464
 30
0.0
 10
-22.47286909240726
 20
-10.46824943164739
 30
0.0
 10
-22.63164282351838
 20
-10.46820024660397
 30
0.0
 10
-22.90973639592129
 20
-10.46811795267917
 30
0.0
 10
-23.02958106404582
 20
-10.46808337273088
 30
0.0
 10
-23.18023931611697
 20
-10.46807355096165
 30
0.0
 10
-23.2104463074505
 20
-10.4680734121071
 30
0.0
 10
-23.27179088604074
 20
-10.46807800124948
 30
0.0
 10
-23.30317482807332
 20
-10.46808344559094
 30
0.0
 10
-23.39777765329995
 20
-10.46810270904053
 30
0.0
 10
-23.46112973232013
 20
-10.46811881714431
 30
0.0
 10
-23.6520148984616
 20
-10.46817626860395
 30
0.0
 10
-23.78037691585185
 20
-10.46822673914629
 30
0.0
 10
-24.42742444769391
 20
-10.46853100323849
 30
0.0
 10
-24.96182230448198
 20
-10.46894053117327
 30
0.0
 10
-26.60420732043663
 20
-10.47032430917474
 30
0.0
 10
-27.75138593352516
 20
-10.47145375370503
 30
0.0
 10
-31.26098324756164
 20
-10.47271762033415
 30
0.0
 10
-33.69146343771065
 20
-10.47072757574544
 30
0.0
 10
-35.97614742117106
 20
-10.4585842582277
 30
0.0
  0
SPLINE
  5
F8
330
1F
100
AcDbEntity
  8
0
  6
Continuous
 62
     7
370
    15
100
AcDbSpline
210
0.0
220
0.0
230
1.0
 70
     8
 71
     3
 72
    10
 73
     6
 74
     0
 42
0.000000001
 43
0.00000001
 40
76.80545114563655
 40
76.80545114563655
 40
76.80545114563655
 40
76.80545114563655
 40
77.30545114563655
 40
77.30545114563655
 40
77.80545114563655
 40
77.80545114563655
 40
77.80545114563655
 40
77.80545114563655
 10
-35.97614742117105
 20
-10.4585842582277
 30
0.0
 10
-36.30219888878133
 20
-10.45685151049202
 30
0.0
 10
-36.59077726413627
 20
-10.50135245652577
 30
0.0
 10
-37.13156011037076
 20
-10.6933853206122
 30
0.0
 10
-37.38376453877528
 20
-10.84091722472825
 30
0.0
 10
-37.63706809693129
 20
-11.04524642918368
 30
0.0
  0
SPLINE
  5
FB
330
1F
100
AcDbEntity
  8
0
  6
Continuous
 62
     7
370
    15
100
AcDbSpline
210
0.0
220
0.0
230
1.0
 70
     8
 71
     3
 72
    34
 73
    30
 74
     0
 42
0.000000001
 43
0.00000001
 40
0.0
 40
0.0
 40
0.0
 40
0.0
 40
0.5
 40
0.5
 40
0.75
 40
0.75
 40
0.765625
 40
0.765625
 40
0.7734375
 40
0.7734375
 40
0.78125
 40
0.78125
 40
0.8125
 40
0.8125
 40
0.84375
 40
0.84375
 40
0.859375
 40
0.859375
 40
0.875
 40
0.875
 40
0.90625
 40
0.90625
 40
0.921875
 40
0.921875
 40
0.9375
 40
0.9375
 40
0.96875
 40
0.96875
 40
1.0
 40
1.0
 40
1.0
 40
1.0
 10
-48.89355005637483
 20
-10.47263533093063
 30
0.0
 10
-52.59717013796194
 20
-10.4728062511644
 30
0.0
 10
-55.66951420888239
 20
-10.47326738938142
 30
0.0
 10
-61.16018905690721
 20
-10.47346710128705
 30
0.0
 10
-63.13744045646782
 20
-10.47345167268967
 30
0.0
 10
-65.55643482870782
 20
-10.47326604893322
 30
0.0
 10
-65.69989833847721
 20
-10.47325450771672
 30
0.0
 10
-65.91690400735361
 20
-10.47323623433348
 30
0.0
 10
-65.98954096420024
 20
-10.47322998294613
 30
0.0
 10
-66.13542764921041
 20
-10.47321715493541
 30
0.0
 10
-66.20882337952249
 20
-10.47320086842649
 30
0.0
 10
-66.57015895955304
 20
-10.47326473112853
 30
0.0
 10
-66.84583478639539
 20
-10.47379471844086
 30
0.0
 10
-67.35038897723115
 20
-10.4858199371531
 30
0.0
 10
-67.57963996079344
 20
-10.49749626806471
 30
0.0
 10
-67.8848462119352
 20
-10.53473396553558
 30
0.0
 10
-67.98036268422078
 20
-10.55049268301158
 30
0.0
 10
-68.15933329354272
 20
-10.59083864047019
 30
0.0
 10
-68.24276923890615
 20
-10.61543701098701
 30
0.0
 10
-68.47739721679929
 20
-10.70591974849907
 30
0.0
 10
-68.6124200481985
 20
-10.78859508143024
 30
0.0
 10
-68.79605696000243
 20
-10.95908941635805
 30
0.0
 10
-68.85417360773337
 20
-11.02365551897974
 30
0.0
 10
-68.96687992320967
 20
-11.17017972392046
 30
0.0
 10
-69.0214900569493
 20
-11.25209240728327
 30
0.0
 10
-69.18426825420092
 20
-11.5259429867213
 30
0.0
 10
-69.29155769637913
 20
-11.74652129613148
 30
0.0
 10
-69.52439509528458
 20
-12.26860901618558
 30
0.0
 10
-69.6501267247001
 20
-12.57024314702488
 30
0.0
 10
-69.79255389975427
 20
-12.91010691770536
 30
0.0
  0
SPLINE
  5
FD
330
1F
100
AcDbEntity
  8
0
  6
Continuous
 62
     7
370
    15
100
AcDbSpline
210
0.0
220
0.0
230
1.0
 70
     8
 71
     3
 72
     8
 73
     4
 74
     0
 42
0.000000001
 43
0.00000001
 40
77.80545114563655
 40
77.80545114563655
 40
77.80545114563655
 40
77.80545114563655
 40
78.80545114563655
 40
78.80545114563655
 40
78.80545114563655
 40
78.80545114563655
 10
-37.6370680969313
 20
-11.04524642918368
 30
0.0
 10
-42.58365589621589
 20
-15.03544318262695
 30
0.0
 10
-47.54731056279863
 20
-19.00456115034942
 30
0.0
 10
-52.50804696822517
 20
-22.97726845818244
 30
0.0
  0
LWPOLYLINE
  5
FE
330
1F
100
AcDbEntity
  8
0
  6
Continuous
 62
     7
370
    15
100
AcDbPolyline
 90
        4
 70
   128
 43
0.0
 10
-53.4638252538
 20
-23.5491525993
 10
-53.4422814544
 20
-23.5163839217
 10
-53.3561062567
 20
-23.3853092114
 10
-53.234638038
 20
-23.2005529546
  0
LWPOLYLINE
  5
FF
330
1F
100
AcDbEntity
  8
0
  6
Continuous
 62
     7
370
    15
100
AcDbPolyline
 90
        3
 70
   128
 43
0.0
 10
-48.1618934745
 20
-10.9439190799
 10
-48.0068163614
 20
-10.683668145
 10
-47.8811906989
 20
-10.4728419567
  0
LWPOLYLINE
  5
100
330
1F
100
AcDbEntity
  8
0
  6
Continuous
 62
     7
370
    15
100
AcDbPolyline
 90
        5
 70
   128
 43
0.0
 10
-53.234638038
 20
-23.2005529546
 10
-52.0726244148
 20
-20.4378902127
 10
-50.9106107927
 20
-17.6752274704
 10
-49.3959004236
 20
-14.0740348486
 10
-47.8811906989
 20
-10.4728419567
  0
LWPOLYLINE
  5
101
330
1F
100
AcDbEntity
  8
0
  6
Continuous
 62
     7
370
    15
100
AcDbPolyline
 90
        5
 70
   128
 43
0.0
 10
-47.8811906989
 20
-10.4728419567
 10
-48.0541772162
 20
-10.4728021261
 10
-48.2271637335
 20
-10.4727576548
 10
-48.5603568937
 20
-10.4726717354
 10
-48.8935500564
 20
-10.4726353309
  0
SPLINE
  5
102
330
1F
100
AcDbEntity
  8
0
  6
Continuous
 62
     7
370
    15
100
AcDbSpline
210
0.0
220
0.0
230
1.0
 70
     8
 71
     3
 72
    11
 73
     7
 74
     0
 42
0.000000001
 43
0.00000001
 40
0.0
 40
0.0
 40
0.0
 40
0.0
 40
0.002502920254706
 40
0.002502920254706
 40
0.002502920254706
 40
0.0050058408547426
 40
0.0050058408547426
 40
0.0050058408547426
 40
0.0050058408547426
 10
-80.60144701761364
 20
-39.35087281092755
 30
0.0
 10
-80.61438239053949
 20
-39.26422272807891
 30
0.0
 10
-80.62737964930515
 20
-39.17771921257385
 30
0.0
 10
-80.64043674636
 20
-39.09135742736497
 30
0.0
 10
-80.6534938452263
 20
-39.004995630175
 30
0.0
 10
-80.66661078341701
 20
-38.91877556170259
 30
0.0
 10
-80.67978562377145
 20
-38.83269264529041
 30
0.0
  0
SPLINE
  5
103
330
1F
100
AcDbEntity
  8
0
  6
Continuous
 62
     7
370
    15
100
AcDbSpline
210
0.0
220
0.0
230
1.0
 70
     8
 71
     3
 72
     8
 73
     4
 74
     0
 42
0.000000001
 43
0.00000001
 40
84.80545114563655
 40
84.80545114563655
 40
84.80545114563655
 40
84.80545114563655
 40
85.688629760661
 40
85.688629760661
 40
85.688629760661
 40
85.688629760661
 10
-69.79255389975427
 20
-12.91010691770536
 30
0.0
 10
-73.4148732622458
 20
-21.55379184577952
 30
0.0
 10
-77.0502597680151
 20
-30.19201719218086
 30
0.0
 10
-80.67978562377145
 20
-38.83269264529041
 30
0.0
  0
LWPOLYLINE
  5
104
330
1F
100
AcDbEntity
  8
0
  6
Continuous
 62
     7
370
    15
100
AcDbPolyline
 90
        4
 70
   128
 43
0.0
 10
30.8911586105
 20
-23.9379933279
 10
30.8907551715
 20
-23.8872470482
 10
30.8891414153
 20
-23.6842619294
 10
30.8871204974
 20
-23.4302939851
  0
SPLINE
  5
105
330
1F
100
AcDbEntity
  8
0
  6
Continuous
 62
     7
370
    15
100
AcDbSpline
210
0.0
220
0.0
230
1.0
 70
     8
 71
     3
 72
     8
 73
     4
 74
     0
 42
0.000000001
 43
0.00000001
 40
46.80545114563655
 40
46.80545114563655
 40
46.80545114563655
 40
46.80545114563655
 40
47.80545114563655
 40
47.80545114563655
 40
47.80545114563655
 40
47.80545114563655
 10
33.5049070403446
 20
-21.18393189184815
 30
0.0
 10
32.63867955432413
 20
-21.93998499346268
 30
0.0
 10
31.76004628033709
 20
-22.6818812233052
 30
0.0
 10
30.88712231321066
 20
-23.43029067955778
 30
0.0
  0
LWPOLYLINE
  5
106
330
1F
100
AcDbEntity
  8
0
  6
Continuous
 62
     7
370
    15
100
AcDbPolyline
 90
        4
 70
   128
 43
0.0
 10
30.8871204974
 20
-23.4302939851
 10
30.8322953938
 20
-23.4002725086
 10
30.7774678322
 20
-23.3702555066
 10
30.6678425311
 20
-23.310234832
  0
SPLINE
  5
108
330
1F
100
AcDbEntity
  8
0
  6
Continuous
 62
     7
370
    15
100
AcDbSpline
210
0.0
220
0.0
230
1.0
 70
     8
 71
     3
 72
     8
 73
     4
 74
     0
 42
0.000000001
 43
0.00000001
 40
78.80545114563655
 40
78.80545114563655
 40
78.80545114563655
 40
78.80545114563655
 40
79.80545114563655
 40
79.80545114563655
 40
79.80545114563655
 40
79.80545114563655
 10
-52.50804696822517
 20
-22.97726845818245
 30
0.0
 10
-52.67945352100877
 20
-23.1145349817361
 30
0.0
 10
-52.87117582542403
 20
-23.22652647459708
 30
0.0
 10
-53.05343108361377
 20
-23.35029934014384
 30
0.0
  0
SPLINE
  5
10A
330
1F
100
AcDbEntity
  8
0
  6
Continuous
 62
     7
370
    15
100
AcDbSpline
210
0.0
220
0.0
230
1.0
 70
     8
 71
     3
 72
    11
 73
     7
 74
     0
 42
0.000000001
 43
0.00000001
 40
0.0
 40
0.0
 40
0.0
 40
0.0
 40
0.4947978152613358
 40
0.6949509561064607
 40
0.8632387921335626
 40
1.0
 40
1.0
 40
1.0
 40
1.0
 10
-38.80963414963352
 20
-25.22341054277253
 30
0.0
 10
-38.90379534313781
 20
-25.09802034949785
 30
0.0
 10
-39.03604615232815
 20
-24.92190794153059
 30
0.0
 10
-39.10915068935736
 20
-24.65778581970024
 30
0.0
 10
-39.0975337594193
 20
-24.49542681668811
 30
0.0
 10
-39.0538343850732
 20
-24.40980739263588
 30
0.0
 10
-39.03424284942275
 20
-24.37142203760983
 30
0.0
  0
LWPOLYLINE
  5
10B
330
1F
100
AcDbEntity
  8
0
  6
Continuous
 62
     7
370
    15
100
AcDbPolyline
 90
        4
 70
   128
 43
0.0
 10
-53.0534311037
 20
-23.3502993643
 10
-53.0987336092
 20
-23.3128616446
 10
-53.1440361915
 20
-23.2754240172
 10
-53.234638038
 20
-23.2005529546
  0
SPLINE
  5
10D
330
1F
100
AcDbEntity
  8
0
  6
Continuous
 62
     7
370
    15
100
AcDbSpline
210
0.0
220
0.0
230
1.0
 70
     8
 71
     3
 72
     8
 73
     4
 74
     0
 42
0.000000001
 43
0.00000001
 40
70.80545114563655
 40
70.80545114563655
 40
70.80545114563655
 40
70.80545114563655
 40
71.80545114563655
 40
71.80545114563655
 40
71.80545114563655
 40
71.80545114563655
 10
-30.57847834542871
 20
-35.90412350555776
 30
0.0
 10
-33.31991390111347
 20
-32.34209325218863
 30
0.0
 10
-36.0459516217152
 20
-28.76812930970645
 30
0.0
 10
-38.80963414963352
 20
-25.22341054277252
 30
0.0
  0
SPLINE
  5
10F
330
1F
100
AcDbEntity
  8
0
  6
Continuous
 62
     7
370
    15
100
AcDbSpline
210
0.0
220
0.0
230
1.0
 70
     8
 71
     3
 72
    10
 73
     6
 74
     0
 42
0.000000001
 43
0.00000001
 40
54.80545114563656
 40
54.80545114563656
 40
54.80545114563656
 40
54.80545114563656
 40
55.30545114563656
 40
55.30545114563656
 40
55.80545114563656
 40
55.80545114563656
 40
55.80545114563656
 40
55.80545114563656
 10
-3.932116557263318
 20
-29.10151825762979
 30
0.0
 10
-3.973292774527479
 20
-28.91271834736041
 30
0.0
 10
-3.978526299974173
 20
-28.75345056970064
 30
0.0
 10
-3.946634106670582
 20
-28.46666933640099
 30
0.0
 10
-3.909508377384956
 20
-28.33915598870349
 30
0.0
 10
-3.865965908118119
 20
-28.21386506266634
 30
0.0
  0
SPLINE
  5
110
330
1F
100
AcDbEntity
  8
0
  6
Continuous
 62
     7
370
    15
100
AcDbSpline
210
0.0
220
0.0
230
1.0
 70
     8
 71
     3
 72
     8
 73
     4
 74
     0
 42
0.000000001
 43
0.00000001
 40
53.80545114563656
 40
53.80545114563656
 40
53.80545114563656
 40
53.80545114563656
 40
54.80545114563656
 40
54.80545114563656
 40
54.80545114563656
 40
54.80545114563656
 10
-3.362925840948938
 20
-28.62293141293423
 30
0.0
 10
-3.538642366119784
 20
-28.79658959232798
 30
0.0
 10
-3.741775651211349
 20
-28.94261173813545
 30
0.0
 10
-3.932116557263317
 20
-29.10151825762978
 30
0.0
  0
LWPOLYLINE
  5
111
330
1F
100
AcDbEntity
  8
0
  6
Continuous
 62
     7
370
    15
100
AcDbPolyline
 90
        3
 70
   128
 43
0.0
 10
37.7988143834
 20
-46.1127296707
 10
37.7009290578
 20
-46.0413855691
 10
37.6139818248
 20
-45.9783881383
  0
LWPOLYLINE
  5
112
330
1F
100
AcDbEntity
  8
0
  6
Continuous
 62
     7
370
    15
100
AcDbPolyline
 90
        5
 70
   128
 43
0.0
 10
39.5371682504
 20
-33.9760849563
 10
39.0656149141
 20
-36.9189931061
 10
38.5817394397
 20
-39.9387918055
 10
38.0978618777
 20
-42.958590171
 10
37.6139818248
 20
-45.9783881383
  0
SPLINE
  5
113
330
1F
100
AcDbEntity
  8
0
  6
Continuous
 62
     7
370
    15
100
AcDbSpline
210
0.0
220
0.0
230
1.0
 70
     8
 71
     3
 72
    11
 73
     7
 74
     0
 42
0.000000001
 43
0.00000001
 40
0.0
 40
0.0
 40
0.0
 40
0.0
 40
0.0025031359831175
 40
0.0025031359831175
 40
0.0025031359831175
 40
0.0050062724592303
 40
0.0050062724592303
 40
0.0050062724592303
 40
0.0050062724592303
 10
7.816412582202679
 20
-46.09744621841065
 30
0.0
 10
7.785420900522084
 20
-46.07173766720044
 30
0.0
 10
7.7544067390085
 20
-46.04615149160065
 30
0.0
 10
7.723355681584223
 20
-46.02076620180514
 30
0.0
 10
7.692304618288045
 20
-45.99538090720915
 30
0.0
 10
7.661217382233873
 20
-45.97019255256671
 30
0.0
 10
7.630090804227089
 20
-45.94521843070458
 30
0.0
  0
LWPOLYLINE
  5
114
330
1F
100
AcDbEntity
  8
0
  6
Continuous
 62
     7
370
    15
100
AcDbPolyline
 90
        5
 70
   128
 43
0.0
 10
9.8141265758
 20
-34.1540289504
 10
9.2811605458
 20
-37.0314263177
 10
8.7308067955
 20
-40.0026908783
 10
8.1804506331
 20
-42.9739549933
 10
7.6300908042
 20
-45.9452184307
  0
SPLINE
  5
116
330
1F
100
AcDbEntity
  8
0
  6
Continuous
 62
     7
370
    15
100
AcDbSpline
210
0.0
220
0.0
230
1.0
 70
     8
 71
     3
 72
    11
 73
     7
 74
     0
 42
0.000000001
 43
0.00000001
 40
0.0
 40
0.0
 40
0.0
 40
0.0
 40
0.2725050848392728
 40
0.5450092779706316
 40
0.7777081258747098
 40
1.0
 40
1.0
 40
1.0
 40
1.0
 10
-59.25022544358759
 20
-37.24652043253402
 30
0.0
 10
-59.1218108466011
 20
-36.93312463150987
 30
0.0
 10
-58.86498207283427
 20
-36.3063340549746
 30
0.0
 10
-58.49325971365402
 20
-35.41408279522035
 30
0.0
 10
-58.14492492346432
 20
-34.57969925822619
 30
0.0
 10
-57.92772566766425
 20
-34.05758472152305
 30
0.0
 10
-57.82161003212982
 20
-33.80249859942779
 30
0.0
  0
SPLINE
  5
117
330
1F
100
AcDbEntity
  8
0
  6
Continuous
 62
     7
370
    15
100
AcDbSpline
210
0.0
220
0.0
230
1.0
 70
     8
 71
     3
 72
     8
 73
     4
 74
     0
 42
0.000000001
 43
0.00000001
 40
69.80545114563655
 40
69.80545114563655
 40
69.80545114563655
 40
69.80545114563655
 40
70.80545114563655
 40
70.80545114563655
 40
70.80545114563655
 40
70.80545114563655
 10
-29.82989724565598
 20
-36.78294255034523
 30
0.0
 10
-30.16432949565608
 20
-36.39180001434325
 30
0.0
 10
-30.38360868957843
 20
-36.15732077334675
 30
0.0
 10
-30.57847834542871
 20
-35.90412350555776
 30
0.0
  0
SPLINE
  5
119
330
1F
100
AcDbEntity
  8
0
  6
Continuous
 62
     7
370
    15
100
AcDbSpline
210
0.0
220
0.0
230
1.0
 70
     8
 71
     3
 72
     8
 73
     4
 74
     0
 42
0.000000001
 43
0.00000001
 40
20.80545114563655
 40
20.80545114563655
 40
20.80545114563655
 40
20.80545114563655
 40
21.80545114563655
 40
21.80545114563655
 40
21.80545114563655
 40
21.80545114563655
 10
-62.55896896657747
 20
-45.41343356737045
 30
0.0
 10
-61.46554962118601
 20
-42.68732594515738
 30
0.0
 10
-60.35844472452735
 20
-39.96668178995536
 30
0.0
 10
-59.25022544358759
 20
-37.24652043253402
 30
0.0
  0
SPLINE
  5
11A
330
1F
100
AcDbEntity
  8
0
  6
Continuous
 62
     7
370
    15
100
AcDbSpline
210
0.0
220
0.0
230
1.0
 70
     8
 71
     3
 72
     9
 73
     5
 74
     0
 42
0.000000001
 43
0.00000001
 40
0.0
 40
0.0
 40
0.0
 40
0.0
 40
0.1772785563146365
 40
0.9999999999999999
 40
0.9999999999999999
 40
0.9999999999999999
 40
0.9999999999999999
 10
56.66330961365016
 20
-45.71049375499457
 30
0.0
 10
56.69398980584612
 20
-45.67525507183407
 30
0.0
 10
56.86705186610742
 20
-45.47647929267003
 30
0.0
 10
56.92044337415384
 20
-45.2108552418938
 30
0.0
 10
56.96436971273432
 20
-44.99232063936164
 30
0.0
  0
SPLINE
  5
11D
330
1F
100
AcDbEntity
  8
0
  6
Continuous
 62
     7
370
    15
100
AcDbSpline
210
0.0
220
0.0
230
1.0
 70
     8
 71
     3
 72
     9
 73
     5
 74
     0
 42
0.000000001
 43
0.00000001
 40
0.0
 40
0.0
 40
0.0
 40
0.0
 40
0.1170076535304658
 40
1.0
 40
1.0
 40
1.0
 40
1.0
 10
-62.74949985007906
 20
-45.75071743451124
 30
0.0
 10
-62.73874363510057
 20
-45.73995172277368
 30
0.0
 10
-62.64681618716068
 20
-45.64794311126212
 30
0.0
 10
-62.60016319850255
 20
-45.52340222062529
 30
0.0
 10
-62.55896896657747
 20
-45.41343356737045
 30
0.0
  0
LINE
  5
11E
330
1F
100
AcDbEntity
  8
0
  6
Continuous
 62
     7
370
    15
100
AcDbLine
 10
33.9801327876
 20
-6.2106138566
 30
0.0
 11
34.1467771412
 21
-6.0055107728
 31
0.0
  0
LINE
  5
11F
330
1F
100
AcDbEntity
  8
0
  6
Continuous
 62
     7
370
    15
100
AcDbLine
 10
56.5185159848
 20
-45.9063134544
 30
0.0
 11
56.6728652994
 21
-45.7182908667
 31
0.0
  0
LINE
  5
120
330
1F
100
AcDbEntity
  8
0
  6
Continuous
 62
     7
370
    15
100
AcDbLine
 10
-89.6839749109
 20
-50.0853534787
 30
0.0
 11
-89.5546016302
 21
-50.2888138468
 31
0.0
  0
LINE
  5
121
330
1F
100
AcDbEntity
  8
0
  6
Continuous
 62
     7
370
    15
100
AcDbLine
 10
-77.4967105604
 20
-51.0213757247
 30
0.0
 11
-77.3436577655
 21
-50.8350737946
 31
0.0
  0
LINE
  5
122
330
1F
100
AcDbEntity
  8
0
  6
Continuous
 62
     7
370
    15
100
AcDbLine
 10
-62.8997875568
 20
-45.9423369421
 30
0.0
 11
-62.7455518411
 21
-45.7545193778
 31
0.0
  0
LINE
  5
123
330
1F
100
AcDbEntity
  8
0
  6
Continuous
 62
     7
370
    15
100
AcDbLine
 10
91.2579723287
 20
21.6557899509
 30
0.0
 11
91.2579723287
 21
-79.6790915834
 31
0.0
  0
LINE
  5
124
330
1F
100
AcDbEntity
  8
0
  6
Continuous
 62
     7
370
    15
100
AcDbLine
 10
91.2579723287
 20
-79.6790915834
 30
0.0
 11
91.2002623707
 21
-80.6289913924
 31
0.0
  0
LINE
  5
125
330
1F
100
AcDbEntity
  8
0
  6
Continuous
 62
     7
370
    15
100
AcDbLine
 10
91.2002623707
 20
20.7058901418
 30
0.0
 11
91.2002623707
 21
-80.6289913924
 31
0.0
  0
LINE
  5
126
330
1F
100
AcDbEntity
  8
0
  6
Continuous
 62
     7
370
    15
100
AcDbLine
 10
91.2579723287
 20
21.6557899509
 30
0.0
 11
91.2002623707
 21
20.7058901418
 31
0.0
  0
LINE
  5
127
330
1F
100
AcDbEntity
  8
0
  6
Continuous
 62
     7
370
    15
100
AcDbLine
 10
-112.4919941541
 20
21.6994206116
 30
0.0
 11
91.2579723287
 21
21.6557899509
 31
0.0
  0
LINE
  5
128
330
1F
100
AcDbEntity
  8
0
  6
Continuous
 62
     7
370
    15
100
AcDbLine
 10
-112.5497041122
 20
20.7495208026
 30
0.0
 11
91.2002623707
 21
20.7058901418
 31
0.0
  0
LINE
  5
129
330
1F
100
AcDbEntity
  8
0
  6
Continuous
 62
     7
370
    15
100
AcDbLine
 10
-112.4919941541
 20
21.6994206116
 30
0.0
 11
-112.5497041122
 21
20.7495208026
 31
0.0
  0
LINE
  5
12A
330
1F
100
AcDbEntity
  8
0
  6
Continuous
 62
     7
370
    15
100
AcDbLine
 10
91.2002623707
 20
-80.6289913924
 30
0.0
 11
-112.5497041122
 21
-80.5853607317
 31
0.0
  0
LINE
  5
12B
330
1F
100
AcDbEntity
  8
0
  6
Continuous
 62
     7
370
    15
100
AcDbLine
 10
-112.5497041122
 20
-80.5853607317
 30
0.0
 11
-112.5497041122
 21
20.7495208026
 31
0.0
  0
LINE
  5
12C
330
1F
100
AcDbEntity
  8
0
  6
Continuous
 62
     7
370
    15
100
AcDbLine
 10
-111.549710617
 20
-79.5873387707
 30
0.0
 11
-111.549710617
 21
19.7510705678
 31
0.0
  0
LINE
  5
12D
330
1F
100
AcDbEntity
  8
0
  6
Continuous
 62
     7
370
    15
100
AcDbLine
 10
90.2002688755
 20
-79.6305411577
 30
0.0
 11
-111.549710617
 21
-79.5873387707
 31
0.0
  0
LINE
  5
12E
330
1F
100
AcDbEntity
  8
0
  6
Continuous
 62
     7
370
    15
100
AcDbLine
 10
90.2002688755
 20
19.7078681808
 30
0.0
 11
90.2002688755
 21
-79.6305411577
 31
0.0
  0
LINE
  5
12F
330
1F
100
AcDbEntity
  8
0
  6
Continuous
 62
     7
370
    15
100
AcDbLine
 10
-111.549710617
 20
19.7510705678
 30
0.0
 11
90.2002688755
 21
19.7078681808
 31
0.0
  0
LINE
  5
130
330
1F
100
AcDbEntity
  8
0
  6
Continuous
 62
     7
370
    15
100
AcDbLine
 10
-111.4956075313
 20
19.7510589823
 30
0.0
 11
-111.4956075313
 21
-78.6968076997
 31
0.0
  0
LINE
  5
131
330
1F
100
AcDbEntity
  8
0
  6
Continuous
 62
     7
370
    15
100
AcDbLine
 10
-111.4956075313
 20
-78.6968076997
 30
0.0
 11
-111.549710617
 21
-79.5873387707
 31
0.0
  0
LINE
  5
132
330
1F
100
AcDbEntity
  8
0
  6
Continuous
 62
     7
370
    15
100
AcDbLine
 10
-111.4956075313
 20
-78.6968076997
 30
0.0
 11
90.2002688755
 21
-78.7399985012
 31
0.0
  0
LINE
  5
133
330
1F
100
AcDbEntity
  8
0
  6
Continuous
 62
     7
370
    15
100
AcDbLine
 10
-46.7115618977
 20
-6.5030037154
 30
0.0
 11
-17.5013389123
 21
-6.5092587414
 31
0.0
  0
LINE
  5
134
330
1F
100
AcDbEntity
  8
0
  6
Continuous
 62
     7
370
    15
100
AcDbLine
 10
-43.2581776433
 20
-0.4622385652
 30
0.0
 11
-43.2401451153
 21
0.0089009889
 31
0.0
  0
LINE
  5
135
330
1F
100
AcDbEntity
  8
0
  6
Continuous
 62
     7
370
    15
100
AcDbLine
 10
34.4803682629
 20
-4.2385074811
 30
0.0
 11
34.6681712941
 21
-3.9824292483
 31
0.0
  0
LINE
  5
136
330
1F
100
AcDbEntity
  8
0
  6
Continuous
 62
     7
370
    15
100
AcDbLine
 10
-43.8642947122
 20
-0.4567383612
 30
0.0
 11
-43.8231409632
 21
0.01286154
 31
0.0
  0
LINE
  5
137
330
1F
100
AcDbEntity
  8
0
  6
Continuous
 62
     7
370
    15
100
AcDbLine
 10
-44.6003737867
 20
-0.9419260384
 30
0.0
 11
-44.7470263718
 21
-0.5871462891
 31
0.0
  0
LINE
  5
138
330
1F
100
AcDbEntity
  8
0
  6
Continuous
 62
     7
370
    15
100
AcDbLine
 10
-45.7017953921
 20
-3.8186408599
 30
0.0
 11
-45.8469386576
 21
-3.4597491922
 31
0.0
  0
LINE
  5
139
330
1F
100
AcDbEntity
  8
0
  6
Continuous
 62
     7
370
    15
100
AcDbLine
 10
3.1668852594
 20
-7.6466670938
 30
0.0
 11
3.3501234505
 21
-7.4062731928
 31
0.0
  0
LINE
  5
13A
330
1F
100
AcDbEntity
  8
0
  6
Continuous
 62
     7
370
    15
100
AcDbLine
 10
63.9101759312
 20
-10.9785949757
 30
0.0
 11
63.9284047441
 21
-10.5074555718
 31
0.0
  0
LINE
  5
13B
330
1F
100
AcDbEntity
  8
0
  6
Continuous
 62
     7
370
    15
100
AcDbLine
 10
46.321386943
 20
-10.9837489431
 30
0.0
 11
46.3385909405
 21
-10.5126111826
 31
0.0
  0
LINE
  5
13C
330
1F
100
AcDbEntity
  8
0
  6
Continuous
 62
     7
370
    15
100
AcDbLine
 10
63.7285453422
 20
-14.447108369
 30
0.0
 11
63.9169047081
 21
-14.1886458826
 31
0.0
  0
LINE
  5
13D
330
1F
100
AcDbEntity
  8
0
  6
Continuous
 62
     7
370
    15
100
AcDbLine
 10
-4.0489589566
 20
-28.4535486652
 30
0.0
 11
-3.8659659081
 21
-28.2138650627
 31
0.0
  0
LINE
  5
13E
330
1F
100
AcDbEntity
  8
0
  6
Continuous
 62
     7
370
    15
100
AcDbLine
 10
-29.7925764965
 20
-37.4129785191
 30
0.0
 11
-29.8298972457
 21
-36.7829425503
 31
0.0
  0
LINE
  5
13F
330
1F
100
AcDbEntity
  8
0
  6
Continuous
 62
     7
370
    15
100
AcDbLine
 10
45.2742524198
 20
-11.43502213
 30
0.0
 11
45.1779116506
 21
-11.0064599209
 31
0.0
  0
LINE
  5
140
330
1F
100
AcDbEntity
  8
0
  6
Continuous
 62
     7
370
    15
100
AcDbLine
 10
33.6018167878
 20
-21.6119996518
 30
0.0
 11
33.5049070403
 21
-21.1839318918
 31
0.0
  0
LINE
  5
141
330
1F
100
AcDbEntity
  8
0
  6
Continuous
 62
     7
370
    15
100
AcDbLine
 10
32.5127010886
 20
-10.9533757033
 30
0.0
 11
32.53074205
 21
-10.4822361511
 31
0.0
  0
LINE
  5
142
330
1F
100
AcDbEntity
  8
0
  6
Continuous
 62
     7
370
    15
100
AcDbLine
 10
16.2551950235
 20
-10.9245814043
 30
0.0
 11
16.274881529
 21
-10.4534500074
 31
0.0
  0
LINE
  5
143
330
1F
100
AcDbEntity
  8
0
  6
Continuous
 62
     7
370
    15
100
AcDbLine
 10
14.1365319679
 20
-11.8227195356
 30
0.0
 11
14.0312957586
 21
-11.4024121071
 31
0.0
  0
LINE
  5
144
330
1F
100
AcDbEntity
  8
0
  6
Continuous
 62
     7
370
    15
100
AcDbLine
 10
56.7759371312
 20
-45.2511086388
 30
0.0
 11
56.9643697127
 21
-44.9923206394
 31
0.0
  0
LINE
  5
145
330
1F
100
AcDbEntity
  8
0
  6
Continuous
 62
     7
370
    15
100
AcDbLine
 10
-3.2581043476
 20
-29.0436500743
 30
0.0
 11
-3.3629258409
 21
-28.6229314129
 31
0.0
  0
LINE
  5
146
330
1F
100
AcDbEntity
  8
0
  6
Continuous
 62
     7
370
    15
100
AcDbLine
 10
-35.9950738479
 20
-10.929721346
 30
0.0
 11
-35.9761474212
 21
-10.4585842582
 31
0.0
  0
LINE
  5
147
330
1F
100
AcDbEntity
  8
0
  6
Continuous
 62
     7
370
    15
100
AcDbLine
 10
-37.5453438992
 20
-11.4776658719
 30
0.0
 11
-37.6370680969
 21
-11.0452464292
 31
0.0
  0
LINE
  5
148
330
1F
100
AcDbEntity
  8
0
  6
Continuous
 62
     7
370
    15
100
AcDbLine
 10
-48.9115388913
 20
-10.9437748884
 30
0.0
 11
-48.8935500564
 21
-10.4726353309
 31
0.0
  0
LINE
  5
149
330
1F
100
AcDbEntity
  8
0
  6
Continuous
 62
     7
370
    15
100
AcDbLine
 10
-69.6495099281
 20
-13.2742453015
 30
0.0
 11
-69.7925538998
 21
-12.9101069177
 31
0.0
  0
LINE
  5
14A
330
1F
100
AcDbEntity
  8
0
  6
Continuous
 62
     7
370
    15
100
AcDbLine
 10
-52.4168046789
 20
-23.4100752281
 30
0.0
 11
-52.5080469682
 21
-22.9772684582
 31
0.0
  0
LINE
  5
14B
330
1F
100
AcDbEntity
  8
0
  6
Continuous
 62
     7
370
    15
100
AcDbLine
 10
-53.0817079857
 20
-23.8649262432
 30
0.0
 11
-53.0534311037
 21
-23.3502993643
 31
0.0
  0
LINE
  5
14C
330
1F
100
AcDbEntity
  8
0
  6
Continuous
 62
     7
370
    15
100
AcDbLine
 10
-38.9654477455
 20
-25.6272882349
 30
0.0
 11
-38.8096341496
 21
-25.2234105428
 31
0.0
  0
LINE
  5
14D
330
1F
100
AcDbEntity
  8
0
  6
Continuous
 62
     7
370
    15
100
AcDbLine
 10
-30.7349624825
 20
-36.3071355793
 30
0.0
 11
-30.5784783454
 21
-35.9041235056
 31
0.0
  0
LINE
  5
14E
330
1F
100
AcDbEntity
  8
0
  6
Continuous
 62
     7
370
    15
100
AcDbLine
 10
-4.0593865803
 20
-29.7167977664
 30
0.0
 11
-3.9321165573
 21
-29.1015182576
 31
0.0
  0
LINE
  5
14F
330
1F
100
AcDbEntity
  8
0
  6
Continuous
 62
     7
370
    15
100
AcDbLine
 10
-59.4300004385
 20
-37.4776721763
 30
0.0
 11
-59.2502254436
 21
-37.2465204325
 31
0.0
  0
LINE
  5
150
330
1F
100
AcDbEntity
  8
0
  6
Continuous
 62
     7
370
    15
100
AcDbLine
 10
-62.7390981657
 20
-45.6454615197
 30
0.0
 11
-62.5589689666
 21
-45.4134335674
 31
0.0
  0
ARC
  5
151
330
1F
100
AcDbEntity
  8
0
  6
Continuous
 62
     7
370
    15
100
AcDbCircle
 10
-83.2538669791
 20
-46.309834596
 30
0.0
 40
7.447313661828492
100
AcDbArc
 50
69.1355708871
 51
1.4042092692
  0
ARC
  5
152
330
1F
100
AcDbEntity
  8
0
  6
Continuous
 62
     7
370
    15
100
AcDbCircle
 10
-83.2503437962
 20
-46.0046059476
 30
0.0
 40
7.618668501341856
100
AcDbArc
 50
70.2812978927
 51
212.3862914104
  0
ARC
  5
153
330
1F
100
AcDbEntity
  8
0
  6
Continuous
 62
     7
370
    15
100
AcDbCircle
 10
-83.2202258176
 20
-46.0060144531
 30
0.0
 40
7.606172900633101
100
AcDbArc
 50
320.588405318
 51
359.0796703919
  0
MTEXT
  5
155
330
1F
100
AcDbEntity
  8
0
  6
Continuous
 62
     7
100
AcDbMText
 10
-112.5497041122
 20
-81.6485577841
 30
0.0
 40
4.83362
 41
0.0
 71
     1
 72
     1
  1
SOLIDWORKS Educational Product.
  7
SLDTEXTSTYLE0
 73
     1
 44
1.0
  0
MTEXT
  5
156
330
1F
100
AcDbEntity
  8
0
  6
Continuous
 62
     7
100
AcDbMText
 10
-112.5497041122
 20
-88.8989877841
 30
0.0
 40
4.83362
 41
0.0
 71
     1
 72
     1
  1
For Instructional Use Only.
  7
SLDTEXTSTYLE0
 73
     1
 44
1.0
  0
ENDSEC
  0
SECTION
  2
OBJECTS
  0
DICTIONARY
  5
C
330
0
100
AcDbDictionary
281
     1
  3
ACAD_GROUP
350
D
  3
ACAD_LAYOUT
350
1A
  3
ACAD_MLINESTYLE
350
17
  3
ACAD_PLOTSETTINGS
350
19
  3
ACAD_PLOTSTYLENAME
350
E
  3
ACAD_SCALELIST
350
47
  0
DICTIONARY
  5
D
102
{ACAD_REACTORS
330
C
102
}
330
C
100
AcDbDictionary
281
     1
  0
DICTIONARY
  5
1A
102
{ACAD_REACTORS
330
C
102
}
330
C
100
AcDbDictionary
281
     1
  3
Layout1
350
1E
  3
Layout2
350
26
  3
Model
350
22
  0
DICTIONARY
  5
17
102
{ACAD_REACTORS
330
C
102
}
330
C
100
AcDbDictionary
281
     1
  3
Standard
350
18
  0
DICTIONARY
  5
19
102
{ACAD_REACTORS
330
C
102
}
330
C
100
AcDbDictionary
281
     1
  0
ACDBDICTIONARYWDFLT
  5
E
102
{ACAD_REACTORS
330
C
102
}
330
C
100
AcDbDictionary
281
     1
  3
Normal
350
F
100
AcDbDictionaryWithDefault
340
F
  0
DICTIONARY
  5
47
102
{ACAD_REACTORS
330
C
102
}
330
C
100
AcDbDictionary
281
     1
  3
A0
350
48
  3
A1
350
49
  3
A2
350
4A
  3
A3
350
4B
  3
A4
350
4C
  3
A5
350
4D
  3
A6
350
4E
  3
A7
350
4F
  3
A8
350
50
  3
A9
350
51
  3
B0
350
52
  3
B1
350
53
  3
B2
350
54
  3
B3
350
55
  3
B4
350
56
  3
B5
350
57
  3
B6
350
58
  3
B7
350
59
  3
B8
350
5A
  3
B9
350
5B
  3
C0
350
5C
  3
C1
350
5D
  3
C2
350
5E
  3
C3
350
5F
  3
C4
350
60
  3
C5
350
61
  3
C6
350
62
  3
C7
350
63
  3
C8
350
64
  3
C9
350
65
  3
D0
350
66
  3
D1
350
67
  3
D2
350
68
  0
LAYOUT
  5
1E
102
{ACAD_REACTORS
330
1A
102
}
330
1A
100
AcDbPlotSettings
  1

  2
none_device
  4

  6

 40
0.0
 41
0.0
 42
0.0
 43
0.0
 44
0.0
 45
0.0
 46
0.0
 47
0.0
 48
0.0
 49
0.0
140
0.0
141
0.0
142
1.0
143
1.0
 70
   688
 72
     1
 73
     0
 74
     5
  7

 75
    16
147
1.0
148
0.0
149
0.0
100
AcDbLayout
  1
Layout1
 70
     1
 71
     1
 10
0.0
 20
0.0
 11
420.0
 21
297.0
 12
0.0
 22
0.0
 32
0.0
 14
1.0000000000E+20
 24
1.0000000000E+20
 34
1.0000000000E+20
 15
-1.0000000000E+20
 25
-1.0000000000E+20
 35
-1.0000000000E+20
146
0.0
 13
0.0
 23
0.0
 33
0.0
 16
1.0
 26
0.0
 36
0.0
 17
0.0
 27
1.0
 37
0.0
 76
     0
330
1B
  0
LAYOUT
  5
26
102
{ACAD_REACTORS
330
1A
102
}
330
1A
100
AcDbPlotSettings
  1

  2
none_device
  4

  6

 40
0.0
 41
0.0
 42
0.0
 43
0.0
 44
0.0
 45
0.0
 46
0.0
 47
0.0
 48
0.0
 49
0.0
140
0.0
141
0.0
142
1.0
143
1.0
 70
   688
 72
     1
 73
     0
 74
     5
  7

 75
    16
147
1.0
148
0.0
149
0.0
100
AcDbLayout
  1
Layout2
 70
     1
 71
     2
 10
0.0
 20
0.0
 11
0.0
 21
0.0
 12
0.0
 22
0.0
 32
0.0
 14
0.0
 24
0.0
 34
0.0
 15
0.0
 25
0.0
 35
0.0
146
0.0
 13
0.0
 23
0.0
 33
0.0
 16
1.0
 26
0.0
 36
0.0
 17
0.0
 27
1.0
 37
0.0
 76
     0
330
23
  0
LAYOUT
  5
22
102
{ACAD_REACTORS
330
1A
102
}
330
1A
100
AcDbPlotSettings
  1

  2
none_device
  4
ANSI_A_(11.00_x_8.50_Inches)
  6

 40
6.35
 41
19.05
 42
6.35000508
 43
19.05000254
 44
279.4
 45
215.9
 46
147.7984737503
 47
128.8893483464
 48
0.0
 49
0.0
140
0.0
141
0.0
142
0.0534327273
143
1.0
 70
  1696
 72
     0
 73
     0
 74
     0
  7

 75
     0
147
0.0179189148
148
-1300.4909072572
149
0.0
100
AcDbLayout
  1
Model
 70
     1
 71
     0
 10
0.0
 20
0.0
 11
420.0
 21
297.0
 12
0.0
 22
0.0
 32
0.0
 14
-112.5497041122
 24
-80.6289913924
 34
0.0
 15
91.2579723287
 25
21.6994206116
 35
0.0
146
0.0
 13
0.0
 23
0.0
 33
0.0
 16
1.0
 26
0.0
 36
0.0
 17
0.0
 27
1.0
 37
0.0
 76
     0
330
1F
331
29
  0
MLINESTYLE
  5
18
102
{ACAD_REACTORS
330
17
102
}
330
17
100
AcDbMlineStyle
  2
Standard
 70
     0
  3

 62
   256
 51
90.0
 52
90.0
 71
     2
 49
0.5
 62
   256
  6
BYLAYER
 49
-0.5
 62
   256
  6
BYLAYER
  0
ACDBPLACEHOLDER
  5
F
102
{ACAD_REACTORS
330
E
102
}
330
E
  0
SCALE
  5
48
102
{ACAD_REACTORS
330
47
102
}
330
47
100
AcDbScale
 70
     0
300
1:1
140
1.0
141
1.0
290
     1
  0
SCALE
  5
49
102
{ACAD_REACTORS
330
47
102
}
330
47
100
AcDbScale
 70
     0
300
1:2
140
1.0
141
2.0
290
     0
  0
SCALE
  5
4A
102
{ACAD_REACTORS
330
47
102
}
330
47
100
AcDbScale
 70
     0
300
1:4
140
1.0
141
4.0
290
     0
  0
SCALE
  5
4B
102
{ACAD_REACTORS
330
47
102
}
330
47
100
AcDbScale
 70
     0
300
1:5
140
1.0
141
5.0
290
     0
  0
SCALE
  5
4C
102
{ACAD_REACTORS
330
47
102
}
330
47
100
AcDbScale
 70
     0
300
1:8
140
1.0
141
8.0
290
     0
  0
SCALE
  5
4D
102
{ACAD_REACTORS
330
47
102
}
330
47
100
AcDbScale
 70
     0
300
1:10
140
1.0
141
10.0
290
     0
  0
SCALE
  5
4E
102
{ACAD_REACTORS
330
47
102
}
330
47
100
AcDbScale
 70
     0
300
1:16
140
1.0
141
16.0
290
     0
  0
SCALE
  5
4F
102
{ACAD_REACTORS
330
47
102
}
330
47
100
AcDbScale
 70
     0
300
1:20
140
1.0
141
20.0
290
     0
  0
SCALE
  5
50
102
{ACAD_REACTORS
330
47
102
}
330
47
100
AcDbScale
 70
     0
300
1:30
140
1.0
141
30.0
290
     0
  0
SCALE
  5
51
102
{ACAD_REACTORS
330
47
102
}
330
47
100
AcDbScale
 70
     0
300
1:40
140
1.0
141
40.0
290
     0
  0
SCALE
  5
52
102
{ACAD_REACTORS
330
47
102
}
330
47
100
AcDbScale
 70
     0
300
1:50
140
1.0
141
50.0
290
     0
  0
SCALE
  5
53
102
{ACAD_REACTORS
330
47
102
}
330
47
100
AcDbScale
 70
     0
300
1:100
140
1.0
141
100.0
290
     0
  0
SCALE
  5
54
102
{ACAD_REACTORS
330
47
102
}
330
47
100
AcDbScale
 70
     0
300
2:1
140
2.0
141
1.0
290
     0
  0
SCALE
  5
55
102
{ACAD_REACTORS
330
47
102
}
330
47
100
AcDbScale
 70
     0
300
4:1
140
4.0
141
1.0
290
     0
  0
SCALE
  5
56
102
{ACAD_REACTORS
330
47
102
}
330
47
100
AcDbScale
 70
     0
300
8:1
140
8.0
141
1.0
290
     0
  0
SCALE
  5
57
102
{ACAD_REACTORS
330
47
102
}
330
47
100
AcDbScale
 70
     0
300
10:1
140
10.0
141
1.0
290
     0
  0
SCALE
  5
58
102
{ACAD_REACTORS
330
47
102
}
330
47
100
AcDbScale
 70
     0
300
100:1
140
100.0
141
1.0
290
     0
  0
SCALE
  5
59
102
{ACAD_REACTORS
330
47
102
}
330
47
100
AcDbScale
 70
     0
300
1/128" = 1'-0"
140
0.0078125
141
12.0
290
     0
  0
SCALE
  5
5A
102
{ACAD_REACTORS
330
47
102
}
330
47
100
AcDbScale
 70
     0
300
1/64" = 1'-0"
140
0.015625
141
12.0
290
     0
  0
SCALE
  5
5B
102
{ACAD_REACTORS
330
47
102
}
330
47
100
AcDbScale
 70
     0
300
1/32" = 1'-0"
140
0.03125
141
12.0
290
     0
  0
SCALE
  5
5C
102
{ACAD_REACTORS
330
47
102
}
330
47
100
AcDbScale
 70
     0
300
1/16" = 1'-0"
140
0.0625
141
12.0
290
     0
  0
SCALE
  5
5D
102
{ACAD_REACTORS
330
47
102
}
330
47
100
AcDbScale
 70
     0
300
3/32" = 1'-0"
140
0.09375
141
12.0
290
     0
  0
SCALE
  5
5E
102
{ACAD_REACTORS
330
47
102
}
330
47
100
AcDbScale
 70
     0
300
1/8" = 1'-0"
140
0.125
141
12.0
290
     0
  0
SCALE
  5
5F
102
{ACAD_REACTORS
330
47
102
}
330
47
100
AcDbScale
 70
     0
300
3/16" = 1'-0"
140
0.1875
141
12.0
290
     0
  0
SCALE
  5
60
102
{ACAD_REACTORS
330
47
102
}
330
47
100
AcDbScale
 70
     0
300
1/4" = 1'-0"
140
0.25
141
12.0
290
     0
  0
SCALE
  5
61
102
{ACAD_REACTORS
330
47
102
}
330
47
100
AcDbScale
 70
     0
300
3/8" = 1'-0"
140
0.375
141
12.0
290
     0
  0
SCALE
  5
62
102
{ACAD_REACTORS
330
47
102
}
330
47
100
AcDbScale
 70
     0
300
1/2" = 1'-0"
140
0.5
141
12.0
290
     0
  0
SCALE
  5
63
102
{ACAD_REACTORS
330
47
102
}
330
47
100
AcDbScale
 70
     0
300
3/4" = 1'-0"
140
0.75
141
12.0
290
     0
  0
SCALE
  5
64
102
{ACAD_REACTORS
330
47
102
}
330
47
100
AcDbScale
 70
     0
300
1" = 1'-0"
140
1.0
141
12.0
290
     0
  0
SCALE
  5
65
102
{ACAD_REACTORS
330
47
102
}
330
47
100
AcDbScale
 70
     0
300
1-1/2" = 1'-0"
140
1.5
141
12.0
290
     0
  0
SCALE
  5
66
102
{ACAD_REACTORS
330
47
102
}
330
47
100
AcDbScale
 70
     0
300
3" = 1'-0"
140
3.0
141
12.0
290
     0
  0
SCALE
  5
67
102
{ACAD_REACTORS
330
47
102
}
330
47
100
AcDbScale
 70
     0
300
6" = 1'-0"
140
6.0
141
12.0
290
     0
  0
SCALE
  5
68
102
{ACAD_REACTORS
330
47
102
}
330
47
100
AcDbScale
 70
     0
300
1'-0" = 1'-0"
140
12.0
141
12.0
290
     0
  0
ENDSEC
  0
EOF
