0
SECTION
2
HEADER
9
$INSUNITS
70
4
9
$ACADVER
1
AC1014
9
$HANDSEED
5
FFFF
0
ENDSEC
0
SECTION
2
TABLES
0
TABLE
2
VPORT
5
8
100
AcDbSymbolTable
0
ENDTAB
0
TABLE
2
LTYPE
5
5
100
AcDbSymbolTable
0
LTYPE
5
14
100
AcDbSymbolTableRecord
100
AcDbLinetypeTableRecord
2
BYBLOCK
70
0
0
LTYPE
5
15
100
AcDbSymbolTableRecord
100
AcDbLinetypeTableRecord
2
BYLAYER
70
0
0
ENDTAB
0
TABLE
2
LAYER
5
2
100
AcDbSymbolTable
70
2
0
LAYER
5
50
100
AcDbSymbolTableRecord
100
AcDbLayerTableRecord
2
0
70
0
6
CONTINUOUS
0
ENDTAB
0
TABLE
2
STYLE
5
3
100
AcDbSymbolTable
70
1
0
STYLE
5
11
100
AcDbSymbolTableRecord
100
AcDbTextStyleTableRecord
2
STANDARD
70
0
0
ENDTAB
0
TABLE
2
VIEW
5
6
100
AcDbSymbolTable
70
0
0
ENDTAB
0
TABLE
2
UCS
5
7
100
AcDbSymbolTable
70
0
0
ENDTAB
0
TABLE
2
APPID
5
9
100
AcDbSymbolTable
70
2
0
APPID
5
12
100
AcDbSymbolTableRecord
100
AcDbRegAppTableRecord
2
ACAD
70
0
0
ENDTAB
0
TABLE
2
DIMSTYLE
5
A
100
AcDbSymbolTable
70
1
0
ENDTAB
0
TABLE
2
BLOCK_RECORD
5
1
100
AcDbSymbolTable
70
1
0
BLOCK_RECORD
5
1F
100
AcDbSymbolTableRecord
100
AcDbBlockTableRecord
2
*MODEL_SPACE
0
BLOCK_RECORD
5
1B
100
AcDbSymbolTableRecord
100
AcDbBlockTableRecord
2
*PAPER_SPACE
0
ENDTAB
0
ENDSEC
0
SECTION
2
BLOCKS
0
BLOCK
5
20
100
AcDbEntity
100
AcDbBlockBegin
2
*MODEL_SPACE
0
ENDBLK
5
21
100
AcDbEntity
100
AcDbBlockEnd
0
BLOCK
5
1C
100
AcDbEntity
100
AcDbBlockBegin
2
*PAPER_SPACE
0
ENDBLK
5
1D
100
AcDbEntity
100
AcDbBlockEnd
0
ENDSEC
0
SECTION
2
ENTITIES
0
ARC
5
100
100
AcDbEntity
8
0
100
AcDbCircle
10
-13.340249830994253
20
-1787.2452368878958
30
0
40
1510.6249999999998
100
AcDbArc
50
81.543828930813376
51
98.456171069186638
0
ARC
5
101
100
AcDbEntity
8
0
100
AcDbCircle
10
-13.340249830994253
20
-1747.2452368878958
30
0
40
1510.6249999999998
100
AcDbArc
50
81.519401149012339
51
98.480598850987704
0
ARC
5
102
100
AcDbEntity
8
0
100
AcDbCircle
10
-13.340249830994253
20
-1627.2452368878958
30
0
40
1510.625
100
AcDbArc
50
81.446109908781139
51
98.553890091218875
0
ARC
5
103
100
AcDbEntity
8
0
100
AcDbCircle
10
-13.340249830994253
20
-1467.2452368878958
30
0
40
1510.625
100
AcDbArc
50
81.348369667578851
51
98.651630332421149
0
ARC
5
104
100
AcDbEntity
8
0
100
AcDbCircle
10
-13.340249830994253
20
-1867.2452368878958
30
0
40
1510.625
100
AcDbArc
50
81.592680573633942
51
98.407319426366101
0
CIRCLE
5
105
100
AcDbEntity
8
0
100
AcDbCircle
10
-13.340249830994271
20
-16.620236887895842
30
0
40
1
0
CIRCLE
5
106
100
AcDbEntity
8
0
100
AcDbCircle
10
207.94125138312336
20
-152.92137287772886
30
0
40
5.25
0
CIRCLE
5
107
100
AcDbEntity
8
0
100
AcDbCircle
10
209.82399071568139
20
-33.198461474050625
30
0
40
5.25
0
ARC
5
108
100
AcDbEntity
8
0
100
AcDbCircle
10
-13.340249830994253
20
-1547.2452368878958
30
0
40
1510.625
100
AcDbArc
50
81.397242458429204
51
98.60275754157081
0
ARC
5
109
100
AcDbEntity
8
0
100
AcDbCircle
10
209.19648213444987
20
-73.101571254921694
30
0
40
19.784630540242365
100
AcDbArc
50
-98.361017085227061
51
89.099051924435514
0
ARC
5
110
100
AcDbEntity
8
0
100
AcDbCircle
10
-13.340249830994253
20
-1907.2452368878958
30
0
40
1510.6249999999995
100
AcDbArc
50
81.617104443411492
51
98.382895556588551
0
ARC
5
111
100
AcDbEntity
8
0
100
AcDbCircle
10
-13.340249830994253
20
-1427.2452368878958
30
0
40
1510.6249999999998
100
AcDbArc
50
81.323931258456412
51
98.676068741543602
0
LWPOLYLINE
5
112
100
AcDbEntity
8
0
100
AcDbPolyline
90
4
70
1
43
0.0
10
231.51177033113754
20
85.670007610752378
10
-258.4882296688624
20
85.670007610752378
10
-258.4882296688624
20
-214.32999238924762
10
231.51177033113754
20
-214.32999238924762
0
ARC
5
113
100
AcDbEntity
8
0
100
AcDbCircle
10
-13.340249830994253
20
-1507.2452368878958
30
0
40
1510.625
100
AcDbArc
50
81.372806732781157
51
98.627193267218857
0
CIRCLE
5
114
100
AcDbEntity
8
0
100
AcDbCircle
10
208.5688311606427
20
-113.01373574316946
30
0
40
5.25
0
CIRCLE
5
115
100
AcDbEntity
8
0
100
AcDbCircle
10
-13.340249830994271
20
-176.62023688789586
30
0
40
1
0
CIRCLE
5
116
100
AcDbEntity
8
0
100
AcDbCircle
10
-13.340249830994271
20
-136.62023688789586
30
0
40
1
0
CIRCLE
5
117
100
AcDbEntity
8
0
100
AcDbCircle
10
-13.340249830994271
20
-96.620236887895857
30
0
40
1
0
ARC
5
118
100
AcDbEntity
8
0
100
AcDbCircle
10
-13.340249830994253
20
-1587.2452368878958
30
0
40
1510.625
100
AcDbArc
50
81.421676848935761
51
98.578323151064268
0
CIRCLE
5
119
100
AcDbEntity
8
0
100
AcDbCircle
10
209.19641093816205
20
-73.10609860861004
30
0
40
5.25
0
CIRCLE
5
120
100
AcDbEntity
8
0
100
AcDbCircle
10
-13.340249830994271
20
-56.620236887895842
30
0
40
1
0
ARC
5
121
100
AcDbEntity
8
0
100
AcDbCircle
10
209.82404240796319
20
-33.195174375101089
30
0
40
19.783407297056375
100
AcDbArc
50
-98.384771681826408
51
89.099051924435472
0
ARC
5
122
100
AcDbEntity
8
0
100
AcDbCircle
10
208.56891763379269
20
-113.00823693772548
30
0
40
19.785850269628678
100
AcDbArc
50
-98.337263833303723
51
89.099051924435301
0
ARC
5
123
100
AcDbEntity
8
0
100
AcDbCircle
10
207.94134890669875
20
-152.91517137857494
30
0
40
19.787066485812314
100
AcDbArc
50
-98.313511921589296
51
89.099051924435571
0
ARC
5
124
100
AcDbEntity
8
0
100
AcDbCircle
10
207.31377595387187
20
-192.82237453268829
30
0
40
19.788279189385925
100
AcDbArc
50
-98.289761345618402
51
89.099051924435585
0
CIRCLE
5
125
100
AcDbEntity
8
0
100
AcDbCircle
10
207.31367160560399
20
-192.82901001228828
30
0
40
5.25
0
ARC
5
126
100
AcDbEntity
8
0
100
AcDbCircle
10
-13.340249830994253
20
-1827.2452368878958
30
0
40
1510.625
100
AcDbArc
50
81.568255404211769
51
98.431744595788246
0
CIRCLE
5
127
100
AcDbEntity
8
0
100
AcDbCircle
10
-13.340249830994271
20
-336.62023688789583
30
0
40
1
0
CIRCLE
5
128
100
AcDbEntity
8
0
100
AcDbCircle
10
206.68609182808464
20
-232.7366471468477
30
0
40
5.25
0
CIRCLE
5
129
100
AcDbEntity
8
0
100
AcDbCircle
10
-13.340249830994271
20
-256.62023688789583
30
0
40
1
0
CIRCLE
5
130
100
AcDbEntity
8
0
100
AcDbCircle
10
206.05851205056527
20
-272.64428428140707
30
0
40
5.25
0
ARC
5
131
100
AcDbEntity
8
0
100
AcDbCircle
10
-13.340249830994253
20
-1707.2452368878958
30
0
40
1510.6249999999998
100
AcDbArc
50
81.494972054450571
51
98.505027945549458
0
CIRCLE
5
132
100
AcDbEntity
8
0
100
AcDbCircle
10
-13.340249830994271
20
-216.62023688789586
30
0
40
1
0
CIRCLE
5
133
100
AcDbEntity
8
0
100
AcDbCircle
10
203.54819294048787
20
-432.27483281964464
30
0
40
5.25
0
CIRCLE
5
134
100
AcDbEntity
8
0
100
AcDbCircle
10
204.80335249552655
20
-352.45955855052586
30
0
40
5.25
0
ARC
5
135
100
AcDbEntity
8
0
100
AcDbCircle
10
206.05861737382466
20
-272.63758680234844
30
0
40
19.790694061068628
100
AcDbArc
50
-98.242264183057046
51
89.099051924435585
0
ARC
5
136
100
AcDbEntity
8
0
100
AcDbCircle
10
205.43103174800058
20
-312.54559582910298
30
0
40
19.791896230354801
100
AcDbArc
50
-98.218517587547296
51
89.0990519244355
0
CIRCLE
5
137
100
AcDbEntity
8
0
100
AcDbCircle
10
205.43093227304593
20
-312.55192141596643
30
0
40
5.25
0
CIRCLE
5
138
100
AcDbEntity
8
0
100
AcDbCircle
10
204.17577271800724
20
-392.36719568508533
30
0
40
5.25
0
ARC
5
139
100
AcDbEntity
8
0
100
AcDbCircle
10
203.54824953565387
20
-432.27123394754921
30
0
40
19.795481679010567
100
AcDbArc
50
-98.14728569062919
51
89.099051924435585
0
ARC
5
140
100
AcDbEntity
8
0
100
AcDbCircle
10
204.17584782822433
20
-392.36241944563716
30
0
40
19.794290038743199
100
AcDbArc
50
-98.171028345786695
51
89.099051924435628
0
CIRCLE
5
141
100
AcDbEntity
8
0
100
AcDbCircle
10
-13.340249830994271
20
-296.62023688789583
30
0
40
1
0
ARC
5
142
100
AcDbEntity
8
0
100
AcDbCircle
10
206.68619877601404
20
-232.72984635543693
30
0
40
19.789488380941798
100
AcDbArc
50
-98.266012100927966
51
89.0990519244355
0
ARC
5
143
100
AcDbEntity
8
0
100
AcDbCircle
10
204.80344189923645
20
-352.45387339153626
30
0
40
19.793094889384868
100
AcDbArc
50
-98.194772309941939
51
89.099051924435585
0
ARC
5
144
100
AcDbEntity
8
0
100
AcDbCircle
10
-13.340249830994253
20
-1667.2452368878958
30
0
40
1510.6249999999998
100
AcDbArc
50
81.470541642453881
51
98.529458357546147
0
CIRCLE
5
145
100
AcDbEntity
8
0
100
AcDbCircle
10
-13.340249830994271
20
-416.62023688789583
30
0
40
1
0
CIRCLE
5
146
100
AcDbEntity
8
0
100
AcDbCircle
10
-13.340249830994271
20
-376.62023688789583
30
0
40
1
0
ARC
5
147
100
AcDbEntity
8
0
100
AcDbCircle
10
-235.24941729578157
20
-113.00823693772509
30
0
40
19.785850269628693
100
AcDbArc
50
90.900948075564472
51
278.33726383330378
0
ARC
5
148
100
AcDbEntity
8
0
100
AcDbCircle
10
211.07915027072011
20
46.616812795068185
30
0
40
19.780950266895378
100
AcDbArc
50
-98.432284926934358
51
89.099051924435656
0
CIRCLE
5
149
100
AcDbEntity
8
0
100
AcDbCircle
10
210.45157049320073
20
6.7091756605087749
30
0
40
5.25
0
CIRCLE
5
150
100
AcDbEntity
8
0
100
AcDbCircle
10
-230.8562723799966
20
-392.36719568508499
30
0
40
5.25
0
ARC
5
151
100
AcDbEntity
8
0
100
AcDbCircle
10
-233.99427561586089
20
-192.82237453268783
30
0
40
19.788279189385946
100
AcDbArc
50
90.900948075564088
51
278.28976134561833
0
ARC
5
152
100
AcDbEntity
8
0
100
AcDbCircle
10
-232.11153140998982
20
-312.54559582910258
30
0
40
19.791896230354801
100
AcDbArc
50
90.900948075564202
51
278.21851758754735
0
ARC
5
153
100
AcDbEntity
8
0
100
AcDbCircle
10
-232.73911703581379
20
-272.6375868023481
30
0
40
19.790694061068635
100
AcDbArc
50
90.900948075564273
51
278.24226418305705
0
ARC
5
154
100
AcDbEntity
8
0
100
AcDbCircle
10
-230.22874919764331
20
-432.27123394754881
30
0
40
19.795481679010564
100
AcDbArc
50
90.900948075564187
51
278.14728569062925
0
CIRCLE
5
155
100
AcDbEntity
8
0
100
AcDbCircle
10
211.07915027072011
20
46.616812795068185
30
0
40
5.25
0
ARC
5
156
100
AcDbEntity
8
0
100
AcDbCircle
10
-230.85634749021369
20
-392.36241944563682
30
0
40
19.794290038743156
100
AcDbArc
50
90.900948075564216
51
278.17102834578668
0
ARC
5
157
100
AcDbEntity
8
0
100
AcDbCircle
10
-235.87698179643866
20
-73.101571254921296
30
0
40
19.78463054024235
100
AcDbArc
50
90.900948075564244
51
278.3610170852271
0
ARC
5
158
100
AcDbEntity
8
0
100
AcDbCircle
10
-234.62184856868765
20
-152.91517137857454
30
0
40
19.7870664858123
100
AcDbArc
50
90.900948075564273
51
278.31351192158922
0
ARC
5
159
100
AcDbEntity
8
0
100
AcDbCircle
10
-231.48394156122575
20
-352.45387339153586
30
0
40
19.793094889384882
100
AcDbArc
50
90.900948075564273
51
278.19477230994204
0
ARC
5
160
100
AcDbEntity
8
0
100
AcDbCircle
10
-233.36669843800311
20
-232.72984635543654
30
0
40
19.789488380941886
100
AcDbArc
50
90.900948075564358
51
278.26601210092798
0
CIRCLE
5
161
100
AcDbEntity
8
0
100
AcDbCircle
10
-13.340249830994271
20
63.379763112104158
30
0
40
1
0
ARC
5
162
100
AcDbEntity
8
0
100
AcDbCircle
10
210.45159845362389
20
6.7109536566443051
30
0
40
19.782180539474197
100
AcDbArc
50
-98.408527627571672
51
89.099051924435742
0
CIRCLE
5
163
100
AcDbEntity
8
0
100
AcDbCircle
10
-13.340249830994271
20
23.379763112104158
30
0
40
1
0
CIRCLE
5
164
100
AcDbEntity
8
0
100
AcDbCircle
10
-230.22869260247731
20
-432.2748328196443
30
0
40
5.25
0
CIRCLE
5
165
100
AcDbEntity
8
0
100
AcDbCircle
10
-235.87691060015084
20
-73.106098608609642
30
0
40
5.25
0
CIRCLE
5
166
100
AcDbEntity
8
0
100
AcDbCircle
10
-235.24933082263158
20
-113.01373574316905
30
0
40
5.25
0
CIRCLE
5
167
100
AcDbEntity
8
0
100
AcDbCircle
10
-234.62175104511229
20
-152.92137287772846
30
0
40
5.25
0
ARC
5
168
100
AcDbEntity
8
0
100
AcDbCircle
10
-237.13209811561254
20
6.7109536566447048
30
0
40
19.782180539474211
100
AcDbArc
50
90.900948075564017
51
278.40852762757169
0
CIRCLE
5
169
100
AcDbEntity
8
0
100
AcDbCircle
10
-233.36659149007372
20
-232.73664714684728
30
0
40
5.25
0
ARC
5
170
100
AcDbEntity
8
0
100
AcDbCircle
10
-236.50454206995192
20
-33.195174375100692
30
0
40
19.783407297056371
100
AcDbArc
50
90.900948075564202
51
278.38477168182641
0
CIRCLE
5
171
100
AcDbEntity
8
0
100
AcDbCircle
10
-237.75964993270867
20
46.616812795068583
30
0
40
5.25
0
CIRCLE
5
172
100
AcDbEntity
8
0
100
AcDbCircle
10
-232.73901171255443
20
-272.64428428140667
30
0
40
5.25
0
ARC
5
173
100
AcDbEntity
8
0
100
AcDbCircle
10
-237.75964993270867
20
46.616812795068583
30
0
40
19.780950266895381
100
AcDbArc
50
90.900948075564202
51
278.43228492693436
0
CIRCLE
5
174
100
AcDbEntity
8
0
100
AcDbCircle
10
-232.11143193503514
20
-312.55192141596609
30
0
40
5.25
0
CIRCLE
5
175
100
AcDbEntity
8
0
100
AcDbCircle
10
-236.50449037767009
20
-33.198461474050234
30
0
40
5.25
0
CIRCLE
5
176
100
AcDbEntity
8
0
100
AcDbCircle
10
-237.13207015518941
20
6.7091756605091746
30
0
40
5.25
0
CIRCLE
5
177
100
AcDbEntity
8
0
100
AcDbCircle
10
-233.994171267593
20
-192.82901001228788
30
0
40
5.25
0
CIRCLE
5
178
100
AcDbEntity
8
0
100
AcDbCircle
10
-231.48385215751586
20
-352.45955855052551
30
0
40
5.25
0
CIRCLE
5
179
100
AcDbEntity
8
0
100
AcDbCircle
10
-228.97353304743874
20
-512.09010708876315
30
0
40
5.25
0
ARC
5
180
100
AcDbEntity
8
0
100
AcDbCircle
10
-228.97353995057421
20
-512.0896681201483
30
0
40
19.797854434587737
100
AcDbArc
50
90.900948075564187
51
278.09980428950928
0
ARC
5
181
100
AcDbEntity
8
0
100
AcDbCircle
10
-13.340249830994253
20
-2027.2452368878958
30
0
40
1510.6249999999998
100
AcDbArc
50
81.900195710490777
51
98.194660185481879
0
ARC
5
182
100
AcDbEntity
8
0
100
AcDbCircle
10
-229.60114668420178
20
-472.18031685356914
30
0
40
19.796669810766346
100
AcDbArc
50
90.900948075564358
51
278.12354434001941
0
ARC
5
183
100
AcDbEntity
8
0
100
AcDbCircle
10
202.29304028858465
20
-512.08966812014864
30
0
40
19.797854434587695
100
AcDbArc
50
-98.099804289509308
51
89.099051924435742
0
ARC
5
184
100
AcDbEntity
8
0
100
AcDbCircle
10
-13.340249830994253
20
-1987.2452368878958
30
0
40
1510.6249999999998
100
AcDbArc
50
81.665948302198743
51
98.3340516978013
0
ARC
5
185
100
AcDbEntity
8
0
100
AcDbCircle
10
202.92064702221228
20
-472.18031685356948
30
0
40
19.796669810766399
100
AcDbArc
50
-98.123544340019279
51
89.099051924435386
0
CIRCLE
5
186
100
AcDbEntity
8
0
100
AcDbCircle
10
202.92061316296852
20
-472.18246995420407
30
0
40
5.25
0
CIRCLE
5
187
100
AcDbEntity
8
0
100
AcDbCircle
10
202.29303338544918
20
-512.09010708876349
30
0
40
5.25
0
CIRCLE
5
188
100
AcDbEntity
8
0
100
AcDbCircle
10
-13.340249830994271
20
-456.62023688789583
30
0
40
1
0
CIRCLE
5
189
100
AcDbEntity
8
0
100
AcDbCircle
10
-13.340249830994271
20
-496.62023688789583
30
0
40
1
0
CIRCLE
5
190
100
AcDbEntity
8
0
100
AcDbCircle
10
-229.60111282495802
20
-472.18246995420373
30
0
40
5.25
0
ARC
5
191
100
AcDbEntity
8
0
100
AcDbCircle
10
-13.340249830994253
20
-1947.2452368878958
30
0
40
1510.6249999999998
100
AcDbArc
50
81.641527018129963
51
98.358472981870079
0
ENDSEC
0
SECTION
2
OBJECTS
0
DICTIONARY
5
C
100
AcDbDictionary
3
ACAD_GROUP
350
D
3
ACAD_MLINESTYLE
350
17
0
DICTIONARY
5
D
100
AcDbDictionary
0
DICTIONARY
5
1A
330
C
100
AcDbDictionary
0
DICTIONARY
5
17
100
AcDbDictionary
0
ENDSEC
0
EOF
