0
SECTION
2
HEADER
9
$INSUNITS
70
4
9
$ACADVER
1
AC1014
9
$HANDSEED
5
FFFF
0
ENDSEC
0
SECTION
2
TABLES
0
TABLE
2
VPORT
5
8
100
AcDbSymbolTable
0
ENDTAB
0
TABLE
2
LTYPE
5
5
100
AcDbSymbolTable
0
LTYPE
5
14
100
AcDbSymbolTableRecord
100
AcDbLinetypeTableRecord
2
BYBLOCK
70
0
0
LTYPE
5
15
100
AcDbSymbolTableRecord
100
AcDbLinetypeTableRecord
2
BYLAYER
70
0
0
ENDTAB
0
TABLE
2
LAYER
5
2
100
AcDbSymbolTable
70
2
0
LAYER
5
50
100
AcDbSymbolTableRecord
100
AcDbLayerTableRecord
2
0
70
0
6
CONTINUOUS
0
ENDTAB
0
TABLE
2
STYLE
5
3
100
AcDbSymbolTable
70
1
0
STYLE
5
11
100
AcDbSymbolTableRecord
100
AcDbTextStyleTableRecord
2
STANDARD
70
0
0
ENDTAB
0
TABLE
2
VIEW
5
6
100
AcDbSymbolTable
70
0
0
ENDTAB
0
TABLE
2
UCS
5
7
100
AcDbSymbolTable
70
0
0
ENDTAB
0
TABLE
2
APPID
5
9
100
AcDbSymbolTable
70
2
0
APPID
5
12
100
AcDbSymbolTableRecord
100
AcDbRegAppTableRecord
2
ACAD
70
0
0
ENDTAB
0
TABLE
2
DIMSTYLE
5
A
100
AcDbSymbolTable
70
1
0
ENDTAB
0
TABLE
2
BLOCK_RECORD
5
1
100
AcDbSymbolTable
70
1
0
BLOCK_RECORD
5
1F
100
AcDbSymbolTableRecord
100
AcDbBlockTableRecord
2
*MODEL_SPACE
0
BLOCK_RECORD
5
1B
100
AcDbSymbolTableRecord
100
AcDbBlockTableRecord
2
*PAPER_SPACE
0
ENDTAB
0
ENDSEC
0
SECTION
2
BLOCKS
0
BLOCK
5
20
100
AcDbEntity
100
AcDbBlockBegin
2
*MODEL_SPACE
0
ENDBLK
5
21
100
AcDbEntity
100
AcDbBlockEnd
0
BLOCK
5
1C
100
AcDbEntity
100
AcDbBlockBegin
2
*PAPER_SPACE
0
ENDBLK
5
1D
100
AcDbEntity
100
AcDbBlockEnd
0
ENDSEC
0
SECTION
2
ENTITIES
0
LWPOLYLINE
5
100
100
AcDbEntity
8
0
100
AcDbPolyline
90
14
70
1
43
0.0
10
100.58825402705821
20
-279.10827164260633
10
90.105608833947812
20
-258.17491290717754
10
66.694257779664312
20
-258.17491290708125
10
66.694257779644801
20
-262.26491290708123
10
74.694257779628686
20
-262.26491290708123
10
74.694257779628686
20
-266.08491290708122
10
66.694257779628742
20
-266.08491290708122
10
66.694257779606971
20
-270.17491290708125
10
82.694257779606843
20
-270.1749129071577
10
89.858403184960807
20
-284.48138069662156
10
93.515494013643661
20
-282.6500460273806
10
89.933421310954813
20
-275.49681213265177
10
93.34909049568914
20
-273.78637241712363
10
96.93116319837543
20
-280.93960631184729
0
LINE
5
101
100
AcDbEntity
8
0
100
AcDbLine
10
90.105608833947812
20
-258.17491290717754
30
0
11
100.58825402705821
21
-279.10827164260633
31
0
0
LINE
5
102
100
AcDbEntity
8
0
100
AcDbLine
10
113.72721183443331
20
-421.53379696818615
30
0
11
73.727211834433476
21
-421.53379696818615
31
0
0
LINE
5
103
100
AcDbEntity
8
0
100
AcDbLine
10
111.70887713231488
20
-441.21054530296499
30
0
11
112.88932205082718
21
-444.84358119521244
31
0
0
LINE
5
104
100
AcDbEntity
8
0
100
AcDbLine
10
126.08789160943117
20
-459.57605761999218
30
0
11
120.49777418118839
21
-442.37144524021289
31
0
0
LINE
5
105
100
AcDbEntity
8
0
100
AcDbLine
10
95.637211834433373
20
-421.53379696818615
30
0
11
95.637211834433373
21
-429.53379696818615
31
0
0
LINE
5
106
100
AcDbEntity
8
0
100
AcDbLine
10
120.49777418118839
20
-442.37144524021289
30
0
11
112.88932205082718
21
-444.84358119521244
31
0
0
LINE
5
107
100
AcDbEntity
8
0
100
AcDbLine
10
61.366532059435627
20
-459.57605761999218
30
0
11
93.72721183443339
21
-483.08746771169098
31
0
0
LINE
5
108
100
AcDbEntity
8
0
100
AcDbLine
10
93.72721183443339
20
-483.08746771169098
30
0
11
126.08789160943117
21
-459.57605761999218
31
0
0
LINE
5
109
100
AcDbEntity
8
0
100
AcDbLine
10
126.08789160943117
20
-459.57605761999218
30
0
11
113.72721183443331
21
-421.53379696818615
31
0
0
LINE
5
110
100
AcDbEntity
8
0
100
AcDbLine
10
93.727211834433376
20
-421.53379696818615
30
0
11
93.72721183443339
21
-483.08746771169098
31
0
0
LINE
5
111
100
AcDbEntity
8
0
100
AcDbLine
10
109.90755172193226
20
-471.33176266584155
30
0
11
73.727211834433476
21
-421.53379696818615
31
0
0
LINE
5
112
100
AcDbEntity
8
0
100
AcDbLine
10
119.90755172193225
20
-440.55492729408917
30
0
11
61.366532059435627
21
-459.57605761999218
31
0
0
LINE
5
113
100
AcDbEntity
8
0
100
AcDbLine
10
67.546871946934559
20
-440.55492729408917
30
0
11
126.08789160943117
21
-459.57605761999218
31
0
0
LINE
5
114
100
AcDbEntity
8
0
100
AcDbLine
10
77.546871946934516
20
-471.33176266584155
30
0
11
113.72721183443331
21
-421.53379696818615
31
0
0
LINE
5
115
100
AcDbEntity
8
0
100
AcDbLine
10
119.31732926267611
20
-438.73840934796544
30
0
11
111.70887713231488
21
-441.21054530296499
31
0
0
LINE
5
116
100
AcDbEntity
8
0
100
AcDbLine
10
95.637211834433373
20
-481.69977148320078
30
0
11
95.637211834433373
21
-483.08746771169098
31
0
0
LINE
5
117
100
AcDbEntity
8
0
100
AcDbLine
10
113.72721183443331
20
-421.53379696818615
30
0
11
95.637211834433373
21
-421.53379696818615
31
0
0
LINE
5
118
100
AcDbEntity
8
0
100
AcDbLine
10
83.794376424530412
20
-465.98229654272069
30
0
11
80.703931506018151
21
-463.73695687896344
31
0
0
LINE
5
119
100
AcDbEntity
8
0
100
AcDbLine
10
119.31732926267611
20
-438.73840934796544
30
0
11
113.72721183443331
21
-421.53379696818615
31
0
0
LINE
5
120
100
AcDbEntity
8
0
100
AcDbLine
10
76.001649487678364
20
-470.20909283396293
30
0
11
80.703931506018151
21
-463.73695687896344
31
0
0
LINE
5
121
100
AcDbEntity
8
0
100
AcDbLine
10
111.45277418118843
20
-470.20909283396298
30
0
11
126.08789160943117
21
-459.57605761999218
31
0
0
LINE
5
122
100
AcDbEntity
8
0
100
AcDbLine
10
111.45277418118843
20
-470.20909283396298
30
0
11
106.75049216284863
21
-463.73695687896344
31
0
0
LINE
5
123
100
AcDbEntity
8
0
100
AcDbLine
10
108.36232926267614
20
-472.45443249772023
30
0
11
103.66004724433637
21
-465.98229654272069
31
0
0
LINE
5
124
100
AcDbEntity
8
0
100
AcDbLine
10
79.092094406190654
20
-472.45443249772018
30
0
11
93.72721183443339
21
-483.08746771169098
31
0
0
LINE
5
125
100
AcDbEntity
8
0
100
AcDbLine
10
74.565101618039591
20
-444.84358119521244
30
0
11
75.745546536551899
21
-441.21054530296499
31
0
0
LINE
5
126
100
AcDbEntity
8
0
100
AcDbLine
10
73.727211834433476
20
-421.53379696818615
30
0
11
61.366532059435627
21
-459.57605761999218
31
0
0
LINE
5
127
100
AcDbEntity
8
0
100
AcDbLine
10
68.137094406190698
20
-438.73840934796544
30
0
11
75.745546536551899
21
-441.21054530296499
31
0
0
LINE
5
128
100
AcDbEntity
8
0
100
AcDbLine
10
79.092094406190654
20
-472.45443249772018
30
0
11
83.794376424530412
21
-465.98229654272069
31
0
0
LINE
5
129
100
AcDbEntity
8
0
100
AcDbLine
10
93.72721183443339
20
-483.08746771169098
30
0
11
108.36232926267614
21
-472.45443249772023
31
0
0
LINE
5
130
100
AcDbEntity
8
0
100
AcDbLine
10
73.727211834433476
20
-421.53379696818615
30
0
11
68.137094406190698
21
-438.73840934796544
31
0
0
LINE
5
131
100
AcDbEntity
8
0
100
AcDbLine
10
91.81721183443338
20
-421.53379696818615
30
0
11
73.727211834433476
21
-421.53379696818615
31
0
0
LINE
5
132
100
AcDbEntity
8
0
100
AcDbLine
10
66.956649487678391
20
-442.37144524021289
30
0
11
74.565101618039591
21
-444.84358119521244
31
0
0
LINE
5
133
100
AcDbEntity
8
0
100
AcDbLine
10
106.75049216284863
20
-463.73695687896344
30
0
11
103.66004724433637
21
-465.98229654272069
31
0
0
LINE
5
134
100
AcDbEntity
8
0
100
AcDbLine
10
66.956649487678391
20
-442.37144524021289
30
0
11
61.366532059435627
21
-459.57605761999218
31
0
0
LINE
5
135
100
AcDbEntity
8
0
100
AcDbLine
10
61.366532059435627
20
-459.57605761999218
30
0
11
76.001649487678364
21
-470.20909283396293
31
0
0
LINE
5
136
100
AcDbEntity
8
0
100
AcDbLine
10
91.817211834433408
20
-481.69977148320078
30
0
11
91.81721183443338
21
-483.08746771169098
31
0
0
LINE
5
137
100
AcDbEntity
8
0
100
AcDbLine
10
91.81721183443338
20
-421.53379696818615
30
0
11
91.81721183443338
21
-429.53379696818615
31
0
0
LINE
5
138
100
AcDbEntity
8
0
100
AcDbLine
10
91.81721183443338
20
-429.53379696818615
30
0
11
95.637211834433373
21
-429.53379696818615
31
0
0
LWPOLYLINE
5
139
100
AcDbEntity
8
0
100
AcDbPolyline
90
4
70
1
43
0.0
10
51.314921938588789
20
-500.00072619995819
10
51.31492193858854
20
-188.24064124023619
10
351.31492193858838
20
-188.24064124023593
10
351.31492193858838
20
-500.00072619995819
0
LINE
5
140
100
AcDbEntity
8
0
100
AcDbLine
10
163.72721183443338
20
-483.08746771169098
30
-2.1270071750501949e-62
11
196.08789160943118
21
-459.57605761999218
31
-2.1270071750501949e-62
0
LINE
5
141
100
AcDbEntity
8
0
100
AcDbLine
10
179.90755172193229
20
-471.33176266584155
30
-2.1270071750501949e-62
11
143.72721183443349
21
-421.53379696818615
31
-2.1270071750501949e-62
0
LINE
5
142
100
AcDbEntity
8
0
100
AcDbLine
10
181.70887713231491
20
-441.21054530296499
30
-2.1270071750501949e-62
11
182.88932205082719
21
-444.84358119521244
31
-2.1270071750501949e-62
0
LINE
5
143
100
AcDbEntity
8
0
100
AcDbLine
10
131.36653205943563
20
-459.57605761999218
30
-2.1270071750501949e-62
11
163.72721183443338
21
-483.08746771169098
31
-2.1270071750501949e-62
0
LINE
5
144
100
AcDbEntity
8
0
100
AcDbLine
10
165.6372118344334
20
-421.53379696818615
30
-2.1270071750501949e-62
11
165.6372118344334
21
-429.53379696818615
31
-2.1270071750501949e-62
0
LINE
5
145
100
AcDbEntity
8
0
100
AcDbLine
10
137.54687194693457
20
-440.55492729408917
30
-2.1270071750501949e-62
11
196.08789160943118
21
-459.57605761999218
31
-2.1270071750501949e-62
0
LINE
5
146
100
AcDbEntity
8
0
100
AcDbLine
10
143.72721183443349
20
-421.53379696818615
30
-2.1270071750501949e-62
11
131.36653205943563
21
-459.57605761999218
31
-2.1270071750501949e-62
0
LINE
5
147
100
AcDbEntity
8
0
100
AcDbLine
10
163.72721183443338
20
-421.53379696818615
30
-2.1270071750501949e-62
11
163.72721183443338
21
-483.08746771169098
31
-2.1270071750501949e-62
0
LINE
5
148
100
AcDbEntity
8
0
100
AcDbLine
10
189.90755172193224
20
-440.55492729408917
30
-2.1270071750501949e-62
11
131.36653205943563
21
-459.57605761999218
31
-2.1270071750501949e-62
0
LINE
5
149
100
AcDbEntity
8
0
100
AcDbLine
10
147.54687194693452
20
-471.33176266584155
30
-2.1270071750501949e-62
11
183.72721183443332
21
-421.53379696818615
31
-2.1270071750501949e-62
0
LINE
5
150
100
AcDbEntity
8
0
100
AcDbLine
10
196.08789160943118
20
-459.57605761999218
30
-2.1270071750501949e-62
11
183.72721183443332
21
-421.53379696818615
31
-2.1270071750501949e-62
0
LINE
5
151
100
AcDbEntity
8
0
100
AcDbLine
10
196.08789160943118
20
-459.57605761999218
30
-2.1270071750501949e-62
11
190.49777418118845
21
-442.37144524021289
31
-2.1270071750501949e-62
0
LINE
5
152
100
AcDbEntity
8
0
100
AcDbLine
10
136.95664948767842
20
-442.37144524021289
30
-2.1270071750501949e-62
11
131.36653205943563
21
-459.57605761999218
31
-2.1270071750501949e-62
0
LINE
5
153
100
AcDbEntity
8
0
100
AcDbLine
10
183.72721183443332
20
-421.53379696818615
30
-2.1270071750501949e-62
11
143.72721183443349
21
-421.53379696818615
31
-2.1270071750501949e-62
0
LINE
5
154
100
AcDbEntity
8
0
100
AcDbLine
10
190.49777418118845
20
-442.37144524021289
30
-2.1270071750501949e-62
11
182.88932205082719
21
-444.84358119521244
31
-2.1270071750501949e-62
0
LINE
5
155
100
AcDbEntity
8
0
100
AcDbLine
10
181.45277418118843
20
-470.20909283396298
30
-2.1270071750501949e-62
11
196.08789160943118
21
-459.57605761999218
31
-2.1270071750501949e-62
0
LINE
5
156
100
AcDbEntity
8
0
100
AcDbLine
10
189.31732926267614
20
-438.73840934796544
30
-2.1270071750501949e-62
11
183.72721183443332
21
-421.53379696818615
31
-2.1270071750501949e-62
0
LINE
5
157
100
AcDbEntity
8
0
100
AcDbLine
10
183.72721183443332
20
-421.53379696818615
30
-2.1270071750501949e-62
11
165.6372118344334
21
-421.53379696818615
31
-2.1270071750501949e-62
0
LINE
5
158
100
AcDbEntity
8
0
100
AcDbLine
10
138.13709440619073
20
-438.73840934796544
30
-2.1270071750501949e-62
11
145.7455465365519
21
-441.21054530296499
31
-2.1270071750501949e-62
0
LINE
5
159
100
AcDbEntity
8
0
100
AcDbLine
10
178.36232926267616
20
-472.45443249772023
30
-2.1270071750501949e-62
11
173.66004724433637
21
-465.98229654272069
31
-2.1270071750501949e-62
0
LINE
5
160
100
AcDbEntity
8
0
100
AcDbLine
10
149.09209440619068
20
-472.45443249772018
30
-2.1270071750501949e-62
11
153.79437642453044
21
-465.98229654272069
31
-2.1270071750501949e-62
0
LINE
5
161
100
AcDbEntity
8
0
100
AcDbLine
10
163.72721183443338
20
-483.08746771169098
30
-2.1270071750501949e-62
11
178.36232926267616
21
-472.45443249772023
31
-2.1270071750501949e-62
0
LINE
5
162
100
AcDbEntity
8
0
100
AcDbLine
10
176.75049216284864
20
-463.73695687896344
30
-2.1270071750501949e-62
11
173.66004724433637
21
-465.98229654272069
31
-2.1270071750501949e-62
0
LINE
5
163
100
AcDbEntity
8
0
100
AcDbLine
10
143.72721183443349
20
-421.53379696818615
30
-2.1270071750501949e-62
11
138.13709440619073
21
-438.73840934796544
31
-2.1270071750501949e-62
0
LINE
5
164
100
AcDbEntity
8
0
100
AcDbLine
10
136.95664948767842
20
-442.37144524021289
30
-2.1270071750501949e-62
11
144.56510161803962
21
-444.84358119521244
31
-2.1270071750501949e-62
0
LINE
5
165
100
AcDbEntity
8
0
100
AcDbLine
10
181.45277418118843
20
-470.20909283396298
30
-2.1270071750501949e-62
11
176.75049216284864
21
-463.73695687896344
31
-2.1270071750501949e-62
0
LINE
5
166
100
AcDbEntity
8
0
100
AcDbLine
10
161.81721183443341
20
-421.53379696818615
30
-2.1270071750501949e-62
11
161.81721183443341
21
-429.53379696818615
31
-2.1270071750501949e-62
0
LINE
5
167
100
AcDbEntity
8
0
100
AcDbLine
10
153.79437642453044
20
-465.98229654272069
30
-2.1270071750501949e-62
11
150.70393150601817
21
-463.73695687896344
31
-2.1270071750501949e-62
0
LINE
5
168
100
AcDbEntity
8
0
100
AcDbLine
10
161.81721183443344
20
-481.69977148320078
30
-2.1270071750501949e-62
11
161.81721183443341
21
-483.08746771169098
31
-2.1270071750501949e-62
0
LINE
5
169
100
AcDbEntity
8
0
100
AcDbLine
10
161.81721183443341
20
-429.53379696818615
30
-2.1270071750501949e-62
11
165.6372118344334
21
-429.53379696818615
31
-2.1270071750501949e-62
0
LINE
5
170
100
AcDbEntity
8
0
100
AcDbLine
10
131.36653205943563
20
-459.57605761999218
30
-2.1270071750501949e-62
11
146.00164948767838
21
-470.20909283396293
31
-2.1270071750501949e-62
0
LINE
5
171
100
AcDbEntity
8
0
100
AcDbLine
10
161.81721183443341
20
-421.53379696818615
30
-2.1270071750501949e-62
11
143.72721183443349
21
-421.53379696818615
31
-2.1270071750501949e-62
0
LINE
5
172
100
AcDbEntity
8
0
100
AcDbLine
10
144.56510161803962
20
-444.84358119521244
30
-2.1270071750501949e-62
11
145.7455465365519
21
-441.21054530296499
31
-2.1270071750501949e-62
0
LINE
5
173
100
AcDbEntity
8
0
100
AcDbLine
10
165.6372118344334
20
-481.69977148320078
30
-2.1270071750501949e-62
11
165.6372118344334
21
-483.08746771169098
31
-2.1270071750501949e-62
0
LINE
5
174
100
AcDbEntity
8
0
100
AcDbLine
10
146.00164948767838
20
-470.20909283396293
30
-2.1270071750501949e-62
11
150.70393150601817
21
-463.73695687896344
31
-2.1270071750501949e-62
0
LINE
5
175
100
AcDbEntity
8
0
100
AcDbLine
10
149.09209440619068
20
-472.45443249772018
30
-2.1270071750501949e-62
11
163.72721183443338
21
-483.08746771169098
31
-2.1270071750501949e-62
0
LINE
5
176
100
AcDbEntity
8
0
100
AcDbLine
10
189.31732926267614
20
-438.73840934796544
30
-2.1270071750501949e-62
11
181.70887713231491
21
-441.21054530296499
31
-2.1270071750501949e-62
0
LINE
5
177
100
AcDbEntity
8
0
100
AcDbLine
10
233.72721183443343
20
-483.08746771169098
30
-4.2540143501003898e-62
11
266.08789160943115
21
-459.57605761999218
31
-4.2540143501003898e-62
0
LINE
5
178
100
AcDbEntity
8
0
100
AcDbLine
10
249.90755172193232
20
-471.33176266584155
30
-4.2540143501003898e-62
11
213.72721183443349
21
-421.53379696818615
31
-4.2540143501003898e-62
0
LINE
5
179
100
AcDbEntity
8
0
100
AcDbLine
10
251.70887713231494
20
-441.21054530296499
30
-4.2540143501003898e-62
11
252.88932205082722
21
-444.84358119521244
31
-4.2540143501003898e-62
0
LINE
5
180
100
AcDbEntity
8
0
100
AcDbLine
10
201.36653205943566
20
-459.57605761999218
30
-4.2540143501003898e-62
11
233.72721183443343
21
-483.08746771169098
31
-4.2540143501003898e-62
0
LINE
5
181
100
AcDbEntity
8
0
100
AcDbLine
10
235.6372118344334
20
-421.53379696818615
30
-4.2540143501003898e-62
11
235.6372118344334
21
-429.53379696818615
31
-4.2540143501003898e-62
0
LINE
5
182
100
AcDbEntity
8
0
100
AcDbLine
10
207.5468719469346
20
-440.55492729408917
30
-4.2540143501003898e-62
11
266.08789160943115
21
-459.57605761999218
31
-4.2540143501003898e-62
0
LINE
5
183
100
AcDbEntity
8
0
100
AcDbLine
10
213.72721183443349
20
-421.53379696818615
30
-4.2540143501003898e-62
11
201.36653205943566
21
-459.57605761999218
31
-4.2540143501003898e-62
0
LINE
5
184
100
AcDbEntity
8
0
100
AcDbLine
10
233.72721183443338
20
-421.53379696818615
30
-4.2540143501003898e-62
11
233.72721183443343
21
-483.08746771169098
31
-4.2540143501003898e-62
0
LINE
5
185
100
AcDbEntity
8
0
100
AcDbLine
10
259.90755172193229
20
-440.55492729408917
30
-4.2540143501003898e-62
11
201.36653205943566
21
-459.57605761999218
31
-4.2540143501003898e-62
0
LINE
5
186
100
AcDbEntity
8
0
100
AcDbLine
10
217.54687194693452
20
-471.33176266584155
30
-4.2540143501003898e-62
11
253.72721183443332
21
-421.53379696818615
31
-4.2540143501003898e-62
0
LINE
5
187
100
AcDbEntity
8
0
100
AcDbLine
10
266.08789160943115
20
-459.57605761999218
30
-4.2540143501003898e-62
11
253.72721183443332
21
-421.53379696818615
31
-4.2540143501003898e-62
0
LINE
5
188
100
AcDbEntity
8
0
100
AcDbLine
10
266.08789160943115
20
-459.57605761999218
30
-4.2540143501003898e-62
11
260.49777418118845
21
-442.37144524021289
31
-4.2540143501003898e-62
0
LINE
5
189
100
AcDbEntity
8
0
100
AcDbLine
10
206.95664948767842
20
-442.37144524021289
30
-4.2540143501003898e-62
11
201.36653205943566
21
-459.57605761999218
31
-4.2540143501003898e-62
0
LINE
5
190
100
AcDbEntity
8
0
100
AcDbLine
10
253.72721183443332
20
-421.53379696818615
30
-4.2540143501003898e-62
11
213.72721183443349
21
-421.53379696818615
31
-4.2540143501003898e-62
0
LINE
5
191
100
AcDbEntity
8
0
100
AcDbLine
10
260.49777418118845
20
-442.37144524021289
30
-4.2540143501003898e-62
11
252.88932205082722
21
-444.84358119521244
31
-4.2540143501003898e-62
0
LINE
5
192
100
AcDbEntity
8
0
100
AcDbLine
10
251.45277418118843
20
-470.20909283396298
30
-4.2540143501003898e-62
11
266.08789160943115
21
-459.57605761999218
31
-4.2540143501003898e-62
0
LINE
5
193
100
AcDbEntity
8
0
100
AcDbLine
10
259.31732926267614
20
-438.73840934796544
30
-4.2540143501003898e-62
11
253.72721183443332
21
-421.53379696818615
31
-4.2540143501003898e-62
0
LINE
5
194
100
AcDbEntity
8
0
100
AcDbLine
10
253.72721183443332
20
-421.53379696818615
30
-4.2540143501003898e-62
11
235.6372118344334
21
-421.53379696818615
31
-4.2540143501003898e-62
0
LINE
5
195
100
AcDbEntity
8
0
100
AcDbLine
10
208.13709440619076
20
-438.73840934796544
30
-4.2540143501003898e-62
11
215.74554653655196
21
-441.21054530296499
31
-4.2540143501003898e-62
0
LINE
5
196
100
AcDbEntity
8
0
100
AcDbLine
10
248.36232926267621
20
-472.45443249772023
30
-4.2540143501003898e-62
11
243.6600472443364
21
-465.98229654272069
31
-4.2540143501003898e-62
0
LINE
5
197
100
AcDbEntity
8
0
100
AcDbLine
10
219.09209440619068
20
-472.45443249772018
30
-4.2540143501003898e-62
11
223.79437642453044
21
-465.98229654272069
31
-4.2540143501003898e-62
0
LINE
5
198
100
AcDbEntity
8
0
100
AcDbLine
10
233.72721183443343
20
-483.08746771169098
30
-4.2540143501003898e-62
11
248.36232926267621
21
-472.45443249772023
31
-4.2540143501003898e-62
0
LINE
5
199
100
AcDbEntity
8
0
100
AcDbLine
10
246.75049216284867
20
-463.73695687896344
30
-4.2540143501003898e-62
11
243.6600472443364
21
-465.98229654272069
31
-4.2540143501003898e-62
0
LINE
5
200
100
AcDbEntity
8
0
100
AcDbLine
10
213.72721183443349
20
-421.53379696818615
30
-4.2540143501003898e-62
11
208.13709440619076
21
-438.73840934796544
31
-4.2540143501003898e-62
0
LINE
5
201
100
AcDbEntity
8
0
100
AcDbLine
10
206.95664948767842
20
-442.37144524021289
30
-4.2540143501003898e-62
11
214.56510161803962
21
-444.84358119521244
31
-4.2540143501003898e-62
0
LINE
5
202
100
AcDbEntity
8
0
100
AcDbLine
10
251.45277418118843
20
-470.20909283396298
30
-4.2540143501003898e-62
11
246.75049216284867
21
-463.73695687896344
31
-4.2540143501003898e-62
0
LINE
5
203
100
AcDbEntity
8
0
100
AcDbLine
10
231.81721183443344
20
-421.53379696818615
30
-4.2540143501003898e-62
11
231.81721183443344
21
-429.53379696818615
31
-4.2540143501003898e-62
0
LINE
5
204
100
AcDbEntity
8
0
100
AcDbLine
10
223.79437642453044
20
-465.98229654272069
30
-4.2540143501003898e-62
11
220.70393150601817
21
-463.73695687896344
31
-4.2540143501003898e-62
0
LINE
5
205
100
AcDbEntity
8
0
100
AcDbLine
10
231.81721183443344
20
-481.69977148320078
30
-4.2540143501003898e-62
11
231.81721183443344
21
-483.08746771169098
31
-4.2540143501003898e-62
0
LINE
5
206
100
AcDbEntity
8
0
100
AcDbLine
10
231.81721183443344
20
-429.53379696818615
30
-4.2540143501003898e-62
11
235.6372118344334
21
-429.53379696818615
31
-4.2540143501003898e-62
0
LINE
5
207
100
AcDbEntity
8
0
100
AcDbLine
10
201.36653205943566
20
-459.57605761999218
30
-4.2540143501003898e-62
11
216.00164948767841
21
-470.20909283396293
31
-4.2540143501003898e-62
0
LINE
5
208
100
AcDbEntity
8
0
100
AcDbLine
10
231.81721183443344
20
-421.53379696818615
30
-4.2540143501003898e-62
11
213.72721183443349
21
-421.53379696818615
31
-4.2540143501003898e-62
0
LINE
5
209
100
AcDbEntity
8
0
100
AcDbLine
10
214.56510161803962
20
-444.84358119521244
30
-4.2540143501003898e-62
11
215.74554653655196
21
-441.21054530296499
31
-4.2540143501003898e-62
0
LINE
5
210
100
AcDbEntity
8
0
100
AcDbLine
10
235.6372118344334
20
-481.69977148320078
30
-4.2540143501003898e-62
11
235.6372118344334
21
-483.08746771169098
31
-4.2540143501003898e-62
0
LINE
5
211
100
AcDbEntity
8
0
100
AcDbLine
10
216.00164948767841
20
-470.20909283396293
30
-4.2540143501003898e-62
11
220.70393150601817
21
-463.73695687896344
31
-4.2540143501003898e-62
0
LINE
5
212
100
AcDbEntity
8
0
100
AcDbLine
10
219.09209440619068
20
-472.45443249772018
30
-4.2540143501003898e-62
11
233.72721183443343
21
-483.08746771169098
31
-4.2540143501003898e-62
0
LINE
5
213
100
AcDbEntity
8
0
100
AcDbLine
10
259.31732926267614
20
-438.73840934796544
30
-4.2540143501003898e-62
11
251.70887713231494
21
-441.21054530296499
31
-4.2540143501003898e-62
0
LINE
5
214
100
AcDbEntity
8
0
100
AcDbLine
10
303.72721183443343
20
-483.08746771169098
30
-6.3810215251505848e-62
11
336.08789160943115
21
-459.57605761999218
31
-6.3810215251505848e-62
0
LINE
5
215
100
AcDbEntity
8
0
100
AcDbLine
10
319.90755172193235
20
-471.33176266584155
30
-6.3810215251505848e-62
11
283.72721183443349
21
-421.53379696818615
31
-6.3810215251505848e-62
0
LINE
5
216
100
AcDbEntity
8
0
100
AcDbLine
10
321.70887713231491
20
-441.21054530296499
30
-6.3810215251505848e-62
11
322.88932205082722
21
-444.84358119521244
31
-6.3810215251505848e-62
0
LINE
5
217
100
AcDbEntity
8
0
100
AcDbLine
10
271.36653205943566
20
-459.57605761999218
30
-6.3810215251505848e-62
11
303.72721183443343
21
-483.08746771169098
31
-6.3810215251505848e-62
0
LINE
5
218
100
AcDbEntity
8
0
100
AcDbLine
10
305.6372118344334
20
-421.53379696818615
30
-6.3810215251505848e-62
11
305.6372118344334
21
-429.53379696818615
31
-6.3810215251505848e-62
0
LINE
5
219
100
AcDbEntity
8
0
100
AcDbLine
10
277.54687194693463
20
-440.55492729408917
30
-6.3810215251505848e-62
11
336.08789160943115
21
-459.57605761999218
31
-6.3810215251505848e-62
0
LINE
5
220
100
AcDbEntity
8
0
100
AcDbLine
10
283.72721183443349
20
-421.53379696818615
30
-6.3810215251505848e-62
11
271.36653205943566
21
-459.57605761999218
31
-6.3810215251505848e-62
0
LINE
5
221
100
AcDbEntity
8
0
100
AcDbLine
10
303.72721183443338
20
-421.53379696818615
30
-6.3810215251505848e-62
11
303.72721183443343
21
-483.08746771169098
31
-6.3810215251505848e-62
0
LINE
5
222
100
AcDbEntity
8
0
100
AcDbLine
10
329.90755172193235
20
-440.55492729408917
30
-6.3810215251505848e-62
11
271.36653205943566
21
-459.57605761999218
31
-6.3810215251505848e-62
0
LINE
5
223
100
AcDbEntity
8
0
100
AcDbLine
10
287.54687194693452
20
-471.33176266584155
30
-6.3810215251505848e-62
11
323.72721183443332
21
-421.53379696818615
31
-6.3810215251505848e-62
0
LINE
5
224
100
AcDbEntity
8
0
100
AcDbLine
10
336.08789160943115
20
-459.57605761999218
30
-6.3810215251505848e-62
11
323.72721183443332
21
-421.53379696818615
31
-6.3810215251505848e-62
0
LINE
5
225
100
AcDbEntity
8
0
100
AcDbLine
10
336.08789160943115
20
-459.57605761999218
30
-6.3810215251505848e-62
11
330.49777418118845
21
-442.37144524021289
31
-6.3810215251505848e-62
0
LINE
5
226
100
AcDbEntity
8
0
100
AcDbLine
10
276.95664948767842
20
-442.37144524021289
30
-6.3810215251505848e-62
11
271.36653205943566
21
-459.57605761999218
31
-6.3810215251505848e-62
0
LINE
5
227
100
AcDbEntity
8
0
100
AcDbLine
10
323.72721183443332
20
-421.53379696818615
30
-6.3810215251505848e-62
11
283.72721183443349
21
-421.53379696818615
31
-6.3810215251505848e-62
0
LINE
5
228
100
AcDbEntity
8
0
100
AcDbLine
10
330.49777418118845
20
-442.37144524021289
30
-6.3810215251505848e-62
11
322.88932205082722
21
-444.84358119521244
31
-6.3810215251505848e-62
0
LINE
5
229
100
AcDbEntity
8
0
100
AcDbLine
10
321.45277418118843
20
-470.20909283396298
30
-6.3810215251505848e-62
11
336.08789160943115
21
-459.57605761999218
31
-6.3810215251505848e-62
0
LINE
5
230
100
AcDbEntity
8
0
100
AcDbLine
10
329.31732926267614
20
-438.73840934796544
30
-6.3810215251505848e-62
11
323.72721183443332
21
-421.53379696818615
31
-6.3810215251505848e-62
0
LINE
5
231
100
AcDbEntity
8
0
100
AcDbLine
10
323.72721183443332
20
-421.53379696818615
30
-6.3810215251505848e-62
11
305.6372118344334
21
-421.53379696818615
31
-6.3810215251505848e-62
0
LINE
5
232
100
AcDbEntity
8
0
100
AcDbLine
10
278.13709440619073
20
-438.73840934796544
30
-6.3810215251505848e-62
11
285.74554653655196
21
-441.21054530296499
31
-6.3810215251505848e-62
0
LINE
5
233
100
AcDbEntity
8
0
100
AcDbLine
10
318.36232926267621
20
-472.45443249772023
30
-6.3810215251505848e-62
11
313.6600472443364
21
-465.98229654272069
31
-6.3810215251505848e-62
0
LINE
5
234
100
AcDbEntity
8
0
100
AcDbLine
10
289.09209440619071
20
-472.45443249772018
30
-6.3810215251505848e-62
11
293.79437642453047
21
-465.98229654272069
31
-6.3810215251505848e-62
0
LINE
5
235
100
AcDbEntity
8
0
100
AcDbLine
10
303.72721183443343
20
-483.08746771169098
30
-6.3810215251505848e-62
11
318.36232926267621
21
-472.45443249772023
31
-6.3810215251505848e-62
0
LINE
5
236
100
AcDbEntity
8
0
100
AcDbLine
10
316.75049216284867
20
-463.73695687896344
30
-6.3810215251505848e-62
11
313.6600472443364
21
-465.98229654272069
31
-6.3810215251505848e-62
0
LINE
5
237
100
AcDbEntity
8
0
100
AcDbLine
10
283.72721183443349
20
-421.53379696818615
30
-6.3810215251505848e-62
11
278.13709440619073
21
-438.73840934796544
31
-6.3810215251505848e-62
0
LINE
5
238
100
AcDbEntity
8
0
100
AcDbLine
10
276.95664948767842
20
-442.37144524021289
30
-6.3810215251505848e-62
11
284.56510161803965
21
-444.84358119521244
31
-6.3810215251505848e-62
0
LINE
5
239
100
AcDbEntity
8
0
100
AcDbLine
10
321.45277418118843
20
-470.20909283396298
30
-6.3810215251505848e-62
11
316.75049216284867
21
-463.73695687896344
31
-6.3810215251505848e-62
0
LINE
5
240
100
AcDbEntity
8
0
100
AcDbLine
10
301.81721183443346
20
-421.53379696818615
30
-6.3810215251505848e-62
11
301.81721183443346
21
-429.53379696818615
31
-6.3810215251505848e-62
0
LINE
5
241
100
AcDbEntity
8
0
100
AcDbLine
10
293.79437642453047
20
-465.98229654272069
30
-6.3810215251505848e-62
11
290.70393150601819
21
-463.73695687896344
31
-6.3810215251505848e-62
0
LINE
5
242
100
AcDbEntity
8
0
100
AcDbLine
10
301.81721183443346
20
-481.69977148320078
30
-6.3810215251505848e-62
11
301.81721183443346
21
-483.08746771169098
31
-6.3810215251505848e-62
0
LINE
5
243
100
AcDbEntity
8
0
100
AcDbLine
10
301.81721183443346
20
-429.53379696818615
30
-6.3810215251505848e-62
11
305.6372118344334
21
-429.53379696818615
31
-6.3810215251505848e-62
0
LINE
5
244
100
AcDbEntity
8
0
100
AcDbLine
10
271.36653205943566
20
-459.57605761999218
30
-6.3810215251505848e-62
11
286.00164948767838
21
-470.20909283396293
31
-6.3810215251505848e-62
0
LINE
5
245
100
AcDbEntity
8
0
100
AcDbLine
10
301.81721183443346
20
-421.53379696818615
30
-6.3810215251505848e-62
11
283.72721183443349
21
-421.53379696818615
31
-6.3810215251505848e-62
0
LINE
5
246
100
AcDbEntity
8
0
100
AcDbLine
10
284.56510161803965
20
-444.84358119521244
30
-6.3810215251505848e-62
11
285.74554653655196
21
-441.21054530296499
31
-6.3810215251505848e-62
0
LINE
5
247
100
AcDbEntity
8
0
100
AcDbLine
10
305.6372118344334
20
-481.69977148320078
30
-6.3810215251505848e-62
11
305.6372118344334
21
-483.08746771169098
31
-6.3810215251505848e-62
0
LINE
5
248
100
AcDbEntity
8
0
100
AcDbLine
10
286.00164948767838
20
-470.20909283396293
30
-6.3810215251505848e-62
11
290.70393150601819
21
-463.73695687896344
31
-6.3810215251505848e-62
0
LINE
5
249
100
AcDbEntity
8
0
100
AcDbLine
10
289.09209440619071
20
-472.45443249772018
30
-6.3810215251505848e-62
11
303.72721183443343
21
-483.08746771169098
31
-6.3810215251505848e-62
0
LINE
5
250
100
AcDbEntity
8
0
100
AcDbLine
10
329.31732926267614
20
-438.73840934796544
30
-6.3810215251505848e-62
11
321.70887713231491
21
-441.21054530296499
31
-6.3810215251505848e-62
0
LINE
5
251
100
AcDbEntity
8
0
100
AcDbLine
10
93.72721183443339
20
-418.08746771169098
30
0
11
126.08789160943117
21
-394.57605761999218
31
0
0
LINE
5
252
100
AcDbEntity
8
0
100
AcDbLine
10
109.90755172193226
20
-406.33176266584155
30
0
11
73.727211834433476
21
-356.53379696818615
31
0
0
LINE
5
253
100
AcDbEntity
8
0
100
AcDbLine
10
111.70887713231488
20
-376.21054530296499
30
0
11
112.88932205082718
21
-379.84358119521244
31
0
0
LINE
5
254
100
AcDbEntity
8
0
100
AcDbLine
10
61.366532059435627
20
-394.57605761999218
30
0
11
93.72721183443339
21
-418.08746771169098
31
0
0
LINE
5
255
100
AcDbEntity
8
0
100
AcDbLine
10
95.637211834433373
20
-356.53379696818615
30
0
11
95.637211834433373
21
-364.53379696818615
31
0
0
LINE
5
256
100
AcDbEntity
8
0
100
AcDbLine
10
67.546871946934559
20
-375.55492729408917
30
0
11
126.08789160943117
21
-394.57605761999218
31
0
0
LINE
5
257
100
AcDbEntity
8
0
100
AcDbLine
10
73.727211834433476
20
-356.53379696818615
30
0
11
61.366532059435627
21
-394.57605761999218
31
0
0
LINE
5
258
100
AcDbEntity
8
0
100
AcDbLine
10
93.727211834433376
20
-356.53379696818615
30
0
11
93.72721183443339
21
-418.08746771169098
31
0
0
LINE
5
259
100
AcDbEntity
8
0
100
AcDbLine
10
119.90755172193225
20
-375.55492729408917
30
0
11
61.366532059435627
21
-394.57605761999218
31
0
0
LINE
5
260
100
AcDbEntity
8
0
100
AcDbLine
10
77.546871946934516
20
-406.33176266584155
30
0
11
113.72721183443331
21
-356.53379696818615
31
0
0
LINE
5
261
100
AcDbEntity
8
0
100
AcDbLine
10
126.08789160943117
20
-394.57605761999218
30
0
11
113.72721183443331
21
-356.53379696818615
31
0
0
LINE
5
262
100
AcDbEntity
8
0
100
AcDbLine
10
126.08789160943117
20
-394.57605761999218
30
0
11
120.49777418118839
21
-377.37144524021289
31
0
0
LINE
5
263
100
AcDbEntity
8
0
100
AcDbLine
10
66.956649487678391
20
-377.37144524021289
30
0
11
61.366532059435627
21
-394.57605761999218
31
0
0
LINE
5
264
100
AcDbEntity
8
0
100
AcDbLine
10
113.72721183443331
20
-356.53379696818615
30
0
11
73.727211834433476
21
-356.53379696818615
31
0
0
LINE
5
265
100
AcDbEntity
8
0
100
AcDbLine
10
120.49777418118839
20
-377.37144524021289
30
0
11
112.88932205082718
21
-379.84358119521244
31
0
0
LINE
5
266
100
AcDbEntity
8
0
100
AcDbLine
10
111.45277418118843
20
-405.20909283396298
30
0
11
126.08789160943117
21
-394.57605761999218
31
0
0
LINE
5
267
100
AcDbEntity
8
0
100
AcDbLine
10
119.31732926267611
20
-373.73840934796544
30
0
11
113.72721183443331
21
-356.53379696818615
31
0
0
LINE
5
268
100
AcDbEntity
8
0
100
AcDbLine
10
113.72721183443331
20
-356.53379696818615
30
0
11
95.637211834433373
21
-356.53379696818615
31
0
0
LINE
5
269
100
AcDbEntity
8
0
100
AcDbLine
10
68.137094406190698
20
-373.73840934796544
30
0
11
75.745546536551899
21
-376.21054530296499
31
0
0
LINE
5
270
100
AcDbEntity
8
0
100
AcDbLine
10
108.36232926267614
20
-407.45443249772023
30
0
11
103.66004724433637
21
-400.98229654272069
31
0
0
LINE
5
271
100
AcDbEntity
8
0
100
AcDbLine
10
79.092094406190654
20
-407.45443249772018
30
0
11
83.794376424530412
21
-400.98229654272069
31
0
0
LINE
5
272
100
AcDbEntity
8
0
100
AcDbLine
10
93.72721183443339
20
-418.08746771169098
30
0
11
108.36232926267614
21
-407.45443249772023
31
0
0
LINE
5
273
100
AcDbEntity
8
0
100
AcDbLine
10
106.75049216284863
20
-398.73695687896344
30
0
11
103.66004724433637
21
-400.98229654272069
31
0
0
LINE
5
274
100
AcDbEntity
8
0
100
AcDbLine
10
73.727211834433476
20
-356.53379696818615
30
0
11
68.137094406190698
21
-373.73840934796544
31
0
0
LINE
5
275
100
AcDbEntity
8
0
100
AcDbLine
10
66.956649487678391
20
-377.37144524021289
30
0
11
74.565101618039591
21
-379.84358119521244
31
0
0
LINE
5
276
100
AcDbEntity
8
0
100
AcDbLine
10
111.45277418118843
20
-405.20909283396298
30
0
11
106.75049216284863
21
-398.73695687896344
31
0
0
LINE
5
277
100
AcDbEntity
8
0
100
AcDbLine
10
91.81721183443338
20
-356.53379696818615
30
0
11
91.81721183443338
21
-364.53379696818615
31
0
0
LINE
5
278
100
AcDbEntity
8
0
100
AcDbLine
10
83.794376424530412
20
-400.98229654272069
30
0
11
80.703931506018151
21
-398.73695687896344
31
0
0
LINE
5
279
100
AcDbEntity
8
0
100
AcDbLine
10
91.817211834433408
20
-416.69977148320078
30
0
11
91.81721183443338
21
-418.08746771169098
31
0
0
LINE
5
280
100
AcDbEntity
8
0
100
AcDbLine
10
91.81721183443338
20
-364.53379696818615
30
0
11
95.637211834433373
21
-364.53379696818615
31
0
0
LINE
5
281
100
AcDbEntity
8
0
100
AcDbLine
10
61.366532059435627
20
-394.57605761999218
30
0
11
76.001649487678364
21
-405.20909283396293
31
0
0
LINE
5
282
100
AcDbEntity
8
0
100
AcDbLine
10
91.81721183443338
20
-356.53379696818615
30
0
11
73.727211834433476
21
-356.53379696818615
31
0
0
LINE
5
283
100
AcDbEntity
8
0
100
AcDbLine
10
74.565101618039591
20
-379.84358119521244
30
0
11
75.745546536551899
21
-376.21054530296499
31
0
0
LINE
5
284
100
AcDbEntity
8
0
100
AcDbLine
10
95.637211834433373
20
-416.69977148320078
30
0
11
95.637211834433373
21
-418.08746771169098
31
0
0
LINE
5
285
100
AcDbEntity
8
0
100
AcDbLine
10
76.001649487678364
20
-405.20909283396293
30
0
11
80.703931506018151
21
-398.73695687896344
31
0
0
LINE
5
286
100
AcDbEntity
8
0
100
AcDbLine
10
79.092094406190654
20
-407.45443249772018
30
0
11
93.72721183443339
21
-418.08746771169098
31
0
0
LINE
5
287
100
AcDbEntity
8
0
100
AcDbLine
10
119.31732926267611
20
-373.73840934796544
30
0
11
111.70887713231488
21
-376.21054530296499
31
0
0
LINE
5
288
100
AcDbEntity
8
0
100
AcDbLine
10
163.72721183443338
20
-418.08746771169098
30
-2.1270071750501949e-62
11
196.08789160943118
21
-394.57605761999218
31
-2.1270071750501949e-62
0
LINE
5
289
100
AcDbEntity
8
0
100
AcDbLine
10
179.90755172193229
20
-406.33176266584155
30
-2.1270071750501949e-62
11
143.72721183443349
21
-356.53379696818615
31
-2.1270071750501949e-62
0
LINE
5
290
100
AcDbEntity
8
0
100
AcDbLine
10
181.70887713231491
20
-376.21054530296499
30
-2.1270071750501949e-62
11
182.88932205082719
21
-379.84358119521244
31
-2.1270071750501949e-62
0
LINE
5
291
100
AcDbEntity
8
0
100
AcDbLine
10
131.36653205943563
20
-394.57605761999218
30
-2.1270071750501949e-62
11
163.72721183443338
21
-418.08746771169098
31
-2.1270071750501949e-62
0
LINE
5
292
100
AcDbEntity
8
0
100
AcDbLine
10
165.6372118344334
20
-356.53379696818615
30
-2.1270071750501949e-62
11
165.6372118344334
21
-364.53379696818615
31
-2.1270071750501949e-62
0
LINE
5
293
100
AcDbEntity
8
0
100
AcDbLine
10
137.54687194693457
20
-375.55492729408917
30
-2.1270071750501949e-62
11
196.08789160943118
21
-394.57605761999218
31
-2.1270071750501949e-62
0
LINE
5
294
100
AcDbEntity
8
0
100
AcDbLine
10
143.72721183443349
20
-356.53379696818615
30
-2.1270071750501949e-62
11
131.36653205943563
21
-394.57605761999218
31
-2.1270071750501949e-62
0
LINE
5
295
100
AcDbEntity
8
0
100
AcDbLine
10
163.72721183443338
20
-356.53379696818615
30
-2.1270071750501949e-62
11
163.72721183443338
21
-418.08746771169098
31
-2.1270071750501949e-62
0
LINE
5
296
100
AcDbEntity
8
0
100
AcDbLine
10
189.90755172193224
20
-375.55492729408917
30
-2.1270071750501949e-62
11
131.36653205943563
21
-394.57605761999218
31
-2.1270071750501949e-62
0
LINE
5
297
100
AcDbEntity
8
0
100
AcDbLine
10
147.54687194693452
20
-406.33176266584155
30
-2.1270071750501949e-62
11
183.72721183443332
21
-356.53379696818615
31
-2.1270071750501949e-62
0
LINE
5
298
100
AcDbEntity
8
0
100
AcDbLine
10
196.08789160943118
20
-394.57605761999218
30
-2.1270071750501949e-62
11
183.72721183443332
21
-356.53379696818615
31
-2.1270071750501949e-62
0
LINE
5
299
100
AcDbEntity
8
0
100
AcDbLine
10
196.08789160943118
20
-394.57605761999218
30
-2.1270071750501949e-62
11
190.49777418118845
21
-377.37144524021289
31
-2.1270071750501949e-62
0
LINE
5
300
100
AcDbEntity
8
0
100
AcDbLine
10
136.95664948767842
20
-377.37144524021289
30
-2.1270071750501949e-62
11
131.36653205943563
21
-394.57605761999218
31
-2.1270071750501949e-62
0
LINE
5
301
100
AcDbEntity
8
0
100
AcDbLine
10
183.72721183443332
20
-356.53379696818615
30
-2.1270071750501949e-62
11
143.72721183443349
21
-356.53379696818615
31
-2.1270071750501949e-62
0
LINE
5
302
100
AcDbEntity
8
0
100
AcDbLine
10
190.49777418118845
20
-377.37144524021289
30
-2.1270071750501949e-62
11
182.88932205082719
21
-379.84358119521244
31
-2.1270071750501949e-62
0
LINE
5
303
100
AcDbEntity
8
0
100
AcDbLine
10
181.45277418118843
20
-405.20909283396298
30
-2.1270071750501949e-62
11
196.08789160943118
21
-394.57605761999218
31
-2.1270071750501949e-62
0
LINE
5
304
100
AcDbEntity
8
0
100
AcDbLine
10
189.31732926267614
20
-373.73840934796544
30
-2.1270071750501949e-62
11
183.72721183443332
21
-356.53379696818615
31
-2.1270071750501949e-62
0
LINE
5
305
100
AcDbEntity
8
0
100
AcDbLine
10
183.72721183443332
20
-356.53379696818615
30
-2.1270071750501949e-62
11
165.6372118344334
21
-356.53379696818615
31
-2.1270071750501949e-62
0
LINE
5
306
100
AcDbEntity
8
0
100
AcDbLine
10
138.13709440619073
20
-373.73840934796544
30
-2.1270071750501949e-62
11
145.7455465365519
21
-376.21054530296499
31
-2.1270071750501949e-62
0
LINE
5
307
100
AcDbEntity
8
0
100
AcDbLine
10
178.36232926267616
20
-407.45443249772023
30
-2.1270071750501949e-62
11
173.66004724433637
21
-400.98229654272069
31
-2.1270071750501949e-62
0
LINE
5
308
100
AcDbEntity
8
0
100
AcDbLine
10
149.09209440619068
20
-407.45443249772018
30
-2.1270071750501949e-62
11
153.79437642453044
21
-400.98229654272069
31
-2.1270071750501949e-62
0
LINE
5
309
100
AcDbEntity
8
0
100
AcDbLine
10
163.72721183443338
20
-418.08746771169098
30
-2.1270071750501949e-62
11
178.36232926267616
21
-407.45443249772023
31
-2.1270071750501949e-62
0
LINE
5
310
100
AcDbEntity
8
0
100
AcDbLine
10
176.75049216284864
20
-398.73695687896344
30
-2.1270071750501949e-62
11
173.66004724433637
21
-400.98229654272069
31
-2.1270071750501949e-62
0
LINE
5
311
100
AcDbEntity
8
0
100
AcDbLine
10
143.72721183443349
20
-356.53379696818615
30
-2.1270071750501949e-62
11
138.13709440619073
21
-373.73840934796544
31
-2.1270071750501949e-62
0
LINE
5
312
100
AcDbEntity
8
0
100
AcDbLine
10
136.95664948767842
20
-377.37144524021289
30
-2.1270071750501949e-62
11
144.56510161803962
21
-379.84358119521244
31
-2.1270071750501949e-62
0
LINE
5
313
100
AcDbEntity
8
0
100
AcDbLine
10
181.45277418118843
20
-405.20909283396298
30
-2.1270071750501949e-62
11
176.75049216284864
21
-398.73695687896344
31
-2.1270071750501949e-62
0
LINE
5
314
100
AcDbEntity
8
0
100
AcDbLine
10
161.81721183443341
20
-356.53379696818615
30
-2.1270071750501949e-62
11
161.81721183443341
21
-364.53379696818615
31
-2.1270071750501949e-62
0
LINE
5
315
100
AcDbEntity
8
0
100
AcDbLine
10
153.79437642453044
20
-400.98229654272069
30
-2.1270071750501949e-62
11
150.70393150601817
21
-398.73695687896344
31
-2.1270071750501949e-62
0
LINE
5
316
100
AcDbEntity
8
0
100
AcDbLine
10
161.81721183443344
20
-416.69977148320078
30
-2.1270071750501949e-62
11
161.81721183443341
21
-418.08746771169098
31
-2.1270071750501949e-62
0
LINE
5
317
100
AcDbEntity
8
0
100
AcDbLine
10
161.81721183443341
20
-364.53379696818615
30
-2.1270071750501949e-62
11
165.6372118344334
21
-364.53379696818615
31
-2.1270071750501949e-62
0
LINE
5
318
100
AcDbEntity
8
0
100
AcDbLine
10
131.36653205943563
20
-394.57605761999218
30
-2.1270071750501949e-62
11
146.00164948767838
21
-405.20909283396293
31
-2.1270071750501949e-62
0
LINE
5
319
100
AcDbEntity
8
0
100
AcDbLine
10
161.81721183443341
20
-356.53379696818615
30
-2.1270071750501949e-62
11
143.72721183443349
21
-356.53379696818615
31
-2.1270071750501949e-62
0
LINE
5
320
100
AcDbEntity
8
0
100
AcDbLine
10
144.56510161803962
20
-379.84358119521244
30
-2.1270071750501949e-62
11
145.7455465365519
21
-376.21054530296499
31
-2.1270071750501949e-62
0
LINE
5
321
100
AcDbEntity
8
0
100
AcDbLine
10
165.6372118344334
20
-416.69977148320078
30
-2.1270071750501949e-62
11
165.6372118344334
21
-418.08746771169098
31
-2.1270071750501949e-62
0
LINE
5
322
100
AcDbEntity
8
0
100
AcDbLine
10
146.00164948767838
20
-405.20909283396293
30
-2.1270071750501949e-62
11
150.70393150601817
21
-398.73695687896344
31
-2.1270071750501949e-62
0
LINE
5
323
100
AcDbEntity
8
0
100
AcDbLine
10
149.09209440619068
20
-407.45443249772018
30
-2.1270071750501949e-62
11
163.72721183443338
21
-418.08746771169098
31
-2.1270071750501949e-62
0
LINE
5
324
100
AcDbEntity
8
0
100
AcDbLine
10
189.31732926267614
20
-373.73840934796544
30
-2.1270071750501949e-62
11
181.70887713231491
21
-376.21054530296499
31
-2.1270071750501949e-62
0
LINE
5
325
100
AcDbEntity
8
0
100
AcDbLine
10
233.72721183443343
20
-418.08746771169098
30
-4.2540143501003898e-62
11
266.08789160943115
21
-394.57605761999218
31
-4.2540143501003898e-62
0
LINE
5
326
100
AcDbEntity
8
0
100
AcDbLine
10
249.90755172193232
20
-406.33176266584155
30
-4.2540143501003898e-62
11
213.72721183443349
21
-356.53379696818615
31
-4.2540143501003898e-62
0
LINE
5
327
100
AcDbEntity
8
0
100
AcDbLine
10
251.70887713231494
20
-376.21054530296499
30
-4.2540143501003898e-62
11
252.88932205082722
21
-379.84358119521244
31
-4.2540143501003898e-62
0
LINE
5
328
100
AcDbEntity
8
0
100
AcDbLine
10
201.36653205943566
20
-394.57605761999218
30
-4.2540143501003898e-62
11
233.72721183443343
21
-418.08746771169098
31
-4.2540143501003898e-62
0
LINE
5
329
100
AcDbEntity
8
0
100
AcDbLine
10
235.6372118344334
20
-356.53379696818615
30
-4.2540143501003898e-62
11
235.6372118344334
21
-364.53379696818615
31
-4.2540143501003898e-62
0
LINE
5
330
100
AcDbEntity
8
0
100
AcDbLine
10
207.5468719469346
20
-375.55492729408917
30
-4.2540143501003898e-62
11
266.08789160943115
21
-394.57605761999218
31
-4.2540143501003898e-62
0
LINE
5
331
100
AcDbEntity
8
0
100
AcDbLine
10
213.72721183443349
20
-356.53379696818615
30
-4.2540143501003898e-62
11
201.36653205943566
21
-394.57605761999218
31
-4.2540143501003898e-62
0
LINE
5
332
100
AcDbEntity
8
0
100
AcDbLine
10
233.72721183443338
20
-356.53379696818615
30
-4.2540143501003898e-62
11
233.72721183443343
21
-418.08746771169098
31
-4.2540143501003898e-62
0
LINE
5
333
100
AcDbEntity
8
0
100
AcDbLine
10
259.90755172193229
20
-375.55492729408917
30
-4.2540143501003898e-62
11
201.36653205943566
21
-394.57605761999218
31
-4.2540143501003898e-62
0
LINE
5
334
100
AcDbEntity
8
0
100
AcDbLine
10
217.54687194693452
20
-406.33176266584155
30
-4.2540143501003898e-62
11
253.72721183443332
21
-356.53379696818615
31
-4.2540143501003898e-62
0
LINE
5
335
100
AcDbEntity
8
0
100
AcDbLine
10
266.08789160943115
20
-394.57605761999218
30
-4.2540143501003898e-62
11
253.72721183443332
21
-356.53379696818615
31
-4.2540143501003898e-62
0
LINE
5
336
100
AcDbEntity
8
0
100
AcDbLine
10
266.08789160943115
20
-394.57605761999218
30
-4.2540143501003898e-62
11
260.49777418118845
21
-377.37144524021289
31
-4.2540143501003898e-62
0
LINE
5
337
100
AcDbEntity
8
0
100
AcDbLine
10
206.95664948767842
20
-377.37144524021289
30
-4.2540143501003898e-62
11
201.36653205943566
21
-394.57605761999218
31
-4.2540143501003898e-62
0
LINE
5
338
100
AcDbEntity
8
0
100
AcDbLine
10
253.72721183443332
20
-356.53379696818615
30
-4.2540143501003898e-62
11
213.72721183443349
21
-356.53379696818615
31
-4.2540143501003898e-62
0
LINE
5
339
100
AcDbEntity
8
0
100
AcDbLine
10
260.49777418118845
20
-377.37144524021289
30
-4.2540143501003898e-62
11
252.88932205082722
21
-379.84358119521244
31
-4.2540143501003898e-62
0
LINE
5
340
100
AcDbEntity
8
0
100
AcDbLine
10
251.45277418118843
20
-405.20909283396298
30
-4.2540143501003898e-62
11
266.08789160943115
21
-394.57605761999218
31
-4.2540143501003898e-62
0
LINE
5
341
100
AcDbEntity
8
0
100
AcDbLine
10
259.31732926267614
20
-373.73840934796544
30
-4.2540143501003898e-62
11
253.72721183443332
21
-356.53379696818615
31
-4.2540143501003898e-62
0
LINE
5
342
100
AcDbEntity
8
0
100
AcDbLine
10
253.72721183443332
20
-356.53379696818615
30
-4.2540143501003898e-62
11
235.6372118344334
21
-356.53379696818615
31
-4.2540143501003898e-62
0
LINE
5
343
100
AcDbEntity
8
0
100
AcDbLine
10
208.13709440619076
20
-373.73840934796544
30
-4.2540143501003898e-62
11
215.74554653655196
21
-376.21054530296499
31
-4.2540143501003898e-62
0
LINE
5
344
100
AcDbEntity
8
0
100
AcDbLine
10
248.36232926267621
20
-407.45443249772023
30
-4.2540143501003898e-62
11
243.6600472443364
21
-400.98229654272069
31
-4.2540143501003898e-62
0
LINE
5
345
100
AcDbEntity
8
0
100
AcDbLine
10
219.09209440619068
20
-407.45443249772018
30
-4.2540143501003898e-62
11
223.79437642453044
21
-400.98229654272069
31
-4.2540143501003898e-62
0
LINE
5
346
100
AcDbEntity
8
0
100
AcDbLine
10
233.72721183443343
20
-418.08746771169098
30
-4.2540143501003898e-62
11
248.36232926267621
21
-407.45443249772023
31
-4.2540143501003898e-62
0
LINE
5
347
100
AcDbEntity
8
0
100
AcDbLine
10
246.75049216284867
20
-398.73695687896344
30
-4.2540143501003898e-62
11
243.6600472443364
21
-400.98229654272069
31
-4.2540143501003898e-62
0
LINE
5
348
100
AcDbEntity
8
0
100
AcDbLine
10
213.72721183443349
20
-356.53379696818615
30
-4.2540143501003898e-62
11
208.13709440619076
21
-373.73840934796544
31
-4.2540143501003898e-62
0
LINE
5
349
100
AcDbEntity
8
0
100
AcDbLine
10
206.95664948767842
20
-377.37144524021289
30
-4.2540143501003898e-62
11
214.56510161803962
21
-379.84358119521244
31
-4.2540143501003898e-62
0
LINE
5
350
100
AcDbEntity
8
0
100
AcDbLine
10
251.45277418118843
20
-405.20909283396298
30
-4.2540143501003898e-62
11
246.75049216284867
21
-398.73695687896344
31
-4.2540143501003898e-62
0
LINE
5
351
100
AcDbEntity
8
0
100
AcDbLine
10
231.81721183443344
20
-356.53379696818615
30
-4.2540143501003898e-62
11
231.81721183443344
21
-364.53379696818615
31
-4.2540143501003898e-62
0
LINE
5
352
100
AcDbEntity
8
0
100
AcDbLine
10
223.79437642453044
20
-400.98229654272069
30
-4.2540143501003898e-62
11
220.70393150601817
21
-398.73695687896344
31
-4.2540143501003898e-62
0
LINE
5
353
100
AcDbEntity
8
0
100
AcDbLine
10
231.81721183443344
20
-416.69977148320078
30
-4.2540143501003898e-62
11
231.81721183443344
21
-418.08746771169098
31
-4.2540143501003898e-62
0
LINE
5
354
100
AcDbEntity
8
0
100
AcDbLine
10
231.81721183443344
20
-364.53379696818615
30
-4.2540143501003898e-62
11
235.6372118344334
21
-364.53379696818615
31
-4.2540143501003898e-62
0
LINE
5
355
100
AcDbEntity
8
0
100
AcDbLine
10
201.36653205943566
20
-394.57605761999218
30
-4.2540143501003898e-62
11
216.00164948767841
21
-405.20909283396293
31
-4.2540143501003898e-62
0
LINE
5
356
100
AcDbEntity
8
0
100
AcDbLine
10
231.81721183443344
20
-356.53379696818615
30
-4.2540143501003898e-62
11
213.72721183443349
21
-356.53379696818615
31
-4.2540143501003898e-62
0
LINE
5
357
100
AcDbEntity
8
0
100
AcDbLine
10
214.56510161803962
20
-379.84358119521244
30
-4.2540143501003898e-62
11
215.74554653655196
21
-376.21054530296499
31
-4.2540143501003898e-62
0
LINE
5
358
100
AcDbEntity
8
0
100
AcDbLine
10
235.6372118344334
20
-416.69977148320078
30
-4.2540143501003898e-62
11
235.6372118344334
21
-418.08746771169098
31
-4.2540143501003898e-62
0
LINE
5
359
100
AcDbEntity
8
0
100
AcDbLine
10
216.00164948767841
20
-405.20909283396293
30
-4.2540143501003898e-62
11
220.70393150601817
21
-398.73695687896344
31
-4.2540143501003898e-62
0
LINE
5
360
100
AcDbEntity
8
0
100
AcDbLine
10
219.09209440619068
20
-407.45443249772018
30
-4.2540143501003898e-62
11
233.72721183443343
21
-418.08746771169098
31
-4.2540143501003898e-62
0
LINE
5
361
100
AcDbEntity
8
0
100
AcDbLine
10
259.31732926267614
20
-373.73840934796544
30
-4.2540143501003898e-62
11
251.70887713231494
21
-376.21054530296499
31
-4.2540143501003898e-62
0
LINE
5
362
100
AcDbEntity
8
0
100
AcDbLine
10
303.72721183443343
20
-418.08746771169098
30
-6.3810215251505848e-62
11
336.08789160943115
21
-394.57605761999218
31
-6.3810215251505848e-62
0
LINE
5
363
100
AcDbEntity
8
0
100
AcDbLine
10
319.90755172193235
20
-406.33176266584155
30
-6.3810215251505848e-62
11
283.72721183443349
21
-356.53379696818615
31
-6.3810215251505848e-62
0
LINE
5
364
100
AcDbEntity
8
0
100
AcDbLine
10
321.70887713231491
20
-376.21054530296499
30
-6.3810215251505848e-62
11
322.88932205082722
21
-379.84358119521244
31
-6.3810215251505848e-62
0
LINE
5
365
100
AcDbEntity
8
0
100
AcDbLine
10
271.36653205943566
20
-394.57605761999218
30
-6.3810215251505848e-62
11
303.72721183443343
21
-418.08746771169098
31
-6.3810215251505848e-62
0
LINE
5
366
100
AcDbEntity
8
0
100
AcDbLine
10
305.6372118344334
20
-356.53379696818615
30
-6.3810215251505848e-62
11
305.6372118344334
21
-364.53379696818615
31
-6.3810215251505848e-62
0
LINE
5
367
100
AcDbEntity
8
0
100
AcDbLine
10
277.54687194693463
20
-375.55492729408917
30
-6.3810215251505848e-62
11
336.08789160943115
21
-394.57605761999218
31
-6.3810215251505848e-62
0
LINE
5
368
100
AcDbEntity
8
0
100
AcDbLine
10
283.72721183443349
20
-356.53379696818615
30
-6.3810215251505848e-62
11
271.36653205943566
21
-394.57605761999218
31
-6.3810215251505848e-62
0
LINE
5
369
100
AcDbEntity
8
0
100
AcDbLine
10
303.72721183443338
20
-356.53379696818615
30
-6.3810215251505848e-62
11
303.72721183443343
21
-418.08746771169098
31
-6.3810215251505848e-62
0
LINE
5
370
100
AcDbEntity
8
0
100
AcDbLine
10
329.90755172193235
20
-375.55492729408917
30
-6.3810215251505848e-62
11
271.36653205943566
21
-394.57605761999218
31
-6.3810215251505848e-62
0
LINE
5
371
100
AcDbEntity
8
0
100
AcDbLine
10
287.54687194693452
20
-406.33176266584155
30
-6.3810215251505848e-62
11
323.72721183443332
21
-356.53379696818615
31
-6.3810215251505848e-62
0
LINE
5
372
100
AcDbEntity
8
0
100
AcDbLine
10
336.08789160943115
20
-394.57605761999218
30
-6.3810215251505848e-62
11
323.72721183443332
21
-356.53379696818615
31
-6.3810215251505848e-62
0
LINE
5
373
100
AcDbEntity
8
0
100
AcDbLine
10
336.08789160943115
20
-394.57605761999218
30
-6.3810215251505848e-62
11
330.49777418118845
21
-377.37144524021289
31
-6.3810215251505848e-62
0
LINE
5
374
100
AcDbEntity
8
0
100
AcDbLine
10
276.95664948767842
20
-377.37144524021289
30
-6.3810215251505848e-62
11
271.36653205943566
21
-394.57605761999218
31
-6.3810215251505848e-62
0
LINE
5
375
100
AcDbEntity
8
0
100
AcDbLine
10
323.72721183443332
20
-356.53379696818615
30
-6.3810215251505848e-62
11
283.72721183443349
21
-356.53379696818615
31
-6.3810215251505848e-62
0
LINE
5
376
100
AcDbEntity
8
0
100
AcDbLine
10
330.49777418118845
20
-377.37144524021289
30
-6.3810215251505848e-62
11
322.88932205082722
21
-379.84358119521244
31
-6.3810215251505848e-62
0
LINE
5
377
100
AcDbEntity
8
0
100
AcDbLine
10
321.45277418118843
20
-405.20909283396298
30
-6.3810215251505848e-62
11
336.08789160943115
21
-394.57605761999218
31
-6.3810215251505848e-62
0
LINE
5
378
100
AcDbEntity
8
0
100
AcDbLine
10
329.31732926267614
20
-373.73840934796544
30
-6.3810215251505848e-62
11
323.72721183443332
21
-356.53379696818615
31
-6.3810215251505848e-62
0
LINE
5
379
100
AcDbEntity
8
0
100
AcDbLine
10
323.72721183443332
20
-356.53379696818615
30
-6.3810215251505848e-62
11
305.6372118344334
21
-356.53379696818615
31
-6.3810215251505848e-62
0
LINE
5
380
100
AcDbEntity
8
0
100
AcDbLine
10
278.13709440619073
20
-373.73840934796544
30
-6.3810215251505848e-62
11
285.74554653655196
21
-376.21054530296499
31
-6.3810215251505848e-62
0
LINE
5
381
100
AcDbEntity
8
0
100
AcDbLine
10
318.36232926267621
20
-407.45443249772023
30
-6.3810215251505848e-62
11
313.6600472443364
21
-400.98229654272069
31
-6.3810215251505848e-62
0
LINE
5
382
100
AcDbEntity
8
0
100
AcDbLine
10
289.09209440619071
20
-407.45443249772018
30
-6.3810215251505848e-62
11
293.79437642453047
21
-400.98229654272069
31
-6.3810215251505848e-62
0
LINE
5
383
100
AcDbEntity
8
0
100
AcDbLine
10
303.72721183443343
20
-418.08746771169098
30
-6.3810215251505848e-62
11
318.36232926267621
21
-407.45443249772023
31
-6.3810215251505848e-62
0
LINE
5
384
100
AcDbEntity
8
0
100
AcDbLine
10
316.75049216284867
20
-398.73695687896344
30
-6.3810215251505848e-62
11
313.6600472443364
21
-400.98229654272069
31
-6.3810215251505848e-62
0
LINE
5
385
100
AcDbEntity
8
0
100
AcDbLine
10
283.72721183443349
20
-356.53379696818615
30
-6.3810215251505848e-62
11
278.13709440619073
21
-373.73840934796544
31
-6.3810215251505848e-62
0
LINE
5
386
100
AcDbEntity
8
0
100
AcDbLine
10
276.95664948767842
20
-377.37144524021289
30
-6.3810215251505848e-62
11
284.56510161803965
21
-379.84358119521244
31
-6.3810215251505848e-62
0
LINE
5
387
100
AcDbEntity
8
0
100
AcDbLine
10
321.45277418118843
20
-405.20909283396298
30
-6.3810215251505848e-62
11
316.75049216284867
21
-398.73695687896344
31
-6.3810215251505848e-62
0
LINE
5
388
100
AcDbEntity
8
0
100
AcDbLine
10
301.81721183443346
20
-356.53379696818615
30
-6.3810215251505848e-62
11
301.81721183443346
21
-364.53379696818615
31
-6.3810215251505848e-62
0
LINE
5
389
100
AcDbEntity
8
0
100
AcDbLine
10
293.79437642453047
20
-400.98229654272069
30
-6.3810215251505848e-62
11
290.70393150601819
21
-398.73695687896344
31
-6.3810215251505848e-62
0
LINE
5
390
100
AcDbEntity
8
0
100
AcDbLine
10
301.81721183443346
20
-416.69977148320078
30
-6.3810215251505848e-62
11
301.81721183443346
21
-418.08746771169098
31
-6.3810215251505848e-62
0
LINE
5
391
100
AcDbEntity
8
0
100
AcDbLine
10
301.81721183443346
20
-364.53379696818615
30
-6.3810215251505848e-62
11
305.6372118344334
21
-364.53379696818615
31
-6.3810215251505848e-62
0
LINE
5
392
100
AcDbEntity
8
0
100
AcDbLine
10
271.36653205943566
20
-394.57605761999218
30
-6.3810215251505848e-62
11
286.00164948767838
21
-405.20909283396293
31
-6.3810215251505848e-62
0
LINE
5
393
100
AcDbEntity
8
0
100
AcDbLine
10
301.81721183443346
20
-356.53379696818615
30
-6.3810215251505848e-62
11
283.72721183443349
21
-356.53379696818615
31
-6.3810215251505848e-62
0
LINE
5
394
100
AcDbEntity
8
0
100
AcDbLine
10
284.56510161803965
20
-379.84358119521244
30
-6.3810215251505848e-62
11
285.74554653655196
21
-376.21054530296499
31
-6.3810215251505848e-62
0
LINE
5
395
100
AcDbEntity
8
0
100
AcDbLine
10
305.6372118344334
20
-416.69977148320078
30
-6.3810215251505848e-62
11
305.6372118344334
21
-418.08746771169098
31
-6.3810215251505848e-62
0
LINE
5
396
100
AcDbEntity
8
0
100
AcDbLine
10
286.00164948767838
20
-405.20909283396293
30
-6.3810215251505848e-62
11
290.70393150601819
21
-398.73695687896344
31
-6.3810215251505848e-62
0
LINE
5
397
100
AcDbEntity
8
0
100
AcDbLine
10
289.09209440619071
20
-407.45443249772018
30
-6.3810215251505848e-62
11
303.72721183443343
21
-418.08746771169098
31
-6.3810215251505848e-62
0
LINE
5
398
100
AcDbEntity
8
0
100
AcDbLine
10
329.31732926267614
20
-373.73840934796544
30
-6.3810215251505848e-62
11
321.70887713231491
21
-376.21054530296499
31
-6.3810215251505848e-62
0
LINE
5
399
100
AcDbEntity
8
0
100
AcDbLine
10
93.72721183443339
20
-353.08746771169098
30
0
11
126.08789160943117
21
-329.57605761999218
31
0
0
LINE
5
400
100
AcDbEntity
8
0
100
AcDbLine
10
109.90755172193226
20
-341.33176266584155
30
0
11
73.727211834433476
21
-291.53379696818615
31
0
0
LINE
5
401
100
AcDbEntity
8
0
100
AcDbLine
10
111.70887713231488
20
-311.21054530296493
30
0
11
112.88932205082718
21
-314.84358119521244
31
0
0
LINE
5
402
100
AcDbEntity
8
0
100
AcDbLine
10
61.366532059435627
20
-329.57605761999218
30
0
11
93.72721183443339
21
-353.08746771169098
31
0
0
LINE
5
403
100
AcDbEntity
8
0
100
AcDbLine
10
95.637211834433373
20
-291.53379696818615
30
0
11
95.637211834433373
21
-299.5337969681861
31
0
0
LINE
5
404
100
AcDbEntity
8
0
100
AcDbLine
10
67.546871946934559
20
-310.55492729408917
30
0
11
126.08789160943117
21
-329.57605761999218
31
0
0
LINE
5
405
100
AcDbEntity
8
0
100
AcDbLine
10
73.727211834433476
20
-291.53379696818615
30
0
11
61.366532059435627
21
-329.57605761999218
31
0
0
LINE
5
406
100
AcDbEntity
8
0
100
AcDbLine
10
93.727211834433376
20
-291.53379696818615
30
0
11
93.72721183443339
21
-353.08746771169098
31
0
0
LINE
5
407
100
AcDbEntity
8
0
100
AcDbLine
10
119.90755172193225
20
-310.55492729408917
30
0
11
61.366532059435627
21
-329.57605761999218
31
0
0
LINE
5
408
100
AcDbEntity
8
0
100
AcDbLine
10
77.546871946934516
20
-341.33176266584155
30
0
11
113.72721183443331
21
-291.53379696818615
31
0
0
LINE
5
409
100
AcDbEntity
8
0
100
AcDbLine
10
126.08789160943117
20
-329.57605761999218
30
0
11
113.72721183443331
21
-291.53379696818615
31
0
0
LINE
5
410
100
AcDbEntity
8
0
100
AcDbLine
10
126.08789160943117
20
-329.57605761999218
30
0
11
120.49777418118839
21
-312.37144524021284
31
0
0
LINE
5
411
100
AcDbEntity
8
0
100
AcDbLine
10
66.956649487678391
20
-312.37144524021284
30
0
11
61.366532059435627
21
-329.57605761999218
31
0
0
LINE
5
412
100
AcDbEntity
8
0
100
AcDbLine
10
113.72721183443331
20
-291.53379696818615
30
0
11
73.727211834433476
21
-291.53379696818615
31
0
0
LINE
5
413
100
AcDbEntity
8
0
100
AcDbLine
10
120.49777418118839
20
-312.37144524021284
30
0
11
112.88932205082718
21
-314.84358119521244
31
0
0
LINE
5
414
100
AcDbEntity
8
0
100
AcDbLine
10
111.45277418118843
20
-340.20909283396293
30
0
11
126.08789160943117
21
-329.57605761999218
31
0
0
LINE
5
415
100
AcDbEntity
8
0
100
AcDbLine
10
119.31732926267611
20
-308.73840934796544
30
0
11
113.72721183443331
21
-291.53379696818615
31
0
0
LINE
5
416
100
AcDbEntity
8
0
100
AcDbLine
10
113.72721183443331
20
-291.53379696818615
30
0
11
95.637211834433373
21
-291.53379696818615
31
0
0
LINE
5
417
100
AcDbEntity
8
0
100
AcDbLine
10
68.137094406190698
20
-308.73840934796544
30
0
11
75.745546536551899
21
-311.21054530296493
31
0
0
LINE
5
418
100
AcDbEntity
8
0
100
AcDbLine
10
108.36232926267614
20
-342.45443249772023
30
0
11
103.66004724433637
21
-335.98229654272063
31
0
0
LINE
5
419
100
AcDbEntity
8
0
100
AcDbLine
10
79.092094406190654
20
-342.45443249772006
30
0
11
83.794376424530412
21
-335.98229654272063
31
0
0
LINE
5
420
100
AcDbEntity
8
0
100
AcDbLine
10
93.72721183443339
20
-353.08746771169098
30
0
11
108.36232926267614
21
-342.45443249772023
31
0
0
LINE
5
421
100
AcDbEntity
8
0
100
AcDbLine
10
106.75049216284863
20
-333.73695687896344
30
0
11
103.66004724433637
21
-335.98229654272063
31
0
0
LINE
5
422
100
AcDbEntity
8
0
100
AcDbLine
10
73.727211834433476
20
-291.53379696818615
30
0
11
68.137094406190698
21
-308.73840934796544
31
0
0
LINE
5
423
100
AcDbEntity
8
0
100
AcDbLine
10
66.956649487678391
20
-312.37144524021284
30
0
11
74.565101618039591
21
-314.84358119521244
31
0
0
LINE
5
424
100
AcDbEntity
8
0
100
AcDbLine
10
111.45277418118843
20
-340.20909283396293
30
0
11
106.75049216284863
21
-333.73695687896344
31
0
0
LINE
5
425
100
AcDbEntity
8
0
100
AcDbLine
10
91.81721183443338
20
-291.53379696818615
30
0
11
91.81721183443338
21
-299.5337969681861
31
0
0
LINE
5
426
100
AcDbEntity
8
0
100
AcDbLine
10
83.794376424530412
20
-335.98229654272063
30
0
11
80.703931506018151
21
-333.73695687896344
31
0
0
LINE
5
427
100
AcDbEntity
8
0
100
AcDbLine
10
91.817211834433408
20
-351.69977148320072
30
0
11
91.81721183443338
21
-353.08746771169098
31
0
0
LINE
5
428
100
AcDbEntity
8
0
100
AcDbLine
10
91.81721183443338
20
-299.5337969681861
30
0
11
95.637211834433373
21
-299.5337969681861
31
0
0
LINE
5
429
100
AcDbEntity
8
0
100
AcDbLine
10
61.366532059435627
20
-329.57605761999218
30
0
11
76.001649487678364
21
-340.20909283396293
31
0
0
LINE
5
430
100
AcDbEntity
8
0
100
AcDbLine
10
91.81721183443338
20
-291.53379696818615
30
0
11
73.727211834433476
21
-291.53379696818615
31
0
0
LINE
5
431
100
AcDbEntity
8
0
100
AcDbLine
10
74.565101618039591
20
-314.84358119521244
30
0
11
75.745546536551899
21
-311.21054530296493
31
0
0
LINE
5
432
100
AcDbEntity
8
0
100
AcDbLine
10
95.637211834433373
20
-351.69977148320072
30
0
11
95.637211834433373
21
-353.08746771169098
31
0
0
LINE
5
433
100
AcDbEntity
8
0
100
AcDbLine
10
76.001649487678364
20
-340.20909283396293
30
0
11
80.703931506018151
21
-333.73695687896344
31
0
0
LINE
5
434
100
AcDbEntity
8
0
100
AcDbLine
10
79.092094406190654
20
-342.45443249772006
30
0
11
93.72721183443339
21
-353.08746771169098
31
0
0
LINE
5
435
100
AcDbEntity
8
0
100
AcDbLine
10
119.31732926267611
20
-308.73840934796544
30
0
11
111.70887713231488
21
-311.21054530296493
31
0
0
LINE
5
436
100
AcDbEntity
8
0
100
AcDbLine
10
163.72721183443338
20
-353.08746771169098
30
-2.1270071750501949e-62
11
196.08789160943118
21
-329.57605761999218
31
-2.1270071750501949e-62
0
LINE
5
437
100
AcDbEntity
8
0
100
AcDbLine
10
179.90755172193229
20
-341.33176266584155
30
-2.1270071750501949e-62
11
143.72721183443349
21
-291.53379696818615
31
-2.1270071750501949e-62
0
LINE
5
438
100
AcDbEntity
8
0
100
AcDbLine
10
181.70887713231491
20
-311.21054530296493
30
-2.1270071750501949e-62
11
182.88932205082719
21
-314.84358119521244
31
-2.1270071750501949e-62
0
LINE
5
439
100
AcDbEntity
8
0
100
AcDbLine
10
131.36653205943563
20
-329.57605761999218
30
-2.1270071750501949e-62
11
163.72721183443338
21
-353.08746771169098
31
-2.1270071750501949e-62
0
LINE
5
440
100
AcDbEntity
8
0
100
AcDbLine
10
165.6372118344334
20
-291.53379696818615
30
-2.1270071750501949e-62
11
165.6372118344334
21
-299.5337969681861
31
-2.1270071750501949e-62
0
LINE
5
441
100
AcDbEntity
8
0
100
AcDbLine
10
137.54687194693457
20
-310.55492729408917
30
-2.1270071750501949e-62
11
196.08789160943118
21
-329.57605761999218
31
-2.1270071750501949e-62
0
LINE
5
442
100
AcDbEntity
8
0
100
AcDbLine
10
143.72721183443349
20
-291.53379696818615
30
-2.1270071750501949e-62
11
131.36653205943563
21
-329.57605761999218
31
-2.1270071750501949e-62
0
LINE
5
443
100
AcDbEntity
8
0
100
AcDbLine
10
163.72721183443338
20
-291.53379696818615
30
-2.1270071750501949e-62
11
163.72721183443338
21
-353.08746771169098
31
-2.1270071750501949e-62
0
LINE
5
444
100
AcDbEntity
8
0
100
AcDbLine
10
189.90755172193224
20
-310.55492729408917
30
-2.1270071750501949e-62
11
131.36653205943563
21
-329.57605761999218
31
-2.1270071750501949e-62
0
LINE
5
445
100
AcDbEntity
8
0
100
AcDbLine
10
147.54687194693452
20
-341.33176266584155
30
-2.1270071750501949e-62
11
183.72721183443332
21
-291.53379696818615
31
-2.1270071750501949e-62
0
LINE
5
446
100
AcDbEntity
8
0
100
AcDbLine
10
196.08789160943118
20
-329.57605761999218
30
-2.1270071750501949e-62
11
183.72721183443332
21
-291.53379696818615
31
-2.1270071750501949e-62
0
LINE
5
447
100
AcDbEntity
8
0
100
AcDbLine
10
196.08789160943118
20
-329.57605761999218
30
-2.1270071750501949e-62
11
190.49777418118845
21
-312.37144524021284
31
-2.1270071750501949e-62
0
LINE
5
448
100
AcDbEntity
8
0
100
AcDbLine
10
136.95664948767842
20
-312.37144524021284
30
-2.1270071750501949e-62
11
131.36653205943563
21
-329.57605761999218
31
-2.1270071750501949e-62
0
LINE
5
449
100
AcDbEntity
8
0
100
AcDbLine
10
183.72721183443332
20
-291.53379696818615
30
-2.1270071750501949e-62
11
143.72721183443349
21
-291.53379696818615
31
-2.1270071750501949e-62
0
LINE
5
450
100
AcDbEntity
8
0
100
AcDbLine
10
190.49777418118845
20
-312.37144524021284
30
-2.1270071750501949e-62
11
182.88932205082719
21
-314.84358119521244
31
-2.1270071750501949e-62
0
LINE
5
451
100
AcDbEntity
8
0
100
AcDbLine
10
181.45277418118843
20
-340.20909283396293
30
-2.1270071750501949e-62
11
196.08789160943118
21
-329.57605761999218
31
-2.1270071750501949e-62
0
LINE
5
452
100
AcDbEntity
8
0
100
AcDbLine
10
189.31732926267614
20
-308.73840934796544
30
-2.1270071750501949e-62
11
183.72721183443332
21
-291.53379696818615
31
-2.1270071750501949e-62
0
LINE
5
453
100
AcDbEntity
8
0
100
AcDbLine
10
183.72721183443332
20
-291.53379696818615
30
-2.1270071750501949e-62
11
165.6372118344334
21
-291.53379696818615
31
-2.1270071750501949e-62
0
LINE
5
454
100
AcDbEntity
8
0
100
AcDbLine
10
138.13709440619073
20
-308.73840934796544
30
-2.1270071750501949e-62
11
145.7455465365519
21
-311.21054530296493
31
-2.1270071750501949e-62
0
LINE
5
455
100
AcDbEntity
8
0
100
AcDbLine
10
178.36232926267616
20
-342.45443249772023
30
-2.1270071750501949e-62
11
173.66004724433637
21
-335.98229654272063
31
-2.1270071750501949e-62
0
LINE
5
456
100
AcDbEntity
8
0
100
AcDbLine
10
149.09209440619068
20
-342.45443249772006
30
-2.1270071750501949e-62
11
153.79437642453044
21
-335.98229654272063
31
-2.1270071750501949e-62
0
LINE
5
457
100
AcDbEntity
8
0
100
AcDbLine
10
163.72721183443338
20
-353.08746771169098
30
-2.1270071750501949e-62
11
178.36232926267616
21
-342.45443249772023
31
-2.1270071750501949e-62
0
LINE
5
458
100
AcDbEntity
8
0
100
AcDbLine
10
176.75049216284864
20
-333.73695687896344
30
-2.1270071750501949e-62
11
173.66004724433637
21
-335.98229654272063
31
-2.1270071750501949e-62
0
LINE
5
459
100
AcDbEntity
8
0
100
AcDbLine
10
143.72721183443349
20
-291.53379696818615
30
-2.1270071750501949e-62
11
138.13709440619073
21
-308.73840934796544
31
-2.1270071750501949e-62
0
LINE
5
460
100
AcDbEntity
8
0
100
AcDbLine
10
136.95664948767842
20
-312.37144524021284
30
-2.1270071750501949e-62
11
144.56510161803962
21
-314.84358119521244
31
-2.1270071750501949e-62
0
LINE
5
461
100
AcDbEntity
8
0
100
AcDbLine
10
181.45277418118843
20
-340.20909283396293
30
-2.1270071750501949e-62
11
176.75049216284864
21
-333.73695687896344
31
-2.1270071750501949e-62
0
LINE
5
462
100
AcDbEntity
8
0
100
AcDbLine
10
161.81721183443341
20
-291.53379696818615
30
-2.1270071750501949e-62
11
161.81721183443341
21
-299.5337969681861
31
-2.1270071750501949e-62
0
LINE
5
463
100
AcDbEntity
8
0
100
AcDbLine
10
153.79437642453044
20
-335.98229654272063
30
-2.1270071750501949e-62
11
150.70393150601817
21
-333.73695687896344
31
-2.1270071750501949e-62
0
LINE
5
464
100
AcDbEntity
8
0
100
AcDbLine
10
161.81721183443344
20
-351.69977148320072
30
-2.1270071750501949e-62
11
161.81721183443341
21
-353.08746771169098
31
-2.1270071750501949e-62
0
LINE
5
465
100
AcDbEntity
8
0
100
AcDbLine
10
161.81721183443341
20
-299.5337969681861
30
-2.1270071750501949e-62
11
165.6372118344334
21
-299.5337969681861
31
-2.1270071750501949e-62
0
LINE
5
466
100
AcDbEntity
8
0
100
AcDbLine
10
131.36653205943563
20
-329.57605761999218
30
-2.1270071750501949e-62
11
146.00164948767838
21
-340.20909283396293
31
-2.1270071750501949e-62
0
LINE
5
467
100
AcDbEntity
8
0
100
AcDbLine
10
161.81721183443341
20
-291.53379696818615
30
-2.1270071750501949e-62
11
143.72721183443349
21
-291.53379696818615
31
-2.1270071750501949e-62
0
LINE
5
468
100
AcDbEntity
8
0
100
AcDbLine
10
144.56510161803962
20
-314.84358119521244
30
-2.1270071750501949e-62
11
145.7455465365519
21
-311.21054530296493
31
-2.1270071750501949e-62
0
LINE
5
469
100
AcDbEntity
8
0
100
AcDbLine
10
165.6372118344334
20
-351.69977148320072
30
-2.1270071750501949e-62
11
165.6372118344334
21
-353.08746771169098
31
-2.1270071750501949e-62
0
LINE
5
470
100
AcDbEntity
8
0
100
AcDbLine
10
146.00164948767838
20
-340.20909283396293
30
-2.1270071750501949e-62
11
150.70393150601817
21
-333.73695687896344
31
-2.1270071750501949e-62
0
LINE
5
471
100
AcDbEntity
8
0
100
AcDbLine
10
149.09209440619068
20
-342.45443249772006
30
-2.1270071750501949e-62
11
163.72721183443338
21
-353.08746771169098
31
-2.1270071750501949e-62
0
LINE
5
472
100
AcDbEntity
8
0
100
AcDbLine
10
189.31732926267614
20
-308.73840934796544
30
-2.1270071750501949e-62
11
181.70887713231491
21
-311.21054530296493
31
-2.1270071750501949e-62
0
LINE
5
473
100
AcDbEntity
8
0
100
AcDbLine
10
233.72721183443343
20
-353.08746771169098
30
-4.2540143501003898e-62
11
266.08789160943115
21
-329.57605761999218
31
-4.2540143501003898e-62
0
LINE
5
474
100
AcDbEntity
8
0
100
AcDbLine
10
249.90755172193232
20
-341.33176266584155
30
-4.2540143501003898e-62
11
213.72721183443349
21
-291.53379696818615
31
-4.2540143501003898e-62
0
LINE
5
475
100
AcDbEntity
8
0
100
AcDbLine
10
251.70887713231494
20
-311.21054530296493
30
-4.2540143501003898e-62
11
252.88932205082722
21
-314.84358119521244
31
-4.2540143501003898e-62
0
LINE
5
476
100
AcDbEntity
8
0
100
AcDbLine
10
201.36653205943566
20
-329.57605761999218
30
-4.2540143501003898e-62
11
233.72721183443343
21
-353.08746771169098
31
-4.2540143501003898e-62
0
LINE
5
477
100
AcDbEntity
8
0
100
AcDbLine
10
235.6372118344334
20
-291.53379696818615
30
-4.2540143501003898e-62
11
235.6372118344334
21
-299.5337969681861
31
-4.2540143501003898e-62
0
LINE
5
478
100
AcDbEntity
8
0
100
AcDbLine
10
207.5468719469346
20
-310.55492729408917
30
-4.2540143501003898e-62
11
266.08789160943115
21
-329.57605761999218
31
-4.2540143501003898e-62
0
LINE
5
479
100
AcDbEntity
8
0
100
AcDbLine
10
213.72721183443349
20
-291.53379696818615
30
-4.2540143501003898e-62
11
201.36653205943566
21
-329.57605761999218
31
-4.2540143501003898e-62
0
LINE
5
480
100
AcDbEntity
8
0
100
AcDbLine
10
233.72721183443338
20
-291.53379696818615
30
-4.2540143501003898e-62
11
233.72721183443343
21
-353.08746771169098
31
-4.2540143501003898e-62
0
LINE
5
481
100
AcDbEntity
8
0
100
AcDbLine
10
259.90755172193229
20
-310.55492729408917
30
-4.2540143501003898e-62
11
201.36653205943566
21
-329.57605761999218
31
-4.2540143501003898e-62
0
LINE
5
482
100
AcDbEntity
8
0
100
AcDbLine
10
217.54687194693452
20
-341.33176266584155
30
-4.2540143501003898e-62
11
253.72721183443332
21
-291.53379696818615
31
-4.2540143501003898e-62
0
LINE
5
483
100
AcDbEntity
8
0
100
AcDbLine
10
266.08789160943115
20
-329.57605761999218
30
-4.2540143501003898e-62
11
253.72721183443332
21
-291.53379696818615
31
-4.2540143501003898e-62
0
LINE
5
484
100
AcDbEntity
8
0
100
AcDbLine
10
266.08789160943115
20
-329.57605761999218
30
-4.2540143501003898e-62
11
260.49777418118845
21
-312.37144524021284
31
-4.2540143501003898e-62
0
LINE
5
485
100
AcDbEntity
8
0
100
AcDbLine
10
206.95664948767842
20
-312.37144524021284
30
-4.2540143501003898e-62
11
201.36653205943566
21
-329.57605761999218
31
-4.2540143501003898e-62
0
LINE
5
486
100
AcDbEntity
8
0
100
AcDbLine
10
253.72721183443332
20
-291.53379696818615
30
-4.2540143501003898e-62
11
213.72721183443349
21
-291.53379696818615
31
-4.2540143501003898e-62
0
LINE
5
487
100
AcDbEntity
8
0
100
AcDbLine
10
260.49777418118845
20
-312.37144524021284
30
-4.2540143501003898e-62
11
252.88932205082722
21
-314.84358119521244
31
-4.2540143501003898e-62
0
LINE
5
488
100
AcDbEntity
8
0
100
AcDbLine
10
251.45277418118843
20
-340.20909283396293
30
-4.2540143501003898e-62
11
266.08789160943115
21
-329.57605761999218
31
-4.2540143501003898e-62
0
LINE
5
489
100
AcDbEntity
8
0
100
AcDbLine
10
259.31732926267614
20
-308.73840934796544
30
-4.2540143501003898e-62
11
253.72721183443332
21
-291.53379696818615
31
-4.2540143501003898e-62
0
LINE
5
490
100
AcDbEntity
8
0
100
AcDbLine
10
253.72721183443332
20
-291.53379696818615
30
-4.2540143501003898e-62
11
235.6372118344334
21
-291.53379696818615
31
-4.2540143501003898e-62
0
LINE
5
491
100
AcDbEntity
8
0
100
AcDbLine
10
208.13709440619076
20
-308.73840934796544
30
-4.2540143501003898e-62
11
215.74554653655196
21
-311.21054530296493
31
-4.2540143501003898e-62
0
LINE
5
492
100
AcDbEntity
8
0
100
AcDbLine
10
248.36232926267621
20
-342.45443249772023
30
-4.2540143501003898e-62
11
243.6600472443364
21
-335.98229654272063
31
-4.2540143501003898e-62
0
LINE
5
493
100
AcDbEntity
8
0
100
AcDbLine
10
219.09209440619068
20
-342.45443249772006
30
-4.2540143501003898e-62
11
223.79437642453044
21
-335.98229654272063
31
-4.2540143501003898e-62
0
LINE
5
494
100
AcDbEntity
8
0
100
AcDbLine
10
233.72721183443343
20
-353.08746771169098
30
-4.2540143501003898e-62
11
248.36232926267621
21
-342.45443249772023
31
-4.2540143501003898e-62
0
LINE
5
495
100
AcDbEntity
8
0
100
AcDbLine
10
246.75049216284867
20
-333.73695687896344
30
-4.2540143501003898e-62
11
243.6600472443364
21
-335.98229654272063
31
-4.2540143501003898e-62
0
LINE
5
496
100
AcDbEntity
8
0
100
AcDbLine
10
213.72721183443349
20
-291.53379696818615
30
-4.2540143501003898e-62
11
208.13709440619076
21
-308.73840934796544
31
-4.2540143501003898e-62
0
LINE
5
497
100
AcDbEntity
8
0
100
AcDbLine
10
206.95664948767842
20
-312.37144524021284
30
-4.2540143501003898e-62
11
214.56510161803962
21
-314.84358119521244
31
-4.2540143501003898e-62
0
LINE
5
498
100
AcDbEntity
8
0
100
AcDbLine
10
251.45277418118843
20
-340.20909283396293
30
-4.2540143501003898e-62
11
246.75049216284867
21
-333.73695687896344
31
-4.2540143501003898e-62
0
LINE
5
499
100
AcDbEntity
8
0
100
AcDbLine
10
231.81721183443344
20
-291.53379696818615
30
-4.2540143501003898e-62
11
231.81721183443344
21
-299.5337969681861
31
-4.2540143501003898e-62
0
LINE
5
500
100
AcDbEntity
8
0
100
AcDbLine
10
223.79437642453044
20
-335.98229654272063
30
-4.2540143501003898e-62
11
220.70393150601817
21
-333.73695687896344
31
-4.2540143501003898e-62
0
LINE
5
501
100
AcDbEntity
8
0
100
AcDbLine
10
231.81721183443344
20
-351.69977148320072
30
-4.2540143501003898e-62
11
231.81721183443344
21
-353.08746771169098
31
-4.2540143501003898e-62
0
LINE
5
502
100
AcDbEntity
8
0
100
AcDbLine
10
231.81721183443344
20
-299.5337969681861
30
-4.2540143501003898e-62
11
235.6372118344334
21
-299.5337969681861
31
-4.2540143501003898e-62
0
LINE
5
503
100
AcDbEntity
8
0
100
AcDbLine
10
201.36653205943566
20
-329.57605761999218
30
-4.2540143501003898e-62
11
216.00164948767841
21
-340.20909283396293
31
-4.2540143501003898e-62
0
LINE
5
504
100
AcDbEntity
8
0
100
AcDbLine
10
231.81721183443344
20
-291.53379696818615
30
-4.2540143501003898e-62
11
213.72721183443349
21
-291.53379696818615
31
-4.2540143501003898e-62
0
LINE
5
505
100
AcDbEntity
8
0
100
AcDbLine
10
214.56510161803962
20
-314.84358119521244
30
-4.2540143501003898e-62
11
215.74554653655196
21
-311.21054530296493
31
-4.2540143501003898e-62
0
LINE
5
506
100
AcDbEntity
8
0
100
AcDbLine
10
235.6372118344334
20
-351.69977148320072
30
-4.2540143501003898e-62
11
235.6372118344334
21
-353.08746771169098
31
-4.2540143501003898e-62
0
LINE
5
507
100
AcDbEntity
8
0
100
AcDbLine
10
216.00164948767841
20
-340.20909283396293
30
-4.2540143501003898e-62
11
220.70393150601817
21
-333.73695687896344
31
-4.2540143501003898e-62
0
LINE
5
508
100
AcDbEntity
8
0
100
AcDbLine
10
219.09209440619068
20
-342.45443249772006
30
-4.2540143501003898e-62
11
233.72721183443343
21
-353.08746771169098
31
-4.2540143501003898e-62
0
LINE
5
509
100
AcDbEntity
8
0
100
AcDbLine
10
259.31732926267614
20
-308.73840934796544
30
-4.2540143501003898e-62
11
251.70887713231494
21
-311.21054530296493
31
-4.2540143501003898e-62
0
LINE
5
510
100
AcDbEntity
8
0
100
AcDbLine
10
303.72721183443343
20
-353.08746771169098
30
-6.3810215251505848e-62
11
336.08789160943115
21
-329.57605761999218
31
-6.3810215251505848e-62
0
LINE
5
511
100
AcDbEntity
8
0
100
AcDbLine
10
319.90755172193235
20
-341.33176266584155
30
-6.3810215251505848e-62
11
283.72721183443349
21
-291.53379696818615
31
-6.3810215251505848e-62
0
LINE
5
512
100
AcDbEntity
8
0
100
AcDbLine
10
321.70887713231491
20
-311.21054530296493
30
-6.3810215251505848e-62
11
322.88932205082722
21
-314.84358119521244
31
-6.3810215251505848e-62
0
LINE
5
513
100
AcDbEntity
8
0
100
AcDbLine
10
271.36653205943566
20
-329.57605761999218
30
-6.3810215251505848e-62
11
303.72721183443343
21
-353.08746771169098
31
-6.3810215251505848e-62
0
LINE
5
514
100
AcDbEntity
8
0
100
AcDbLine
10
305.6372118344334
20
-291.53379696818615
30
-6.3810215251505848e-62
11
305.6372118344334
21
-299.5337969681861
31
-6.3810215251505848e-62
0
LINE
5
515
100
AcDbEntity
8
0
100
AcDbLine
10
277.54687194693463
20
-310.55492729408917
30
-6.3810215251505848e-62
11
336.08789160943115
21
-329.57605761999218
31
-6.3810215251505848e-62
0
LINE
5
516
100
AcDbEntity
8
0
100
AcDbLine
10
283.72721183443349
20
-291.53379696818615
30
-6.3810215251505848e-62
11
271.36653205943566
21
-329.57605761999218
31
-6.3810215251505848e-62
0
LINE
5
517
100
AcDbEntity
8
0
100
AcDbLine
10
303.72721183443338
20
-291.53379696818615
30
-6.3810215251505848e-62
11
303.72721183443343
21
-353.08746771169098
31
-6.3810215251505848e-62
0
LINE
5
518
100
AcDbEntity
8
0
100
AcDbLine
10
329.90755172193235
20
-310.55492729408917
30
-6.3810215251505848e-62
11
271.36653205943566
21
-329.57605761999218
31
-6.3810215251505848e-62
0
LINE
5
519
100
AcDbEntity
8
0
100
AcDbLine
10
287.54687194693452
20
-341.33176266584155
30
-6.3810215251505848e-62
11
323.72721183443332
21
-291.53379696818615
31
-6.3810215251505848e-62
0
LINE
5
520
100
AcDbEntity
8
0
100
AcDbLine
10
336.08789160943115
20
-329.57605761999218
30
-6.3810215251505848e-62
11
323.72721183443332
21
-291.53379696818615
31
-6.3810215251505848e-62
0
LINE
5
521
100
AcDbEntity
8
0
100
AcDbLine
10
336.08789160943115
20
-329.57605761999218
30
-6.3810215251505848e-62
11
330.49777418118845
21
-312.37144524021284
31
-6.3810215251505848e-62
0
LINE
5
522
100
AcDbEntity
8
0
100
AcDbLine
10
276.95664948767842
20
-312.37144524021284
30
-6.3810215251505848e-62
11
271.36653205943566
21
-329.57605761999218
31
-6.3810215251505848e-62
0
LINE
5
523
100
AcDbEntity
8
0
100
AcDbLine
10
323.72721183443332
20
-291.53379696818615
30
-6.3810215251505848e-62
11
283.72721183443349
21
-291.53379696818615
31
-6.3810215251505848e-62
0
LINE
5
524
100
AcDbEntity
8
0
100
AcDbLine
10
330.49777418118845
20
-312.37144524021284
30
-6.3810215251505848e-62
11
322.88932205082722
21
-314.84358119521244
31
-6.3810215251505848e-62
0
LINE
5
525
100
AcDbEntity
8
0
100
AcDbLine
10
321.45277418118843
20
-340.20909283396293
30
-6.3810215251505848e-62
11
336.08789160943115
21
-329.57605761999218
31
-6.3810215251505848e-62
0
LINE
5
526
100
AcDbEntity
8
0
100
AcDbLine
10
329.31732926267614
20
-308.73840934796544
30
-6.3810215251505848e-62
11
323.72721183443332
21
-291.53379696818615
31
-6.3810215251505848e-62
0
LINE
5
527
100
AcDbEntity
8
0
100
AcDbLine
10
323.72721183443332
20
-291.53379696818615
30
-6.3810215251505848e-62
11
305.6372118344334
21
-291.53379696818615
31
-6.3810215251505848e-62
0
LINE
5
528
100
AcDbEntity
8
0
100
AcDbLine
10
278.13709440619073
20
-308.73840934796544
30
-6.3810215251505848e-62
11
285.74554653655196
21
-311.21054530296493
31
-6.3810215251505848e-62
0
LINE
5
529
100
AcDbEntity
8
0
100
AcDbLine
10
318.36232926267621
20
-342.45443249772023
30
-6.3810215251505848e-62
11
313.6600472443364
21
-335.98229654272063
31
-6.3810215251505848e-62
0
LINE
5
530
100
AcDbEntity
8
0
100
AcDbLine
10
289.09209440619071
20
-342.45443249772006
30
-6.3810215251505848e-62
11
293.79437642453047
21
-335.98229654272063
31
-6.3810215251505848e-62
0
LINE
5
531
100
AcDbEntity
8
0
100
AcDbLine
10
303.72721183443343
20
-353.08746771169098
30
-6.3810215251505848e-62
11
318.36232926267621
21
-342.45443249772023
31
-6.3810215251505848e-62
0
LINE
5
532
100
AcDbEntity
8
0
100
AcDbLine
10
316.75049216284867
20
-333.73695687896344
30
-6.3810215251505848e-62
11
313.6600472443364
21
-335.98229654272063
31
-6.3810215251505848e-62
0
LINE
5
533
100
AcDbEntity
8
0
100
AcDbLine
10
283.72721183443349
20
-291.53379696818615
30
-6.3810215251505848e-62
11
278.13709440619073
21
-308.73840934796544
31
-6.3810215251505848e-62
0
LINE
5
534
100
AcDbEntity
8
0
100
AcDbLine
10
276.95664948767842
20
-312.37144524021284
30
-6.3810215251505848e-62
11
284.56510161803965
21
-314.84358119521244
31
-6.3810215251505848e-62
0
LINE
5
535
100
AcDbEntity
8
0
100
AcDbLine
10
321.45277418118843
20
-340.20909283396293
30
-6.3810215251505848e-62
11
316.75049216284867
21
-333.73695687896344
31
-6.3810215251505848e-62
0
LINE
5
536
100
AcDbEntity
8
0
100
AcDbLine
10
301.81721183443346
20
-291.53379696818615
30
-6.3810215251505848e-62
11
301.81721183443346
21
-299.5337969681861
31
-6.3810215251505848e-62
0
LINE
5
537
100
AcDbEntity
8
0
100
AcDbLine
10
293.79437642453047
20
-335.98229654272063
30
-6.3810215251505848e-62
11
290.70393150601819
21
-333.73695687896344
31
-6.3810215251505848e-62
0
LINE
5
538
100
AcDbEntity
8
0
100
AcDbLine
10
301.81721183443346
20
-351.69977148320072
30
-6.3810215251505848e-62
11
301.81721183443346
21
-353.08746771169098
31
-6.3810215251505848e-62
0
LINE
5
539
100
AcDbEntity
8
0
100
AcDbLine
10
301.81721183443346
20
-299.5337969681861
30
-6.3810215251505848e-62
11
305.6372118344334
21
-299.5337969681861
31
-6.3810215251505848e-62
0
LINE
5
540
100
AcDbEntity
8
0
100
AcDbLine
10
271.36653205943566
20
-329.57605761999218
30
-6.3810215251505848e-62
11
286.00164948767838
21
-340.20909283396293
31
-6.3810215251505848e-62
0
LINE
5
541
100
AcDbEntity
8
0
100
AcDbLine
10
301.81721183443346
20
-291.53379696818615
30
-6.3810215251505848e-62
11
283.72721183443349
21
-291.53379696818615
31
-6.3810215251505848e-62
0
LINE
5
542
100
AcDbEntity
8
0
100
AcDbLine
10
284.56510161803965
20
-314.84358119521244
30
-6.3810215251505848e-62
11
285.74554653655196
21
-311.21054530296493
31
-6.3810215251505848e-62
0
LINE
5
543
100
AcDbEntity
8
0
100
AcDbLine
10
305.6372118344334
20
-351.69977148320072
30
-6.3810215251505848e-62
11
305.6372118344334
21
-353.08746771169098
31
-6.3810215251505848e-62
0
LINE
5
544
100
AcDbEntity
8
0
100
AcDbLine
10
286.00164948767838
20
-340.20909283396293
30
-6.3810215251505848e-62
11
290.70393150601819
21
-333.73695687896344
31
-6.3810215251505848e-62
0
LINE
5
545
100
AcDbEntity
8
0
100
AcDbLine
10
289.09209440619071
20
-342.45443249772006
30
-6.3810215251505848e-62
11
303.72721183443343
21
-353.08746771169098
31
-6.3810215251505848e-62
0
LINE
5
546
100
AcDbEntity
8
0
100
AcDbLine
10
329.31732926267614
20
-308.73840934796544
30
-6.3810215251505848e-62
11
321.70887713231491
21
-311.21054530296493
31
-6.3810215251505848e-62
0
LWPOLYLINE
5
547
100
AcDbEntity
8
0
100
AcDbPolyline
90
14
70
1
43
0.0
10
123.19173651829415
20
-284.48138069662156
10
116.02759111294019
20
-270.1749129071577
10
100.02759111294031
20
-270.17491290708125
10
100.02759111296209
20
-266.08491290708122
10
108.02759111296203
20
-266.08491290708122
10
108.02759111296203
20
-262.26491290708123
10
100.02759111297814
20
-262.26491290708123
10
100.02759111299765
20
-258.17491290708125
10
123.43894216728116
20
-258.17491290717754
10
133.92158736039156
20
-279.10827164260633
10
130.26449653170877
20
-280.93960631184729
10
126.68242382902248
20
-273.78637241712363
10
123.26675464428816
20
-275.49681213265177
10
126.848827346977
20
-282.6500460273806
0
LINE
5
548
100
AcDbEntity
8
0
100
AcDbLine
10
123.43894216728116
20
-258.17491290717754
30
-1.0128605595477119e-62
11
133.92158736039156
21
-279.10827164260633
31
-1.0128605595477119e-62
0
LWPOLYLINE
5
549
100
AcDbEntity
8
0
100
AcDbPolyline
90
14
70
1
43
0.0
10
156.52506985162748
20
-284.48138069662156
10
149.36092444627351
20
-270.1749129071577
10
133.36092444627366
20
-270.17491290708125
10
133.36092444629543
20
-266.08491290708122
10
141.36092444629537
20
-266.08491290708122
10
141.36092444629537
20
-262.26491290708123
10
133.36092444631149
20
-262.26491290708123
10
133.36092444633098
20
-258.17491290708125
10
156.77227550061448
20
-258.17491290717754
10
167.2549206937249
20
-279.10827164260633
10
163.59782986504212
20
-280.93960631184729
10
160.01575716235581
20
-273.78637241712363
10
156.60008797762148
20
-275.49681213265177
10
160.18216068031035
20
-282.6500460273806
0
LINE
5
550
100
AcDbEntity
8
0
100
AcDbLine
10
156.77227550061448
20
-258.17491290717754
30
-2.0257211190954239e-62
11
167.2549206937249
21
-279.10827164260633
31
-2.0257211190954239e-62
0
LWPOLYLINE
5
551
100
AcDbEntity
8
0
100
AcDbPolyline
90
14
70
1
43
0.0
10
189.85840318496082
20
-284.48138069662156
10
182.69425777960686
20
-270.1749129071577
10
166.69425777960697
20
-270.17491290708125
10
166.6942577796288
20
-266.08491290708122
10
174.69425777962869
20
-266.08491290708122
10
174.69425777962869
20
-262.26491290708123
10
166.69425777964483
20
-262.26491290708123
10
166.69425777966433
20
-258.17491290708125
10
190.10560883394783
20
-258.17491290717754
10
200.58825402705821
20
-279.10827164260633
10
196.93116319837543
20
-280.93960631184729
10
193.34909049568915
20
-273.78637241712363
10
189.93342131095483
20
-275.49681213265177
10
193.51549401364366
20
-282.6500460273806
0
LINE
5
552
100
AcDbEntity
8
0
100
AcDbLine
10
190.10560883394783
20
-258.17491290717754
30
-3.0385816786431356e-62
11
200.58825402705821
21
-279.10827164260633
31
-3.0385816786431356e-62
0
LWPOLYLINE
5
553
100
AcDbEntity
8
0
100
AcDbPolyline
90
14
70
1
43
0.0
10
89.858403184960807
20
-254.48138069662156
10
82.694257779606843
20
-240.17491290715768
10
66.694257779606971
20
-240.17491290708125
10
66.694257779628742
20
-236.08491290708122
10
74.694257779628686
20
-236.08491290708122
10
74.694257779628686
20
-232.26491290708125
10
66.694257779644801
20
-232.26491290708125
10
66.694257779664312
20
-228.17491290708125
10
90.105608833947812
20
-228.17491290717754
10
100.58825402705821
20
-249.10827164260633
10
96.93116319837543
20
-250.93960631184729
10
93.34909049568914
20
-243.78637241712363
10
89.933421310954813
20
-245.49681213265177
10
93.515494013643661
20
-252.6500460273806
0
LINE
5
554
100
AcDbEntity
8
0
100
AcDbLine
10
90.105608833947812
20
-228.17491290717754
30
0
11
100.58825402705821
21
-249.10827164260633
31
0
0
LWPOLYLINE
5
555
100
AcDbEntity
8
0
100
AcDbPolyline
90
14
70
1
43
0.0
10
123.19173651829415
20
-254.48138069662156
10
116.02759111294019
20
-240.17491290715768
10
100.02759111294031
20
-240.17491290708125
10
100.02759111296209
20
-236.08491290708122
10
108.02759111296203
20
-236.08491290708122
10
108.02759111296203
20
-232.26491290708125
10
100.02759111297814
20
-232.26491290708125
10
100.02759111299765
20
-228.17491290708125
10
123.43894216728116
20
-228.17491290717754
10
133.92158736039156
20
-249.10827164260633
10
130.26449653170877
20
-250.93960631184729
10
126.68242382902248
20
-243.78637241712363
10
123.26675464428816
20
-245.49681213265177
10
126.848827346977
20
-252.6500460273806
0
LINE
5
556
100
AcDbEntity
8
0
100
AcDbLine
10
123.43894216728116
20
-228.17491290717754
30
-1.0128605595477119e-62
11
133.92158736039156
21
-249.10827164260633
31
-1.0128605595477119e-62
0
LWPOLYLINE
5
557
100
AcDbEntity
8
0
100
AcDbPolyline
90
14
70
1
43
0.0
10
156.52506985162748
20
-254.48138069662156
10
149.36092444627351
20
-240.17491290715768
10
133.36092444627366
20
-240.17491290708125
10
133.36092444629543
20
-236.08491290708122
10
141.36092444629537
20
-236.08491290708122
10
141.36092444629537
20
-232.26491290708125
10
133.36092444631149
20
-232.26491290708125
10
133.36092444633098
20
-228.17491290708125
10
156.77227550061448
20
-228.17491290717754
10
167.2549206937249
20
-249.10827164260633
10
163.59782986504212
20
-250.93960631184729
10
160.01575716235581
20
-243.78637241712363
10
156.60008797762148
20
-245.49681213265177
10
160.18216068031035
20
-252.6500460273806
0
LINE
5
558
100
AcDbEntity
8
0
100
AcDbLine
10
156.77227550061448
20
-228.17491290717754
30
-2.0257211190954239e-62
11
167.2549206937249
21
-249.10827164260633
31
-2.0257211190954239e-62
0
LWPOLYLINE
5
559
100
AcDbEntity
8
0
100
AcDbPolyline
90
14
70
1
43
0.0
10
189.85840318496082
20
-254.48138069662156
10
182.69425777960686
20
-240.17491290715768
10
166.69425777960697
20
-240.17491290708125
10
166.6942577796288
20
-236.08491290708122
10
174.69425777962869
20
-236.08491290708122
10
174.69425777962869
20
-232.26491290708125
10
166.69425777964483
20
-232.26491290708125
10
166.69425777966433
20
-228.17491290708125
10
190.10560883394783
20
-228.17491290717754
10
200.58825402705821
20
-249.10827164260633
10
196.93116319837543
20
-250.93960631184729
10
193.34909049568915
20
-243.78637241712363
10
189.93342131095483
20
-245.49681213265177
10
193.51549401364366
20
-252.6500460273806
0
LINE
5
560
100
AcDbEntity
8
0
100
AcDbLine
10
190.10560883394783
20
-228.17491290717754
30
-3.0385816786431356e-62
11
200.58825402705821
21
-249.10827164260633
31
-3.0385816786431356e-62
0
LWPOLYLINE
5
561
100
AcDbEntity
8
0
100
AcDbPolyline
90
14
70
1
43
0.0
10
89.858403184960807
20
-224.48138069662156
10
82.694257779606843
20
-210.17491290715768
10
66.694257779606971
20
-210.17491290708122
10
66.694257779628742
20
-206.08491290708122
10
74.694257779628686
20
-206.08491290708122
10
74.694257779628686
20
-202.26491290708125
10
66.694257779644801
20
-202.26491290708125
10
66.694257779664312
20
-198.17491290708125
10
90.105608833947812
20
-198.17491290717754
10
100.58825402705821
20
-219.10827164260633
10
96.93116319837543
20
-220.93960631184729
10
93.34909049568914
20
-213.78637241712363
10
89.933421310954813
20
-215.49681213265174
10
93.515494013643661
20
-222.6500460273806
0
LINE
5
562
100
AcDbEntity
8
0
100
AcDbLine
10
90.105608833947812
20
-198.17491290717754
30
0
11
100.58825402705821
21
-219.10827164260633
31
0
0
LWPOLYLINE
5
563
100
AcDbEntity
8
0
100
AcDbPolyline
90
14
70
1
43
0.0
10
123.19173651829415
20
-224.48138069662156
10
116.02759111294019
20
-210.17491290715768
10
100.02759111294031
20
-210.17491290708122
10
100.02759111296209
20
-206.08491290708122
10
108.02759111296203
20
-206.08491290708122
10
108.02759111296203
20
-202.26491290708125
10
100.02759111297814
20
-202.26491290708125
10
100.02759111299765
20
-198.17491290708125
10
123.43894216728116
20
-198.17491290717754
10
133.92158736039156
20
-219.10827164260633
10
130.26449653170877
20
-220.93960631184729
10
126.68242382902248
20
-213.78637241712363
10
123.26675464428816
20
-215.49681213265174
10
126.848827346977
20
-222.6500460273806
0
LINE
5
564
100
AcDbEntity
8
0
100
AcDbLine
10
123.43894216728116
20
-198.17491290717754
30
-1.0128605595477119e-62
11
133.92158736039156
21
-219.10827164260633
31
-1.0128605595477119e-62
0
LWPOLYLINE
5
565
100
AcDbEntity
8
0
100
AcDbPolyline
90
14
70
1
43
0.0
10
156.52506985162748
20
-224.48138069662156
10
149.36092444627351
20
-210.17491290715768
10
133.36092444627366
20
-210.17491290708122
10
133.36092444629543
20
-206.08491290708122
10
141.36092444629537
20
-206.08491290708122
10
141.36092444629537
20
-202.26491290708125
10
133.36092444631149
20
-202.26491290708125
10
133.36092444633098
20
-198.17491290708125
10
156.77227550061448
20
-198.17491290717754
10
167.2549206937249
20
-219.10827164260633
10
163.59782986504212
20
-220.93960631184729
10
160.01575716235581
20
-213.78637241712363
10
156.60008797762148
20
-215.49681213265174
10
160.18216068031035
20
-222.6500460273806
0
LINE
5
566
100
AcDbEntity
8
0
100
AcDbLine
10
156.77227550061448
20
-198.17491290717754
30
-2.0257211190954239e-62
11
167.2549206937249
21
-219.10827164260633
31
-2.0257211190954239e-62
0
LWPOLYLINE
5
567
100
AcDbEntity
8
0
100
AcDbPolyline
90
14
70
1
43
0.0
10
189.85840318496082
20
-224.48138069662156
10
182.69425777960686
20
-210.17491290715768
10
166.69425777960697
20
-210.17491290708122
10
166.6942577796288
20
-206.08491290708122
10
174.69425777962869
20
-206.08491290708122
10
174.69425777962869
20
-202.26491290708125
10
166.69425777964483
20
-202.26491290708125
10
166.69425777966433
20
-198.17491290708125
10
190.10560883394783
20
-198.17491290717754
10
200.58825402705821
20
-219.10827164260633
10
196.93116319837543
20
-220.93960631184729
10
193.34909049568915
20
-213.78637241712363
10
189.93342131095483
20
-215.49681213265174
10
193.51549401364366
20
-222.6500460273806
0
LINE
5
568
100
AcDbEntity
8
0
100
AcDbLine
10
190.10560883394783
20
-198.17491290717754
30
-3.0385816786431356e-62
11
200.58825402705821
21
-219.10827164260633
31
-3.0385816786431356e-62
0
ENDSEC
0
SECTION
2
OBJECTS
0
DICTIONARY
5
C
100
AcDbDictionary
3
ACAD_GROUP
350
D
3
ACAD_MLINESTYLE
350
17
0
DICTIONARY
5
D
100
AcDbDictionary
0
DICTIONARY
5
1A
330
C
100
AcDbDictionary
0
DICTIONARY
5
17
100
AcDbDictionary
0
ENDSEC
0
EOF
