0
SECTION
2
HEADER
9
$INSUNITS
70
4
9
$ACADVER
1
AC1014
9
$HANDSEED
5
FFFF
0
ENDSEC
0
SECTION
2
TABLES
0
TABLE
2
VPORT
5
8
100
AcDbSymbolTable
0
ENDTAB
0
TABLE
2
LTYPE
5
5
100
AcDbSymbolTable
0
LTYPE
5
14
100
AcDbSymbolTableRecord
100
AcDbLinetypeTableRecord
2
BYBLOCK
70
0
0
LTYPE
5
15
100
AcDbSymbolTableRecord
100
AcDbLinetypeTableRecord
2
BYLAYER
70
0
0
ENDTAB
0
TABLE
2
LAYER
5
2
100
AcDbSymbolTable
70
2
0
LAYER
5
50
100
AcDbSymbolTableRecord
100
AcDbLayerTableRecord
2
0
70
0
6
CONTINUOUS
0
ENDTAB
0
TABLE
2
STYLE
5
3
100
AcDbSymbolTable
70
1
0
STYLE
5
11
100
AcDbSymbolTableRecord
100
AcDbTextStyleTableRecord
2
STANDARD
70
0
0
ENDTAB
0
TABLE
2
VIEW
5
6
100
AcDbSymbolTable
70
0
0
ENDTAB
0
TABLE
2
UCS
5
7
100
AcDbSymbolTable
70
0
0
ENDTAB
0
TABLE
2
APPID
5
9
100
AcDbSymbolTable
70
2
0
APPID
5
12
100
AcDbSymbolTableRecord
100
AcDbRegAppTableRecord
2
ACAD
70
0
0
ENDTAB
0
TABLE
2
DIMSTYLE
5
A
100
AcDbSymbolTable
70
1
0
ENDTAB
0
TABLE
2
BLOCK_RECORD
5
1
100
AcDbSymbolTable
70
1
0
BLOCK_RECORD
5
1F
100
AcDbSymbolTableRecord
100
AcDbBlockTableRecord
2
*MODEL_SPACE
0
BLOCK_RECORD
5
1B
100
AcDbSymbolTableRecord
100
AcDbBlockTableRecord
2
*PAPER_SPACE
0
ENDTAB
0
ENDSEC
0
SECTION
2
BLOCKS
0
BLOCK
5
20
100
AcDbEntity
100
AcDbBlockBegin
2
*MODEL_SPACE
0
ENDBLK
5
21
100
AcDbEntity
100
AcDbBlockEnd
0
BLOCK
5
1C
100
AcDbEntity
100
AcDbBlockBegin
2
*PAPER_SPACE
0
ENDBLK
5
1D
100
AcDbEntity
100
AcDbBlockEnd
0
ENDSEC
0
SECTION
2
ENTITIES
0
LWPOLYLINE
5
100
100
AcDbEntity
8
0
100
AcDbPolyline
90
4
70
1
43
0.0
10
-770.09208356452359
20
813.85800410479771
10
-750.09226791791036
20
813.77213151610692
10
-750.01498258808851
20
831.77196559805861
10
-770.01479823470174
20
831.85783818674975
0
LWPOLYLINE
5
101
100
AcDbEntity
8
0
100
AcDbPolyline
90
4
70
1
43
0.0
10
-587.6701816457346
20
838.41040214068596
10
-587.74746697555645
20
820.41056805873427
10
-567.74765132894322
20
820.32469547004337
10
-567.67036599912149
20
838.32452955199517
0
LWPOLYLINE
5
102
100
AcDbEntity
8
0
100
AcDbPolyline
90
4
70
1
43
0.0
10
-764.73753321661536
20
1081.83748379605
10
-764.81481854643721
20
1063.837649714098
10
-744.81500289982409
20
1063.7517771254072
10
-744.73771757000225
20
1081.751611207359
0
LWPOLYLINE
5
103
100
AcDbEntity
8
0
100
AcDbPolyline
90
4
70
1
43
0.0
10
-590.87791727636863
20
1070.4263136147622
10
-570.87810162975541
20
1070.3404410260712
10
-570.80081629993379
20
1088.340275108023
10
-590.8006319465469
20
1088.4261476967142
0
SPLINE
5
104
100
AcDbEntity
8
0
100
AcDbSpline
70
1064
71
3
72
10
73
6
74
0
42
0.000000001
43
0.0000000001
44
0.0000000001
40
-33.615892968501903
40
-33.615892968501903
40
-33.615892968501903
40
-33.615892968501903
40
-16.807946484160031
40
-16.807946484160031
40
-0
40
-0
40
-0
40
-0
10
-146.25736123831615
20
-16.157672675011838
30
0
10
-91.265810726520016
20
-26.87666336170011
30
0
10
-43.330925290122764
20
-31.058871869523728
30
-5.6288307348495437e-13
10
43.330925289771045
20
-31.058871870177143
30
-5.6288307348495437e-13
10
91.265810726670935
20
-26.876663363214988
30
0
10
146.2573612384746
20
-16.15767267581802
30
0
0
LWPOLYLINE
5
105
100
AcDbEntity
8
0
100
AcDbPolyline
90
4
70
1
43
0.0
10
-471.09578850791468
20
896.55117209853086
10
-471.09578850791468
20
878.55117209853074
10
-451.09578850791468
20
878.55117209853074
10
-451.09578850791468
20
896.55117209853086
0
LWPOLYLINE
5
106
100
AcDbEntity
8
0
100
AcDbPolyline
90
4
70
1
43
0.0
10
-357.36258587641663
20
1113.7619097964578
10
-357.36258587641663
20
1095.761909796458
10
-337.36258587641663
20
1095.761909796458
10
-337.36258587641663
20
1113.7619097964578
0
LWPOLYLINE
5
107
100
AcDbEntity
8
0
100
AcDbPolyline
90
4
70
1
43
0.0
10
-353.1586894668402
20
845.76190979645799
10
-333.1586894668402
20
845.76190979645799
10
-333.1586894668402
20
863.76190979645787
10
-353.1586894668402
20
863.76190979645787
0
SPLINE
5
108
100
AcDbEntity
8
0
100
AcDbSpline
70
1064
71
3
72
10
73
6
74
0
42
0.000000001
43
0.0000000001
44
0.0000000001
40
-52.477589415596867
40
-52.477589415596867
40
-52.477589415596867
40
-52.477589415596867
40
-26.238794704680824
40
-26.238794704680824
40
-0
40
-0
40
-0
40
-0
10
211.55892402759051
20
258.73839049169885
30
0
10
125.62486759159185
20
242.45794467544798
30
0
10
63.372663604112205
20
240.73839049162629
30
0
10
-0.57071367174231113
20
240.73839049177238
30
0
10
-62.82291765934886
20
242.45794467479456
30
0
10
-148.75697410281802
20
258.73839049169919
30
0
0
SPLINE
5
109
100
AcDbEntity
8
0
100
AcDbSpline
70
1064
71
3
72
10
73
6
74
0
42
0.000000001
43
0.0000000001
44
0.0000000001
40
-51.24738156365558
40
-51.24738156365558
40
-51.24738156365558
40
-51.24738156365558
40
-25.625025027642611
40
-25.625025027642611
40
-0
40
-0
40
-0
40
-0
10
247.36324983166625
20
156.95821202591773
30
0
10
163.481347983126
20
140.79069203451823
30
0
10
102.47160389764133
20
138.95824123548195
30
0
10
38.092351438964869
20
138.95818280448353
30
0
10
-22.915972804594986
20
140.79099410492418
30
0
10
-106.78874705821428
20
156.95821202591688
30
0
0
SPLINE
5
110
100
AcDbEntity
8
0
100
AcDbSpline
70
1064
71
3
72
12
73
8
74
0
42
0.000000001
43
0.0000000001
44
0.0000000001
40
-30.727416247221932
40
-30.727416247221932
40
-30.727416247221932
40
-30.727416247221932
40
-21.167658745428092
40
-21.167658745428092
40
-11.775109219248693
40
-11.775109219248693
40
-0
40
-0
40
-0
40
-0
10
152.6088364327758
20
31.058698474665647
30
0
10
121.55972989538711
20
24.439431362228987
30
0
10
89.856808510775465
20
19.416561999078965
30
0
10
27.149481212612869
20
13.808816797810124
30
0
10
-3.4975879551863898
20
13.179203961436912
30
0
10
-74.607260188830224
20
17.084481951623474
30
0
10
-114.22104950060145
20
22.875524800212474
30
0
10
-152.60885889246694
20
31.058871869907563
30
0
0
LWPOLYLINE
5
111
100
AcDbEntity
8
0
100
AcDbPolyline
90
32
70
1
43
0.0
10
162.27341866892019
20
1154.8736847492628
10
162.27341866892019
20
1136.8736847492626
10
188.42956688140262
20
1136.8736847492626
10
188.42956688140262
20
1151.2736847492627
10
208.42956688140262
20
1151.2736847492627
10
208.42956688140262
20
1136.8736847492626
10
232.73057235995864
20
1136.8736847492626
10
232.73057235995864
20
922.87368474926279
10
208.42956688140262
20
922.87368474926279
10
208.42956688140262
20
908.47368474926282
10
188.42956688140262
20
908.47368474926282
10
188.42956688140262
20
922.87368474926279
10
109.45725929538725
20
922.87368474926279
10
109.45725929538725
20
908.47368474926282
10
9.4572592953872459
20
908.47368474926282
10
9.4572592953872459
20
922.87368474926279
10
-44.190332713702247
20
922.87368474926279
10
-44.190332713702247
20
908.47368474926282
10
-144.19033271370225
20
908.47368474926282
10
-144.19033271370225
20
922.87368474926279
10
-223.16264029971762
20
922.87368474926279
10
-223.16264029971762
20
908.47368474926282
10
-243.16264029971762
20
908.47368474926282
10
-243.16264029971762
20
922.87368474926279
10
-267.46364577874726
20
922.87368474926279
10
-267.46364577874726
20
1136.8736847492628
10
-243.16264029971748
20
1136.8736847492628
10
-243.16264029971748
20
1151.2736847492629
10
-223.16264029971748
20
1151.2736847492629
10
-223.16264029971748
20
1136.8736847492628
10
-197.00649208739506
20
1136.8736847492632
10
-197.00649208739506
20
1154.8736847492628
0
LWPOLYLINE
5
112
100
AcDbEntity
8
0
100
AcDbPolyline
90
4
70
1
43
0.0
10
-394.53076516224132
20
202.27296258736246
10
-294.53076516224132
20
202.27296258736246
10
-294.53076516224132
20
220.27296258736229
10
-394.53076516224132
20
220.27296258736229
0
LWPOLYLINE
5
113
100
AcDbEntity
8
0
100
AcDbPolyline
90
4
70
1
43
0.0
10
-338.98278843399567
20
97.990014345782441
10
-338.98278843399567
20
115.99001434578227
10
-438.98278843399567
20
115.99001434578227
10
-438.98278843399567
20
97.990014345782441
0
LWPOLYLINE
5
114
100
AcDbEntity
8
0
100
AcDbPolyline
90
4
70
1
43
0.0
10
-548.17835717133084
20
220.27296258736229
10
-548.17835717133084
20
202.27296258736246
10
-448.17835717133079
20
202.27296258736246
10
-448.17835717133079
20
220.27296258736229
0
LINE
5
115
100
AcDbEntity
8
0
100
AcDbLine
10
-515.9546562915441
20
142.77210559291106
30
1.1102230246251565e-15
11
-509.62804675555913
21
144.4816557802686
31
0
0
ARC
5
116
100
AcDbEntity
8
0
100
AcDbCircle
10
164.30218052652052
20
12.550740143184669
30
0
40
13.000000000000068
100
AcDbArc
50
-135.43303735420449
51
127.00158018459031
0
LWPOLYLINE
5
117
100
AcDbEntity
8
0
100
AcDbPolyline
90
8
70
1
43
0.0
10
-449.39213046844196
20
-19.382088645855902
10
-463.792130468442
20
-19.382088645855902
10
-463.792130468442
20
24.512594460521058
10
-220.99213046844199
20
24.512594460521342
10
-220.99213046844199
20
-19.38208864585576
10
-235.39213046844196
20
-19.38208864585576
10
-235.39213046844196
20
-35.4874055394788
10
-449.39213046844196
20
-35.487405539478942
0
LINE
5
118
100
AcDbEntity
8
0
100
AcDbLine
10
-475.58748161428042
20
318.55117209853074
30
7.7715611723760958e-15
11
-453.59578850791473
21
318.55117209853074
31
0
0
LWPOLYLINE
5
119
100
AcDbEntity
8
0
100
AcDbPolyline
90
8
70
1
43
0.0
10
-538.78295765872508
20
-10.972781708692452
10
-538.78295765872508
20
-27.078098602315492
10
-752.78295765872508
20
-27.07809860231535
10
-752.78295765872508
20
-10.97278170869231
10
-767.18295765872517
20
-10.97278170869231
10
-767.18295765872517
20
32.92190139768465
10
-524.38295765872499
20
32.921901397684508
10
-524.3829576587251
20
-10.972781708692452
0
SPLINE
5
120
100
AcDbEntity
8
0
100
AcDbSpline
70
1064
71
3
72
10
73
6
74
0
42
0.000000001
43
0.0000000001
44
0.0000000001
40
-2.707334552664304
40
-2.707334552664304
40
-2.707334552664304
40
-2.707334552664304
40
-1.3534992626020548
40
-1.3534992626020548
40
-0
40
-0
40
-0
40
-0
10
207.49132674961132
20
201.1383904917092
30
0
10
207.84141912255009
20
205.63756882546457
30
0
10
208.1840841782045
20
210.13738009253771
30
0
10
208.85429461428771
20
219.13690157376934
30
0
10
209.18185059594649
20
223.6367036925823
30
0
10
209.5018092215463
20
228.13700817225154
30
0
0
SPLINE
5
121
100
AcDbEntity
8
0
100
AcDbSpline
70
1064
71
3
72
10
73
6
74
0
42
0.000000001
43
0.0000000001
44
0.0000000001
40
-4.2207060197652932
40
-4.2207060197652932
40
-4.2207060197652932
40
-4.2207060197652932
40
-2.1155042001798834
40
-2.1155042001798834
40
-0
40
-0
40
-0
40
-0
10
-416.90132825851066
20
314.74967892218092
30
0
10
-410.01344561973048
20
316.09226972314457
30
0
10
-403.13560646091071
20
317.51536660406555
30
2.2204460492503131e-15
10
-389.39086152375205
20
320.51914314373062
30
2.2204460492503131e-15
10
-382.51280871443555
20
322.10304456937752
30
0
10
-375.65868946711316
20
323.76052747323581
30
0
0
ARC
5
122
100
AcDbEntity
8
0
100
AcDbCircle
10
-398.8565089405302
20
343.45809174696751
30
0
40
13.049999999817157
100
AcDbArc
50
-135.43304796503742
51
127.00159070239596
0
LWPOLYLINE
5
123
100
AcDbEntity
8
0
100
AcDbPolyline
90
4
70
1
43
0.0
10
-285.33519642490614
20
115.99001434578227
10
-285.33519642490614
20
97.990014345782441
10
-185.33519642490617
20
97.990014345782441
10
-185.33519642490617
20
115.99001434578227
0
LINE
5
124
100
AcDbEntity
8
0
100
AcDbLine
10
-495.58748161428042
20
318.55117209853074
30
7.7715611723760958e-15
11
-495.58748161428042
21
362.44585520490762
31
0
0
LWPOLYLINE
5
125
100
AcDbEntity
8
0
100
AcDbPolyline
90
4
70
1
43
0.0
10
196.91652657955714
20
108.35821202591788
10
196.91652657955714
20
126.35821202591771
10
96.916526579557143
20
126.35821202591742
10
96.916526579557285
20
108.3582120259176
0
SPLINE
5
126
100
AcDbEntity
8
0
100
AcDbSpline
70
1064
71
3
72
10
73
6
74
0
42
0.000000001
43
0.0000000001
44
0.0000000001
40
-0.56629368618241749
40
-0.56629368618241749
40
-0.56629368618241749
40
-0.56629368618241749
40
-0.28313567572289339
40
-0.28313567572289339
40
-0
40
-0
40
-0
40
-0
10
151.87798387724527
20
25.443117932026951
30
0
10
152.00036451841029
20
26.379010416872575
30
0
10
152.12246193485996
20
27.314941735541396
30
5.5511151231257827e-15
10
152.36607939063276
20
29.186800844650378
30
5.5511151231257827e-15
10
152.48759993414325
20
30.122732159429546
30
0
10
152.60883643278618
20
31.058698474663657
30
0
0
LINE
5
127
100
AcDbEntity
8
0
100
AcDbLine
10
-415.65868946711316
20
323.76052747323581
30
0
11
-416.90132826091428
21
314.74967892254244
31
0
0
LINE
5
128
100
AcDbEntity
8
0
100
AcDbLine
10
-508.19032803586083
20
163.9863525054632
30
0
11
-512.79064305034046
21
166.49668443788997
31
0
0
SPLINE
5
129
100
AcDbEntity
8
0
100
AcDbSpline
70
1064
71
3
72
10
73
6
74
0
42
0.000000001
43
0.0000000001
44
0.0000000001
40
-3.0669115221730947
40
-3.0669115221730947
40
-3.0669115221730947
40
-3.0669115221730947
40
-1.5332566992556673
40
-1.5332566992556673
40
-0
40
-0
40
-0
40
-0
10
209.50190750020482
20
228.13839049150133
30
0
10
209.86445136646211
20
233.23769279294524
30
0
10
210.21724697127993
20
238.33772634457787
30
0
10
210.90299557861314
20
248.5377305498794
30
0
10
211.23595699297411
20
253.6377495599443
30
0
10
211.55892402759051
20
258.73839049169862
30
0
0
LINE
5
130
100
AcDbEntity
8
0
100
AcDbLine
10
148.71397063604164
20
1.7185390870479011
30
0
11
155.04058017202652
21
3.428089274405437
31
0
0
LINE
5
131
100
AcDbEntity
8
0
100
AcDbLine
10
146.2573612384746
20
-16.15767267581802
30
-3.2223633789509982e-29
11
147.49999999999986
21
-7.1468241305858271
31
0
0
LINE
5
132
100
AcDbEntity
8
0
100
AcDbLine
10
156.47829889172485
20
22.932785999599901
30
0
11
151.87798387724527
21
25.443117932026951
31
0
0
LINE
5
133
100
AcDbEntity
8
0
100
AcDbLine
10
-408.15373253067668
20
334.30035548138005
30
0
11
-414.43413790700191
21
332.60306665551366
31
0
0
LINE
5
134
100
AcDbEntity
8
0
100
AcDbLine
10
-475.58748161428042
20
362.44585520490762
30
0
11
-475.58748161428042
21
318.55117209853074
31
7.7715611723760958e-15
0
LINE
5
135
100
AcDbEntity
8
0
100
AcDbLine
10
-533.59578850791468
20
318.55117209853074
30
-1.4551659595833362e-31
11
-495.58748161428042
21
318.55117209853074
31
7.7715611723760958e-15
0
SPLINE
5
136
100
AcDbEntity
8
0
100
AcDbSpline
70
1064
71
3
72
10
73
6
74
0
42
0.000000001
43
0.0000000001
44
0.0000000001
40
-5.7726968777382819
40
-5.7726968777382819
40
-5.7726968777382819
40
-5.7726968777382819
40
-2.8870431982125888
40
-2.8870431982125888
40
-0
40
-0
40
-0
40
-0
10
251.19172308999168
20
99.358212025917823
30
0
10
250.62445202279022
20
108.96042841555115
30
0
10
250.02131092345891
20
118.56050338102719
30
-1.1102230246251565e-15
10
248.74464230443152
20
137.76054222175887
30
-1.1102230246251565e-15
10
248.07106106543941
20
147.3607999201549
30
0
10
247.36324983166625
20
156.95821202591802
30
0
0
LWPOLYLINE
5
137
100
AcDbEntity
8
0
100
AcDbPolyline
90
32
70
1
43
0.0
10
-165.9720588676366
20
856.9855435847735
10
146.56603539078574
20
856.98554358477406
10
146.56603539078532
20
838.98554358477395
10
175.80529515543901
20
838.98554358477395
10
175.80529515543901
20
853.38554358477393
10
195.80529515543901
20
853.38554358477393
10
195.80529515543901
20
838.98554358477395
10
223.9709786946969
20
838.98554358477395
10
223.9709786946969
20
624.98554358477395
10
195.80529515543901
20
624.98554358477395
10
195.80529515543901
20
610.58554358477397
10
175.80529515543901
20
610.58554358477397
10
175.80529515543901
20
624.98554358477395
10
117.12078426621304
20
624.98554358477395
10
117.12078426621304
20
610.58554358477397
10
17.120784266213036
20
610.58554358477397
10
17.120784266213036
20
624.98554358477395
10
-36.526807742876457
20
624.98554358477395
10
-36.526807742876457
20
610.58554358477397
10
-136.52680774287646
20
610.58554358477397
10
-136.52680774287646
20
624.98554358477395
10
-195.21131863210243
20
624.98554358477395
10
-195.21131863210243
20
610.58554358477397
10
-215.21131863210243
20
610.58554358477397
10
-215.21131863210243
20
624.98554358477395
10
-243.3770021717217
20
624.98554358477395
10
-243.3770021717217
20
838.98554358477395
10
-215.21131863210243
20
838.98554358477395
10
-215.21131863210243
20
853.38554358477393
10
-195.21131863210243
20
853.38554358477393
10
-195.21131863210243
20
838.98554358477395
10
-165.97205886763646
20
838.98554358477395
0
LINE
5
138
100
AcDbEntity
8
0
100
AcDbLine
10
-518.41126568911091
20
124.89589383004514
30
1.1102230246251581e-15
11
-517.16862692758571
21
133.90674237527733
31
0
0
SPLINE
5
139
100
AcDbEntity
8
0
100
AcDbSpline
70
1064
71
3
72
10
73
6
74
0
42
0.000000001
43
0.0000000001
44
0.0000000001
40
-0.8948081140509776
40
-0.8948081140509776
40
-0.8948081140509776
40
-0.8948081140509776
40
-0.44737487144623655
40
-0.44737487144623655
40
-0
40
-0
40
-0
40
-0
10
147.49999999999986
20
-7.1468241305858271
30
0
10
147.70374892608004
20
-5.6693628034142307
30
0
10
147.90679525108303
20
-4.1917972801807935
30
0
10
148.31145157409907
20
-1.2366805349526544
30
0
10
148.51306371487269
20
0.24088496869410392
30
0
10
148.71397063604164
20
1.7185390870479011
30
0
0
LWPOLYLINE
5
140
100
AcDbEntity
8
0
100
AcDbPolyline
90
40
70
1
43
0.0
10
-185.9108711693321
20
537.76382704236551
10
-185.91087116933224
20
555.76382704236539
10
169.08579247766582
20
555.76382704236562
10
169.08579247766582
20
537.76382704236551
10
184.23506874476331
20
537.76382704236551
10
184.23506874476331
20
552.16382704236548
10
204.23506874476331
20
552.16382704236548
10
204.23506874476303
20
537.76382704236551
10
221.09798751078941
20
537.76382704236551
10
221.09798751078969
20
555.76382704236562
10
222.11537934930249
20
555.76382704236539
10
222.11537934930249
20
305.76382704236539
10
221.09798751078941
20
305.76382704236562
10
221.09798751078927
20
323.76382704236551
10
204.23506874476303
20
323.76382704236551
10
204.23506874476331
20
309.36382704236553
10
184.23506874476331
20
309.36382704236553
10
184.23506874476331
20
323.76382704236551
10
118.41125665885031
20
323.76382704236551
10
118.41125665885031
20
309.36382704236553
10
18.411256658850306
20
309.36382704236553
10
18.411256658850306
20
323.76382704236551
10
-35.236335350239187
20
323.76382704236551
10
-35.236335350239187
20
309.36382704236553
10
-135.23633535023919
20
309.36382704236553
10
-135.23633535023919
20
323.76382704236551
10
-201.06014743615219
20
323.76382704236551
10
-201.06014743615219
20
309.36382704236553
10
-221.06014743615219
20
309.36382704236553
10
-221.06014743615191
20
323.76382704236551
10
-237.92306620220543
20
323.76382704236573
10
-237.92306620220543
20
305.76382704236539
10
-238.94045804069137
20
305.76382704236539
10
-238.94045804069137
20
555.76382704236539
10
-237.92306620220543
20
555.76382704236562
10
-237.92306620220515
20
537.76382704236551
10
-221.06014743615191
20
537.76382704236551
10
-221.06014743615219
20
552.16382704236548
10
-201.06014743615219
20
552.16382704236548
10
-201.06014743615219
20
537.76382704236551
0
LWPOLYLINE
5
141
100
AcDbEntity
8
0
100
AcDbPolyline
90
40
70
1
43
0.0
10
-270.9992478965562
20
1214.9797252793562
10
-270.9992478965562
20
1196.979725279356
10
-271.36469068806537
20
1196.979725279356
10
-271.3646906880652
20
1446.9797252793564
10
-270.9992478965562
20
1446.9797252793564
10
-270.9992478965562
20
1428.9797252793562
10
-251.74176187995812
20
1428.9797252793562
10
-251.74176187995812
20
1443.3797252793561
10
-231.74176187995812
20
1443.3797252793561
10
-231.74176187995812
20
1428.9797252793562
10
-209.21536225804104
20
1428.9797252793562
10
-209.21536225804047
20
1446.9797252793564
10
165.73183849811969
20
1446.9797252793564
10
165.73183849811969
20
1428.9797252793562
10
188.25823812031487
20
1428.9797252793562
10
188.25823812031487
20
1443.3797252793561
10
208.25823812031487
20
1443.3797252793561
10
208.25823812031487
20
1428.9797252793562
10
227.51572413666366
20
1428.9797252793562
10
227.51572413666352
20
1446.9797252793558
10
227.88116692816132
20
1446.9797252793564
10
227.88116692816118
20
1196.9797252793562
10
227.51572413666352
20
1196.9797252793564
10
227.51572413666381
20
1214.9797252793567
10
208.25823812031487
20
1214.9797252793562
10
208.25823812031487
20
1200.5797252793561
10
188.25823812031487
20
1200.5797252793564
10
188.25823812031487
20
1214.9797252793562
10
105.08203412472312
20
1214.9797252793562
10
105.08203412472312
20
1200.5797252793564
10
5.0820341247231227
20
1200.5797252793564
10
5.0820341247231227
20
1214.9797252793562
10
-48.56555788436637
20
1214.9797252793562
10
-48.56555788436637
20
1200.5797252793564
10
-148.56555788436637
20
1200.5797252793564
10
-148.56555788436637
20
1214.9797252793562
10
-231.74176187995812
20
1214.9797252793562
10
-231.74176187995812
20
1200.5797252793564
10
-251.74176187995812
20
1200.5797252793564
10
-251.74176187995812
20
1214.9797252793562
0
LINE
5
142
100
AcDbEntity
8
0
100
AcDbLine
10
-652.48817137124036
20
298.68234921131045
30
0
11
-653.76948795537544
21
289.67691915014098
31
0
0
LWPOLYLINE
5
143
100
AcDbEntity
8
0
100
AcDbPolyline
90
4
70
1
43
0.0
10
43.268934570467792
20
126.35821202591742
10
-56.731065429532208
20
126.35821202591714
10
-56.731065429532208
20
108.35821202591731
10
43.268934570467792
20
108.35821202591731
0
LINE
5
144
100
AcDbEntity
8
0
100
AcDbLine
10
-698.65292502475643
20
321.6648912681685
30
2.9677719207415043e-13
11
-694.08154448948017
21
324.13384499601545
31
0
0
LINE
5
145
100
AcDbEntity
8
0
100
AcDbLine
10
-644.93802949758106
20
309.18985656264903
30
3.4469396356718273e-13
11
-651.22566451212049
21
307.51954911532334
31
0
0
LINE
5
146
100
AcDbEntity
8
0
100
AcDbLine
10
-688.63018642698898
20
282.49110806719113
30
0
11
-689.83412452198922
21
291.50720898936368
31
0
0
LINE
5
147
100
AcDbEntity
8
0
100
AcDbLine
10
-647.9607372214075
20
331.27130889875343
30
1.0920705280520727e-31
11
-643.41072658493181
21
328.76319093646043
31
0
0
LINE
5
148
100
AcDbEntity
8
0
100
AcDbLine
10
-691.02069820807981
20
300.35492443466194
30
0
11
-697.29375816444326
21
302.07916334886545
31
0
0
LINE
5
149
100
AcDbEntity
8
0
100
AcDbLine
10
-816.54661080483083
20
166.49668443788997
30
1.1102230246251565e-15
11
-821.1469258193107
21
163.9863525054632
31
0
0
LINE
5
150
100
AcDbEntity
8
0
100
AcDbLine
10
-819.70920709961217
20
144.48165578026851
30
0
11
-813.38259756362743
21
142.77210559291106
31
0
0
LINE
5
151
100
AcDbEntity
8
0
100
AcDbLine
10
-110.67340044109613
20
99.358212025922072
30
0
11
251.19172308999183
21
99.358212025917823
31
0
0
LINE
5
152
100
AcDbEntity
8
0
100
AcDbLine
10
-151.8779838772453
20
25.443117932026947
30
0
11
-156.47829889172499
21
22.932785999599901
31
0
0
SPLINE
5
153
100
AcDbEntity
8
0
100
AcDbSpline
70
1064
71
3
72
10
73
6
74
0
42
0.000000001
43
0.0000000001
44
0.0000000001
40
-0.89480810677783373
40
-0.89480810677783373
40
-0.89480810677783373
40
-0.89480810677783373
40
-0.44743323909441779
40
-0.44743323909441779
40
-0
40
-0
40
-0
40
-0
10
-148.71397063604178
20
1.7185390870479011
30
0
10
-148.51306371486785
20
0.24088496865758202
30
0
10
-148.31145157411413
20
-1.2366805348428045
30
0
10
-147.90679525095399
20
-4.1917972811262416
30
0
10
-147.70374892588251
20
-5.6693628048476796
30
0
10
-147.50000000000014
20
-7.1468241305858271
30
0
0
SPLINE
5
154
100
AcDbEntity
8
0
100
AcDbSpline
70
1064
71
3
72
10
73
6
74
0
42
0.000000001
43
0.0000000001
44
0.0000000001
40
-33.615892968483109
40
-33.615892968483109
40
-33.615892968483109
40
-33.615892968483109
40
-16.807946484143251
40
-16.807946484143251
40
-0
40
-0
40
-0
40
-0
10
-810.92598816590157
20
124.89589383085118
30
1.1102230246251565e-15
10
-755.93443765421353
20
114.1769031441838
30
1.1102230246251565e-15
10
-707.99955221775679
20
109.99469463633758
30
-1.1102230246251565e-14
10
-621.33770163780457
20
109.9946946356873
30
-1.1102230246251565e-14
10
-573.40281620085921
20
114.17690314265755
30
1.1102230246251565e-15
10
-518.41126568911079
20
124.89589383004514
30
1.1102230246251565e-15
0
SPLINE
5
155
100
AcDbEntity
8
0
100
AcDbSpline
70
1064
71
3
72
12
73
8
74
0
42
0.000000001
43
0.0000000001
44
0.0000000001
40
-30.72741624723708
40
-30.72741624723708
40
-30.72741624723708
40
-30.72741624723708
40
-21.167658745739999
40
-21.167658745739999
40
-11.775109219900006
40
-11.775109219900006
40
-0
40
-0
40
-0
40
-0
10
-512.05979049480993
20
172.11226498052881
30
1.1102230246251565e-15
10
-543.10889703113173
20
165.49299786831952
30
1.1102230246251565e-15
10
-574.81181841461023
20
160.47012850529185
30
1.1102230246251565e-15
10
-637.51914571036548
20
154.86238330393448
30
1.1102230246251565e-15
10
-668.16621487719908
20
154.23277046731201
30
1.1102230246251565e-15
10
-739.27588711203782
20
158.13804845684658
30
1.1102230246251565e-15
10
-778.8896764260636
20
163.9290913056233
30
1.1102230246251565e-15
10
-817.27748582005256
20
172.11243837577072
30
1.1102230246251565e-15
0
ARC
5
156
100
AcDbEntity
8
0
100
AcDbCircle
10
-164.30218052652052
20
12.550740143184669
30
0
40
12.999999999999975
100
AcDbArc
50
52.998419815410195
51
315.43303735420392
0
SPLINE
5
157
100
AcDbEntity
8
0
100
AcDbSpline
70
1064
71
3
72
10
73
6
74
0
42
0.000000001
43
0.0000000001
44
0.0000000001
40
-5.7730794696692804
40
-5.7730794696692804
40
-5.7730794696692804
40
-5.7730794696692804
40
-2.8826570656632104
40
-2.8826570656632104
40
-0
40
-0
40
-0
40
-0
10
-106.78874705821428
20
156.95821202591745
30
0
10
-107.50398523997617
20
147.35018839979446
30
0
10
-108.18644433942353
20
137.73906486159419
30
0
10
-109.48182068525725
20
118.53924910222773
30
0
10
-110.09498236169065
20
108.9496437841261
30
0
10
-110.67340044109613
20
99.358212025922086
30
0
0
LINE
5
158
100
AcDbEntity
8
0
100
AcDbLine
10
-155.04058017202669
20
3.4280892744054317
30
0
11
-148.71397063604178
21
1.7185390870479011
31
0
0
LINE
5
159
100
AcDbEntity
8
0
100
AcDbLine
10
-147.50000000000014
20
-7.1468241305858262
30
0
11
-146.25736123833079
21
-16.157672675078913
31
0
0
SPLINE
5
160
100
AcDbEntity
8
0
100
AcDbSpline
70
1064
71
3
72
10
73
6
74
0
42
0.000000001
43
0.0000000001
44
0.0000000001
40
-0.56631116948142513
40
-0.56631116948142513
40
-0.56631116948142513
40
-0.56631116948142513
40
-0.28316675291184384
40
-0.28316675291184384
40
-0
40
-0
40
-0
40
-0
10
-152.60885889280829
20
31.058871869863367
30
0
10
-152.48761868616683
20
30.122876653090174
30
0
10
-152.36609441709319
20
29.186916438830224
30
0
10
-152.12246947463044
20
27.314999531253505
30
0
10
-152.00036829695179
20
26.379039312852797
30
0
10
-151.87798387724527
20
25.443117932026951
30
0
0
SPLINE
5
161
100
AcDbEntity
8
0
100
AcDbSpline
70
1064
71
3
72
10
73
6
74
0
42
0.000000001
43
0.0000000001
44
0.0000000001
40
-5.8045677066682462
40
-5.8045677066682462
40
-5.8045677066682462
40
-5.8045677066682462
40
-2.9034185458440018
40
-2.9034185458440018
40
-0
40
-0
40
-0
40
-0
10
-153.49221967988186
20
88.990014345782384
30
0
10
-154.63266592821114
20
98.593062954757187
30
0
10
-155.80364675079082
20
108.19433514688328
30
0
10
-158.20604439107512
20
127.39319963603052
30
0
10
-159.43797485645121
20
136.99451543110868
30
0
10
-160.69943478850576
20
146.59001434578201
30
0
0
LINE
5
162
100
AcDbEntity
8
0
100
AcDbLine
10
-144.6654544730157
20
201.13839049169925
30
0
11
207.49132674961018
21
201.13839049169897
31
0
0
LWPOLYLINE
5
163
100
AcDbEntity
8
0
100
AcDbPolyline
90
4
70
1
43
0.0
10
4.6396843431337231
20
210.13839049169903
10
4.6396843431337231
20
228.13839049169886
10
-95.360315656866277
20
228.13839049169886
10
-95.360315656866277
20
210.13839049169903
0
ARC
5
164
100
AcDbEntity
8
0
100
AcDbCircle
10
-706.55157612987318
20
311.27673403433403
30
2.9976021664879227e-13
40
13.04999999981716
100
AcDbArc
50
52.752401696339305
51
315.18704036377306
0
SPLINE
5
165
100
AcDbEntity
8
0
100
AcDbSpline
70
1064
71
3
72
10
73
6
74
0
42
0.000000001
43
0.0000000001
44
0.0000000001
40
-0.90600860999493049
40
-0.90600860999493049
40
-0.90600860999493049
40
-0.90600860999493049
40
-0.45517506111983463
40
-0.45517506111983463
40
-0
40
-0
40
-0
40
-0
10
-689.834124521989
20
291.50720898936368
30
0
10
-690.0218238567021
20
292.89229584127997
30
0
10
-690.2395010980257
20
294.50251586002435
30
0
10
-690.62531380315158
20
297.37271105158629
30
0
10
-690.82276390684854
20
298.85064048768822
30
0
10
-691.02069820807992
20
300.35492443466194
30
0
0
SPLINE
5
166
100
AcDbEntity
8
0
100
AcDbSpline
70
1064
71
3
72
10
73
6
74
0
42
0.000000001
43
0.0000000001
44
0.0000000001
40
-1.8048961523247407
40
-1.8048961523247407
40
-1.8048961523247407
40
-1.8048961523247407
40
-0.90246929466211834
40
-0.90246929466211834
40
-0
40
-0
40
-0
40
-0
10
-146.68888999568949
20
228.13839049169886
30
0
10
-146.47428207562299
20
225.13796444945271
30
0
10
-146.25624544465737
20
222.13777981042497
30
0
10
-145.81336739998591
20
216.13778042147075
30
0
10
-145.58852471635362
20
213.13795283768926
30
0
10
-145.36031565686613
20
210.1383904916996
30
0
0
LINE
5
167
100
AcDbEntity
8
0
100
AcDbLine
10
-812.16862692758571
20
133.90674237527733
30
1.1102230246251565e-15
11
-810.92598816591646
21
124.8958938307841
31
0
0
ARC
5
168
100
AcDbEntity
8
0
100
AcDbCircle
10
-635.60157168003479
20
318.30758958253864
30
3.4194869158454821e-13
40
13.050000000030943
100
AcDbArc
50
-135.67905556627835
51
126.75558310111336
0
SPLINE
5
169
100
AcDbEntity
8
0
100
AcDbSpline
70
1064
71
3
72
10
73
6
74
0
42
0.000000001
43
0.0000000001
44
0.0000000001
40
-0.90267824634742944
40
-0.90267824634742944
40
-0.90267824634742944
40
-0.90267824634742944
40
-0.45134846747107982
40
-0.45134846747107982
40
-0
40
-0
40
-0
40
-0
10
-145.36031565686613
20
210.1383904916996
30
0
10
-145.24618706237845
20
208.63829301355921
30
0
10
-145.13121623707789
20
207.13825816909448
30
0
10
-144.89959344404014
20
204.13825880135548
30
0
10
-144.78294115905641
20
202.63829107419284
30
0
10
-144.6654544730157
20
201.13839049169925
30
0
0
SPLINE
5
170
100
AcDbEntity
8
0
100
AcDbSpline
70
1064
71
3
72
10
73
6
74
0
42
0.000000001
43
0.0000000001
44
0.0000000001
40
-5.7607963186108559
40
-5.7607963186108559
40
-5.7607963186108559
40
-5.7607963186108559
40
-2.8774320995471365
40
-2.8774320995471365
40
-0
40
-0
40
-0
40
-0
10
-608.76348924396507
20
250.87296258735236
30
0
10
-608.83495192778037
20
241.261940048485
30
0
10
-608.86591011249141
20
231.65459395755349
30
-1.1102230246251565e-15
10
-608.84640615662533
20
212.45179475590831
30
-1.1102230246251565e-15
10
-608.79611871290513
20
202.86397264153791
30
0
10
-608.7052683984025
20
193.27296258736268
30
0
0
SPLINE
5
171
100
AcDbEntity
8
0
100
AcDbSpline
70
1064
71
3
72
10
73
6
74
0
42
0.000000001
43
0.0000000001
44
0.0000000001
40
-0.89480810739928462
40
-0.89480810739928462
40
-0.89480810739928462
40
-0.89480810739928462
40
-0.44743323935578666
40
-0.44743323935578666
40
-0
40
-0
40
-0
40
-0
10
-813.38259756362743
20
142.77210559291106
30
1.1102230246251565e-15
10
-813.18169064244466
20
141.29445147445594
30
1.1102230246251565e-15
10
-812.98007850166618
20
139.81688597077508
30
1.1102230246251565e-15
10
-812.57542217861771
20
136.86176922530862
30
1.1102230246251565e-15
10
-812.37237585358707
20
135.38420370187865
30
1.1102230246251565e-15
10
-812.16862692758571
20
133.90674237527733
30
1.1102230246251565e-15
0
SPLINE
5
172
100
AcDbEntity
8
0
100
AcDbSpline
70
1064
71
3
72
10
73
6
74
0
42
0.000000001
43
0.0000000001
44
0.0000000001
40
-0.56445837097416052
40
-0.56445837097416052
40
-0.56445837097416052
40
-0.56445837097416052
40
-0.28224995257987973
40
-0.28224995257987973
40
-0
40
-0
40
-0
40
-0
10
-647.20818315095426
20
336.86550718077297
30
0
10
-647.33304823711649
20
335.93313638504935
30
0
10
-647.4581894362899
20
335.00079944750166
30
-8.8817841970012523e-15
10
-647.70904054130574
20
333.13606863252903
30
-8.8817841970012523e-15
10
-647.83475135679339
20
332.20366860702018
30
0
10
-647.9607372214075
20
331.27130889875343
30
0
0
SPLINE
5
173
100
AcDbEntity
8
0
100
AcDbSpline
70
1064
71
3
72
10
73
6
74
0
42
0.000000001
43
0.0000000001
44
0.0000000001
40
-3.066989116061754
40
-3.066989116061754
40
-3.066989116061754
40
-3.066989116061754
40
-1.5334693086284179
40
-1.5334693086284179
40
-0
40
-0
40
-0
40
-0
10
-148.75697410281788
20
258.73839049169885
30
0
10
-148.43249164976214
20
253.63695389919044
30
0
10
-148.09780859302251
20
248.53620960497537
30
0
10
-147.40834447250748
20
238.33617446520222
30
0
10
-147.05356716246698
20
233.23692957577677
30
0
10
-146.68888999568964
20
228.13839049169914
30
0
0
SPLINE
5
174
100
AcDbEntity
8
0
100
AcDbSpline
70
1064
71
3
72
10
73
6
74
0
42
0.000000001
43
0.0000000001
44
0.0000000001
40
-4.2207060199852204
40
-4.2207060199852204
40
-4.2207060199852204
40
-4.2207060199852204
40
-2.1155042002902049
40
-2.1155042002902049
40
-0
40
-0
40
-0
40
-0
10
-653.7694879553743
20
289.67691915014871
30
2.2204460492503131e-15
10
-646.87590421902871
20
290.98992355988582
30
2.2204460492503131e-15
10
-639.9920182068181
20
292.38347643046313
30
-4.4408920985006262e-15
10
-626.23450285999672
20
295.32821044075365
30
-4.4408920985006262e-15
10
-619.34971276411591
20
296.88256545644538
30
0
10
-612.48854007801401
20
298.51060403392853
30
0
0
SPLINE
5
175
100
AcDbEntity
8
0
100
AcDbSpline
70
1064
71
3
72
10
73
6
74
0
42
0.000000001
43
0.0000000001
44
0.0000000001
40
-0.84268627726765544
40
-0.84268627726765544
40
-0.84268627726765544
40
-0.84268627726765544
40
-0.41932410061090714
40
-0.41932410061090714
40
-0
40
-0
40
-0
40
-0
10
-651.2256645121206
20
307.51954911532334
30
0
10
-651.43650907199185
20
306.01702032959554
30
0
10
-651.64664314156585
20
304.54084092273706
30
0
10
-652.05708850344365
20
301.67406459995289
30
0
10
-652.28858496453881
20
300.06577320559484
30
0
10
-652.48817137124036
20
298.68234921131045
30
0
0
ARC
5
176
100
AcDbEntity
8
0
100
AcDbCircle
10
-828.97080745410619
20
153.60430664904769
30
0
40
13.000000000000204
100
AcDbArc
50
52.998419815411047
51
315.43303735420471
0
SPLINE
5
177
100
AcDbEntity
8
0
100
AcDbSpline
70
1064
71
3
72
10
73
6
74
0
42
0.000000001
43
0.0000000001
44
0.0000000001
40
-4.2208099468945752
40
-4.2208099468945752
40
-4.2208099468945752
40
-4.2208099468945752
40
-2.105253656310953
40
-2.105253656310953
40
-0
40
-0
40
-0
40
-0
10
-729.83375581521523
20
291.67895416674537
30
0
10
-722.98681636428637
20
289.99205749286955
30
0
10
-716.11562764037421
20
288.37863885710919
30
1.9984014443252818e-14
10
-702.38390650107749
20
285.31587516382683
30
1.9984014443252818e-14
10
-695.51224099057663
20
283.86326050788693
30
0
10
-688.63018642939426
20
282.49110806684018
30
0
0
SPLINE
5
178
100
AcDbEntity
8
0
100
AcDbSpline
70
1064
71
3
72
10
73
6
74
0
42
0.000000001
43
0.0000000001
44
0.0000000001
40
-0.56631116956548788
40
-0.56631116956548788
40
-0.56631116956548788
40
-0.56631116956548788
40
-0.2831667529966192
40
-0.2831667529966192
40
-0
40
-0
40
-0
40
-0
10
-817.27748582039396
20
172.1124383757261
30
1.1102230246251565e-15
10
-817.15624561372147
20
171.17644315871232
30
1.1102230246251565e-15
10
-817.03472134462174
20
170.24048294425384
30
1.1102230246251565e-15
10
-816.79109640223624
20
168.3685660372727
30
1.1102230246251565e-15
10
-816.66899522457413
20
167.43260581899605
30
1.1102230246251565e-15
10
-816.54661080483095
20
166.49668443788997
30
1.1102230246251565e-15
0
SPLINE
5
179
100
AcDbEntity
8
0
100
AcDbSpline
70
1064
71
3
72
10
73
6
74
0
42
0.000000001
43
0.0000000001
44
0.0000000001
40
-5.7606968433482901
40
-5.7606968433482901
40
-5.7606968433482901
40
-5.7606968433482901
40
-2.8803323119386093
40
-2.8803323119386093
40
-0
40
-0
40
-0
40
-0
10
-234.05137711852419
20
193.27296258736268
30
0
10
-233.94930760480406
20
202.87360997307772
30
0
10
-233.88688232021821
20
212.47170395151741
30
0
10
-233.84158220901227
20
231.67411382448293
30
0
10
-233.85872146648069
20
241.27202343764296
30
0
10
-233.91561289351628
20
250.87296258736231
30
0
0
LINE
5
180
100
AcDbEntity
8
0
100
AcDbLine
10
209.50180922127785
20
228.13839049169886
30
7.7715611723760958e-15
11
209.50190750021875
21
228.13839049169886
31
1.1102230246251565e-15
0
SPLINE
5
181
100
AcDbEntity
8
0
100
AcDbSpline
70
1064
71
3
72
10
73
6
74
0
42
0.000000001
43
0.0000000001
44
0.0000000001
40
-1.8129439755892722
40
-1.8129439755892722
40
-1.8129439755892722
40
-1.8129439755892722
40
-0.90609957767999216
40
-0.90609957767999216
40
-0
40
-0
40
-0
40
-0
10
-467.3381285826041
20
115.99001434578255
30
0
10
-467.70421597598073
20
112.98944990345277
30
0
10
-468.06763839974309
20
109.98849798433085
30
-2.2204460492503131e-15
10
-468.78880065352183
20
103.98853610820836
30
-2.2204460492503131e-15
10
-469.14655960421783
20
100.98940429213471
30
0
10
-469.50161578360252
20
97.990014345782441
30
0
0
ARC
5
182
100
AcDbEntity
8
0
100
AcDbCircle
10
-500.36644640106522
20
153.60430664904769
30
0
40
12.999999999999917
100
AcDbArc
50
-135.43303735420469
51
127.00158018458934
0
LWPOLYLINE
5
183
100
AcDbEntity
8
0
100
AcDbPolyline
90
4
70
1
43
0.0
10
158.28727635222336
20
228.13839049169886
10
58.287276352223358
20
228.13839049169886
10
58.287276352223358
20
210.13839049169903
10
158.28727635222336
20
210.13839049169874
0
SPLINE
5
184
100
AcDbEntity
8
0
100
AcDbSpline
70
1064
71
3
72
10
73
6
74
0
42
0.000000001
43
0.0000000001
44
0.0000000001
40
-0.89480811421984319
40
-0.89480811421984319
40
-0.89480811421984319
40
-0.89480811421984319
40
-0.44737487146741306
40
-0.44737487146741306
40
-0
40
-0
40
-0
40
-0
10
-517.16862692758571
20
133.90674237527733
30
1.1102230246251565e-15
10
-516.9648780015558
20
135.38420370208527
30
1.1102230246251565e-15
10
-516.7618316765263
20
136.86176922550899
30
1.1102230246251565e-15
10
-516.35717535352012
20
139.81688597066622
30
1.1102230246251565e-15
10
-516.15556321272243
20
141.2944514744872
30
1.1102230246251565e-15
10
-515.9546562915441
20
142.77210559291106
30
1.1102230246251565e-15
0
SPLINE
5
185
100
AcDbEntity
8
0
100
AcDbSpline
70
1064
71
3
72
10
73
6
74
0
42
0.000000001
43
0.0000000001
44
0.0000000001
40
-0.56629368685430792
40
-0.56629368685430792
40
-0.56629368685430792
40
-0.56629368685430792
40
-0.28313567588612404
40
-0.28313567588612404
40
-0
40
-0
40
-0
40
-0
10
-512.79064305034046
20
166.49668443788997
30
1.1102230246251565e-15
10
-512.66826240919511
20
167.43257692258553
30
1.1102230246251565e-15
10
-512.54616499273538
20
168.36850824132981
30
1.1102230246251565e-15
10
-512.30254753709175
20
170.2403673494463
30
1.1102230246251565e-15
10
-512.18102699351198
20
171.17629866475298
30
1.1102230246251565e-15
10
-512.05979049479913
20
172.11226498052682
30
1.1102230246251565e-15
0
SPLINE
5
186
100
AcDbEntity
8
0
100
AcDbSpline
70
1064
71
3
72
10
73
6
74
0
42
0.000000001
43
0.0000000001
44
0.0000000001
40
-0.84268626567417493
40
-0.84268626567417493
40
-0.84268626567417493
40
-0.84268626567417493
40
-0.41932409432031853
40
-0.41932409432031853
40
-0
40
-0
40
-0
40
-0
10
-414.43413790700191
20
332.60306665551366
30
0
10
-414.63852922161209
20
331.09964643078672
30
0
10
-414.84232318651101
20
329.62257839603399
30
-2.2204460492503131e-15
10
-415.24045589010962
20
326.75406619625687
30
-2.2204460492503131e-15
10
-415.46504481309773
20
325.14479564489011
30
0
10
-415.65868946711316
20
323.76052747323581
30
0
0
SPLINE
5
187
100
AcDbEntity
8
0
100
AcDbSpline
70
1064
71
3
72
10
73
6
74
0
42
0.000000001
43
0.0000000001
44
0.0000000001
40
-17.96582015525404
40
-17.96582015525404
40
-17.96582015525404
40
-17.96582015525404
40
-10.965807695666612
40
-10.965807695666612
40
-0
40
-0
40
-0
40
-0
10
-160.69943478850561
20
146.59001434578258
30
0
10
-241.56947662367386
20
128.35559873525526
30
0
10
-299.410043693131
20
127.85730685281564
30
0
10
-381.51955714694736
20
130.5537821218779
30
0
10
-427.85286250508238
20
138.55328441273443
30
0
10
-463.51110541948566
20
146.59001434578258
30
0
0
LINE
5
188
100
AcDbEntity
8
0
100
AcDbLine
10
209.50180922127785
20
228.13700816847685
30
-1.1102230246251565e-15
11
209.50180922127785
21
228.13839049169886
31
7.7715611723760958e-15
0
SPLINE
5
189
100
AcDbEntity
8
0
100
AcDbSpline
70
1064
71
3
72
10
73
6
74
0
42
0.000000001
43
0.0000000001
44
0.0000000001
40
-3.0837827205925228
40
-3.0837827205925228
40
-3.0837827205925228
40
-3.0837827205925228
40
-1.5408129438446121
40
-1.5408129438446121
40
-0
40
-0
40
-0
40
-0
10
-463.51110541948572
20
146.59001434578258
30
0
10
-464.16468478068748
20
141.48847936261646
30
0
10
-464.81067848363529
20
136.3856629513181
30
0
10
-466.086343448202
20
126.18585154631162
30
0
10
-466.71611201355756
20
121.08825272653192
30
0
10
-467.33812858260393
20
115.99001434578369
30
0
0
LINE
5
190
100
AcDbEntity
8
0
100
AcDbLine
10
-470.55878492336041
20
88.990014345782399
30
0
11
-153.49221967988186
21
88.990014345782669
31
0
0
SPLINE
5
191
100
AcDbEntity
8
0
100
AcDbSpline
70
1064
71
3
72
10
73
6
74
0
42
0.000000001
43
0.0000000001
44
0.0000000001
40
-0.90618625254526031
40
-0.90618625254526031
40
-0.90618625254526031
40
-0.90618625254526031
40
-0.45300005755779665
40
-0.45300005755779665
40
-0
40
-0
40
-0
40
-0
10
-469.50161578360246
20
97.990014345782726
30
0
10
-469.67919732216961
20
96.48986785527697
30
0
10
-469.85610546757391
20
94.989633929333621
30
0
10
-470.20849528579129
20
91.989638665563547
30
0
10
-470.38397929904227
20
90.489862195773156
30
0
10
-470.55878492336046
20
88.990014345782384
30
0
0
LWPOLYLINE
5
192
100
AcDbEntity
8
0
100
AcDbPolyline
90
4
70
1
43
0.0
10
-606.17310629526116
20
570.48737721673331
10
-586.17329064864816
20
570.40150462804218
10
-586.09600531882631
20
588.40133870999421
10
-606.09582096543932
20
588.48721129868511
0
LWPOLYLINE
5
193
100
AcDbEntity
8
0
100
AcDbPolyline
90
4
70
1
43
0.0
10
-370.51108137651897
20
613.76190979645787
10
-370.51108137651903
20
595.76190979645799
10
-350.51108137651909
20
595.76190979645799
10
-350.51108137651909
20
613.76190979645787
0
LINE
5
194
100
AcDbEntity
8
0
100
AcDbLine
10
-411.27122196622679
20
356.36862589095193
30
5.4955320631356369e-31
11
-406.71048434082303
21
353.88006710708157
31
0
0
LWPOLYLINE
5
195
100
AcDbEntity
8
0
100
AcDbPolyline
90
4
70
1
43
0.0
10
-495.58748161428042
20
378.55117209853074
10
-475.58748161428042
20
378.55117209853074
10
-475.58748161428042
20
396.55117209853086
10
-495.58748161428042
20
396.55117209853086
0
LWPOLYLINE
5
196
100
AcDbEntity
8
0
100
AcDbPolyline
90
4
70
1
43
0.0
10
-475.29968491749111
20
646.55117209853086
10
-475.29968491749111
20
628.55117209853074
10
-455.29968491749111
20
628.55117209853074
10
-455.29968491749111
20
646.55117209853086
0
LINE
5
197
100
AcDbEntity
8
0
100
AcDbLine
10
-495.58748161428042
20
362.44585520490762
30
0
11
-475.58748161428042
21
362.44585520490762
31
0
0
SPLINE
5
198
100
AcDbEntity
8
0
100
AcDbSpline
70
1064
71
3
72
12
73
8
74
0
42
0.000000001
43
0.0000000001
44
0.0000000001
40
-109.78462535083506
40
-109.78462535083506
40
-109.78462535083506
40
-109.78462535083506
40
-68.953356384470368
40
-68.953356384470368
40
-27.455830315372051
40
-27.455830315372051
40
-0
40
-0
40
-0
40
-0
10
-375.65868946711316
20
323.76052747323581
30
0
10
-351.0568806825346
20
458.04455628082269
30
0
10
-331.78856472183668
20
597.49973594262985
30
2.2204460492503131e-15
10
-310.14657029740204
20
875.84645910758366
30
2.2204460492503131e-15
10
-308.41891204098783
20
1009.5526096855981
30
-2.2204460492503131e-15
10
-318.33463471436636
20
1239.9286672397263
30
-2.2204460492503131e-15
10
-325.666120949988
20
1332.7896313567987
30
0
10
-335.65868946711328
20
1423.7619097964575
30
0
0
SPLINE
5
199
100
AcDbEntity
8
0
100
AcDbSpline
70
1064
71
3
72
10
73
6
74
0
42
0.000000001
43
0.0000000001
44
0.0000000001
40
-54.4782920181528
40
-54.4782920181528
40
-54.4782920181528
40
-54.4782920181528
40
-27.239146009143624
40
-27.239146009143624
40
-0
40
-0
40
-0
40
-0
10
-233.91561289351628
20
250.87296258736259
30
0
10
-323.2436379012413
20
234.60560240567233
30
0
10
-387.98413517525671
20
232.87296258737044
30
0
10
-454.69496696238929
20
232.87296258735509
30
0
10
-519.43546423674684
20
234.60560240565499
30
0
10
-608.76348924396507
20
250.87296258736259
30
0
0
SPLINE
5
200
100
AcDbEntity
8
0
100
AcDbSpline
70
1064
71
3
72
12
73
8
74
0
42
0.000000001
43
0.0000000001
44
0.0000000001
40
-105.76788710885594
40
-105.76788710885594
40
-105.76788710885594
40
-105.76788710885594
40
-68.400612014518998
40
-68.400612014518998
40
-29.796830606872835
40
-29.796830606872835
40
-0
40
-0
40
-0
40
-0
10
-528.47979328777581
20
1380.347078099179
30
1.1102230246251565e-15
10
-512.4775491190137
20
1256.8291007676467
30
1.1102230246251565e-15
10
-500.76637653959318
20
1129.0180689634005
30
3.6193270602780103e-13
10
-491.10925509030938
20
870.92023616183224
30
3.6193270602780103e-13
10
-493.81169063687025
20
746.51023629114536
30
-2.2204460492503131e-15
10
-509.73311515592542
20
518.11296721407518
30
-2.2204460492503131e-15
10
-520.4115116133006
20
416.99499985288628
30
0
10
-533.59578850791468
20
318.55117209853074
30
0
0
LWPOLYLINE
5
201
100
AcDbEntity
8
0
100
AcDbPolyline
90
4
70
1
43
0.0
10
-753.8132589620925
20
563.78580378147046
10
-733.81344331547939
20
563.69993119277967
10
-733.73615798565777
20
581.69976527473136
10
-753.73597363227077
20
581.78563786342249
0
SPLINE
5
202
100
AcDbEntity
8
0
100
AcDbSpline
70
1064
71
3
72
12
73
8
74
0
42
0.000000001
43
0.0000000001
44
0.0000000001
40
-109.79139770567136
40
-109.79139770567136
40
-109.79139770567136
40
-109.79139770567136
40
-69.358580554433388
40
-69.358580554433388
40
-28.119136703908083
40
-28.119136703908083
40
-0
40
-0
40
-0
40
-0
10
-453.59578850791473
20
318.55117209853074
30
0
10
-438.83595478536733
20
452.9246017929562
30
0
10
-429.77781995585275
20
591.87907656300285
30
3.6304292905242619e-13
10
-428.19668803763909
20
868.76539416204525
30
3.6304292905242619e-13
10
-436.00125493744088
20
1001.4654696137371
30
2.2204460492503131e-15
10
-462.39484767107081
20
1231.9465392006568
30
2.2204460492503131e-15
10
-476.70482092206362
20
1326.3566025803793
30
0
10
-493.59578850791468
20
1418.5525544217523
30
0
0
SPLINE
5
203
100
AcDbEntity
8
0
100
AcDbSpline
70
1064
71
3
72
12
73
8
74
0
42
0.000000001
43
0.0000000001
44
0.0000000001
40
-109.80723004386586
40
-109.80723004386586
40
-109.80723004386586
40
-109.80723004386586
40
-69.220473671013409
40
-69.220473671013409
40
-27.980714831384471
40
-27.980714831384471
40
-0
40
-0
40
-0
40
-0
10
-612.48854007801401
20
298.51060403392853
30
0
10
-587.46827238652645
20
431.84640290551738
30
0
10
-567.69549264685577
20
570.30429620652069
30
1.9173551635276453e-12
10
-544.79767242648359
20
846.67030820120476
30
1.9173551635276453e-12
10
-542.32744277708821
20
979.46541173864819
30
2.1782575743145571e-12
10
-550.96423446420692
20
1210.8433790370284
30
2.1782575743145571e-12
10
-557.98047227795746
20
1305.5757984213244
30
-1.1102230246251565e-15
10
-567.76591047160105
20
1398.330101730749
30
-1.1102230246251565e-15
0
SPLINE
5
204
100
AcDbEntity
8
0
100
AcDbSpline
70
1064
71
3
72
12
73
8
74
0
42
0.000000001
43
0.0000000001
44
0.0000000001
40
-105.73291635006056
40
-105.73291635006056
40
-105.73291635006056
40
-105.73291635006056
40
-67.239648290288258
40
-67.239648290288258
40
-29.098322829054844
40
-29.098322829054844
40
-0
40
-0
40
-0
40
-0
10
-647.76517305805351
20
1398.6735920855131
30
0
10
-631.27238527709505
20
1271.3738916320697
30
0
10
-618.84075633563748
20
1138.5182577043245
30
3.7547742692822794e-12
10
-607.90597385574586
20
880.16630405089745
30
3.7547742692822794e-12
10
-609.34479881092011
20
757.88387133944343
30
3.4883207433722419e-12
10
-624.03903843670503
20
532.14956052570005
30
3.4883207433722419e-12
10
-634.33342708074565
20
433.0016404337938
30
0
10
-647.20818315095426
20
336.86550718077297
30
0
0
SPLINE
5
205
100
AcDbEntity
8
0
100
AcDbSpline
70
1064
71
3
72
12
73
8
74
0
42
0.000000001
43
0.0000000001
44
0.0000000001
40
-106.31561628873055
40
-106.31561628873055
40
-106.31561628873055
40
-106.31561628873055
40
-67.052515077742214
40
-67.052515077742214
40
-28.031946371683105
40
-28.031946371683105
40
-0
40
-0
40
-0
40
-0
10
-415.65868946711328
20
1423.761909796458
30
0
10
-398.26416602250288
20
1293.8811826607689
30
0
10
-385.06349042018053
20
1158.0911177713342
30
-6.8389738316909643e-13
10
-373.33550807492401
20
893.71173725953713
30
-6.8389738316909643e-13
10
-374.79260373075329
20
769.32243217876771
30
2.2204460492503131e-15
10
-389.44220602874213
20
544.46030470950132
30
2.2204460492503131e-15
10
-399.15650332968073
20
449.01976611881469
30
0
10
-411.27122196622673
20
356.36862589095199
30
0
0
SPLINE
5
206
100
AcDbEntity
8
0
100
AcDbSpline
70
1064
71
3
72
12
73
8
74
0
42
0.000000001
43
0.0000000001
44
0.0000000001
40
-109.76773736472819
40
-109.76773736472819
40
-109.76773736472819
40
-109.76773736472819
40
-69.07824030475021
40
-69.07824030475021
40
-27.566941854770846
40
-27.566941854770846
40
-0
40
-0
40
-0
40
-0
10
-765.11038879525518
20
1391.8419422183297
30
1.1102230246251565e-15
10
-780.54889527020225
20
1256.6411058312524
30
1.1102230246251565e-15
10
-790.23182354473647
20
1116.7673178860657
30
-7.6272321791748254e-13
10
-792.79376123768714
20
837.91784282297431
30
-7.6272321791748254e-13
10
-785.31285386841444
20
704.2429079749387
30
5.6621374255882984e-14
10
-759.68082360880248
20
474.67823967774291
30
5.6621374255882984e-14
10
-746.00478963208411
20
382.13465683696893
30
0
10
-729.83375581521523
20
291.67895416674537
30
0
0
LINE
5
207
100
AcDbEntity
8
0
100
AcDbLine
10
-608.7052683984025
20
193.27296258736271
30
4.1618261952469963e-32
11
-234.05137711852447
21
193.27296258736268
31
0
0
SPLINE
5
208
100
AcDbEntity
8
0
100
AcDbSpline
70
1064
71
3
72
12
73
8
74
0
42
0.000000001
43
0.0000000001
44
0.0000000001
40
-106.32821009023539
40
-106.32821009023539
40
-106.32821009023539
40
-106.32821009023539
40
-68.654671039471765
40
-68.654671039471765
40
-29.716133574979079
40
-29.716133574979079
40
-0
40
-0
40
-0
40
-0
10
-694.08154448948017
20
324.13384499601545
30
0
10
-709.82213031936669
20
448.67201940430175
30
0
10
-721.21818012342703
20
577.72948677684997
30
-5.0948134600048434e-12
10
-730.01640021375113
20
838.06525942305927
30
-5.0948134600048434e-12
10
-726.7792337215335
20
963.43391418652698
30
-4.4497738826976274e-12
10
-709.76933993343732
20
1192.5947135133854
30
-4.4497738826976274e-12
10
-698.68111228343923
20
1293.3785938859046
30
0
10
-685.11112620880272
20
1391.4984518635656
30
0
0
LWPOLYLINE
5
209
100
AcDbEntity
8
0
100
AcDbPolyline
90
4
70
1
43
0.0
10
-723.45398585059934
20
1313.6623644270117
10
-723.3767005207776
20
1331.6621985089637
10
-743.37651616739083
20
1331.7480710976542
10
-743.45380149721245
20
1313.7482370157027
0
LINE
5
210
100
AcDbEntity
8
0
100
AcDbLine
10
-609.94568401583024
20
1354.6161200005747
30
0
11
-609.75721651242463
21
1398.510398500277
31
0
0
LINE
5
211
100
AcDbEntity
8
0
100
AcDbLine
10
-567.76591047160105
20
1398.330101730749
30
-1.1102230246247907e-15
11
-589.75740086581141
21
1398.4245259115864
31
0
0
LINE
5
212
100
AcDbEntity
8
0
100
AcDbLine
10
-335.65868946711328
20
1423.7619097964575
30
-5.228690393134121e-31
11
-357.650382573206
21
1423.7619097964575
31
7.7715611723760958e-15
0
LINE
5
213
100
AcDbEntity
8
0
100
AcDbLine
10
-377.650382573206
20
1379.8672266900808
30
0
11
-377.650382573206
21
1423.7619097964575
31
7.7715611723760958e-15
0
SPLINE
5
214
100
AcDbEntity
8
0
100
AcDbSpline
70
1064
71
3
72
10
73
6
74
0
42
0.000000001
43
0.0000000001
44
0.0000000001
40
-0.90600861119629861
40
-0.90600861119629861
40
-0.90600861119629861
40
-0.90600861119629861
40
-0.45517506109617162
40
-0.45517506109617162
40
-0
40
-0
40
-0
40
-0
10
-533.59578850791468
20
1418.5525544217523
30
0
10
-533.40214385113723
20
1417.168286230916
30
0
10
-533.17755493118807
20
1415.5590157013812
30
-2.2204460492503131e-15
10
-532.77942222734691
20
1412.6905034995939
30
-2.2204460492503131e-15
10
-532.57562826235346
20
1411.2134354638765
30
0
10
-532.37123694779257
20
1409.7100152395149
30
0
0
SPLINE
5
215
100
AcDbEntity
8
0
100
AcDbSpline
70
1064
71
3
72
10
73
6
74
0
42
0.000000001
43
0.0000000001
44
0.0000000001
40
-0.56445837737140692
40
-0.56445837737140692
40
-0.56445837737140692
40
-0.56445837737140692
40
-0.28220842153619047
40
-0.28220842153619047
40
-0
40
-0
40
-0
40
-0
10
-529.20832100702808
20
1385.9444560040356
30
0
10
-529.08633951076285
20
1385.0115639530736
30
0
10
-528.96463323424746
20
1384.0786327665933
30
0
10
-528.72179090469149
20
1382.2128420790386
30
0
10
-528.60065396831419
20
1381.2799764252861
30
0
10
-528.47979328777592
20
1380.3470780991784
30
0
0
LWPOLYLINE
5
216
100
AcDbEntity
8
0
100
AcDbPolyline
90
4
70
1
43
0.0
10
-468.44818041759362
20
1146.551172098531
10
-488.44818041759345
20
1146.551172098531
10
-488.44818041759345
20
1128.5511720985307
10
-468.44818041759362
20
1128.5511720985307
0
LINE
5
217
100
AcDbEntity
8
0
100
AcDbLine
10
-723.11908275470478
20
1391.661645448803
30
0
11
-723.3075502581105
21
1347.767366949101
31
0
0
LINE
5
218
100
AcDbEntity
8
0
100
AcDbLine
10
-609.75721651242463
20
1398.510398500277
30
0
11
-647.76517305805351
21
1398.6735920855131
31
0
0
LWPOLYLINE
5
219
100
AcDbEntity
8
0
100
AcDbPolyline
90
4
70
1
43
0.0
10
-357.650382573206
20
1345.761909796458
10
-357.650382573206
20
1363.761909796458
10
-377.650382573206
20
1363.761909796458
10
-377.650382573206
20
1345.761909796458
0
LWPOLYLINE
5
220
100
AcDbEntity
8
0
100
AcDbPolyline
90
4
70
1
43
0.0
10
-610.09211960831942
20
1320.5111174784859
10
-590.09230396170631
20
1320.4252448897951
10
-590.01501863188446
20
1338.4250789717464
10
-610.01483427849746
20
1338.5109515604379
0
SPLINE
5
221
100
AcDbEntity
8
0
100
AcDbSpline
70
1064
71
3
72
10
73
6
74
0
42
0.000000001
43
0.0000000001
44
0.0000000001
40
-4.2208099473627829
40
-4.2208099473627829
40
-4.2208099473627829
40
-4.2208099473627829
40
-2.1052536564801616
40
-2.1052536564801616
40
-0
40
-0
40
-0
40
-0
10
-493.59578850791468
20
1418.5525544217523
30
0
10
-500.4499077556577
20
1420.2100373255194
30
0
10
-507.32796056541429
20
1421.7939387510967
30
4.4408920985006262e-15
10
-521.07270550284306
20
1424.7977152905219
30
4.4408920985006262e-15
10
-527.95054466235229
20
1426.2208121714689
30
0
10
-534.83842730171466
20
1427.5634029724388
30
0
0
LINE
5
222
100
AcDbEntity
8
0
100
AcDbLine
10
-357.650382573206
20
1423.7619097964575
30
7.7715611723760958e-15
11
-357.650382573206
21
1379.8672266900808
31
0
0
LINE
5
223
100
AcDbEntity
8
0
100
AcDbLine
10
-685.11112620880283
20
1391.4984518635656
30
-1.3774463897818974e-28
11
-723.11908275470478
21
1391.661645448803
31
0
0
LINE
5
224
100
AcDbEntity
8
0
100
AcDbLine
10
-534.83842730171568
20
1427.5634029724461
30
0
11
-533.59578850791468
21
1418.5525544217523
31
0
0
LINE
5
225
100
AcDbEntity
8
0
100
AcDbLine
10
-524.64758338193758
20
1388.4330147877308
30
0
11
-529.20832100702808
21
1385.9444560040356
31
0
0
LINE
5
226
100
AcDbEntity
8
0
100
AcDbLine
10
-589.94586836921712
20
1354.5302474118841
30
0
11
-609.94568401583024
21
1354.6161200005747
31
0
0
LINE
5
227
100
AcDbEntity
8
0
100
AcDbLine
10
-589.75740086581141
20
1398.4245259115864
30
0
11
-589.94586836921712
21
1354.5302474118841
31
0
0
LINE
5
228
100
AcDbEntity
8
0
100
AcDbLine
10
-723.3075502581105
20
1347.767366949101
30
0
11
-743.30736590472372
21
1347.853239537792
31
0
0
LINE
5
229
100
AcDbEntity
8
0
100
AcDbLine
10
-743.30736590472372
20
1347.853239537792
30
0
11
-743.11889840131789
21
1391.7475180374936
31
0
0
LINE
5
230
100
AcDbEntity
8
0
100
AcDbLine
10
-743.11889840131789
20
1391.7475180374936
30
0
11
-765.11038879525518
21
1391.8419422183297
31
0
0
LINE
5
231
100
AcDbEntity
8
0
100
AcDbLine
10
-377.650382573206
20
1423.7619097964575
30
7.7715611723760958e-15
11
-415.65868946711328
21
1423.761909796458
31
0
0
ARC
5
232
100
AcDbEntity
8
0
100
AcDbCircle
10
-516.79360798151947
20
1398.8549901480178
30
0
40
13.050000000030607
100
AcDbArc
50
-127.00159070237829
51
135.43304796501448
0
LINE
5
233
100
AcDbEntity
8
0
100
AcDbLine
10
-357.650382573206
20
1379.8672266900808
30
0
11
-377.650382573206
21
1379.8672266900808
31
0
0
LINE
5
234
100
AcDbEntity
8
0
100
AcDbLine
10
-532.37123694779257
20
1409.7100152395146
30
-3.3400167969934706e-31
11
-526.09083157181419
21
1408.0127264137586
31
0
0
ENDSEC
0
SECTION
2
OBJECTS
0
DICTIONARY
5
C
100
AcDbDictionary
3
ACAD_GROUP
350
D
3
ACAD_MLINESTYLE
350
17
0
DICTIONARY
5
D
100
AcDbDictionary
0
DICTIONARY
5
1A
330
C
100
AcDbDictionary
0
DICTIONARY
5
17
100
AcDbDictionary
0
ENDSEC
0
EOF
