0
SECTION
2
HEADER
9
$INSUNITS
70
4
9
$ACADVER
1
AC1014
9
$HANDSEED
5
FFFF
0
ENDSEC
0
SECTION
2
TABLES
0
TABLE
2
VPORT
5
8
100
AcDbSymbolTable
0
ENDTAB
0
TABLE
2
LTYPE
5
5
100
AcDbSymbolTable
0
LTYPE
5
14
100
AcDbSymbolTableRecord
100
AcDbLinetypeTableRecord
2
BYBLOCK
70
0
0
LTYPE
5
15
100
AcDbSymbolTableRecord
100
AcDbLinetypeTableRecord
2
BYLAYER
70
0
0
ENDTAB
0
TABLE
2
LAYER
5
2
100
AcDbSymbolTable
70
2
0
LAYER
5
50
100
AcDbSymbolTableRecord
100
AcDbLayerTableRecord
2
0
70
0
6
CONTINUOUS
0
ENDTAB
0
TABLE
2
STYLE
5
3
100
AcDbSymbolTable
70
1
0
STYLE
5
11
100
AcDbSymbolTableRecord
100
AcDbTextStyleTableRecord
2
STANDARD
70
0
0
ENDTAB
0
TABLE
2
VIEW
5
6
100
AcDbSymbolTable
70
0
0
ENDTAB
0
TABLE
2
UCS
5
7
100
AcDbSymbolTable
70
0
0
ENDTAB
0
TABLE
2
APPID
5
9
100
AcDbSymbolTable
70
2
0
APPID
5
12
100
AcDbSymbolTableRecord
100
AcDbRegAppTableRecord
2
ACAD
70
0
0
ENDTAB
0
TABLE
2
DIMSTYLE
5
A
100
AcDbSymbolTable
70
1
0
ENDTAB
0
TABLE
2
BLOCK_RECORD
5
1
100
AcDbSymbolTable
70
1
0
BLOCK_RECORD
5
1F
100
AcDbSymbolTableRecord
100
AcDbBlockTableRecord
2
*MODEL_SPACE
0
BLOCK_RECORD
5
1B
100
AcDbSymbolTableRecord
100
AcDbBlockTableRecord
2
*PAPER_SPACE
0
ENDTAB
0
ENDSEC
0
SECTION
2
BLOCKS
0
BLOCK
5
20
100
AcDbEntity
100
AcDbBlockBegin
2
*MODEL_SPACE
0
ENDBLK
5
21
100
AcDbEntity
100
AcDbBlockEnd
0
BLOCK
5
1C
100
AcDbEntity
100
AcDbBlockBegin
2
*PAPER_SPACE
0
ENDBLK
5
1D
100
AcDbEntity
100
AcDbBlockEnd
0
ENDSEC
0
SECTION
2
ENTITIES
0
LWPOLYLINE
5
100
100
AcDbEntity
8
0
100
AcDbPolyline
90
8
70
1
43
0.0
10
-211.19908580530935
20
124.75988642174805
10
-211.19908580530935
20
-35.24011357825195
42
0.41421356237309603
10
-201.19908580530932
20
-45.24011357825195
10
-81.199085805309352
20
-45.24011357825195
42
0.41421356237309509
10
-71.199085805309352
20
-35.24011357825195
10
-71.199085805309352
20
124.75988642174805
42
0.41421356237309509
10
-81.199085805309352
20
134.75988642174804
10
-201.19908580530935
20
134.75988642174804
42
0.41421356237309509
0
LWPOLYLINE
5
101
100
AcDbEntity
8
0
100
AcDbPolyline
90
8
70
1
43
0.0
10
270
20
150.00000000000003
42
-0.41421356237309509
10
280
20
140.00000000000003
10
280
20
-139.99999999999997
42
-0.41421356237309509
10
270
20
-149.99999999999997
10
-270
20
-149.99999999999997
42
-0.41421356237309509
10
-280
20
-139.99999999999997
10
-280
20
140.00000000000003
42
-0.41421356237309509
10
-270
20
150.00000000000003
0
CIRCLE
5
102
100
AcDbEntity
8
0
100
AcDbCircle
10
-47.5
20
117.50000000000001
30
0
40
12.5
0
CIRCLE
5
103
100
AcDbEntity
8
0
100
AcDbCircle
10
27.5
20
117.50000000000001
30
0
40
12.5
0
CIRCLE
5
104
100
AcDbEntity
8
0
100
AcDbCircle
10
102.5
20
117.50000000000001
30
0
40
12.5
0
CIRCLE
5
105
100
AcDbEntity
8
0
100
AcDbCircle
10
177.5
20
117.50000000000001
30
0
40
12.5
0
CIRCLE
5
106
100
AcDbEntity
8
0
100
AcDbCircle
10
252.5
20
117.50000000000001
30
0
40
12.5
0
CIRCLE
5
107
100
AcDbEntity
8
0
100
AcDbCircle
10
-47.5
20
57.500000000000014
30
0
40
12.5
0
CIRCLE
5
108
100
AcDbEntity
8
0
100
AcDbCircle
10
27.5
20
57.500000000000014
30
0
40
12.5
0
CIRCLE
5
109
100
AcDbEntity
8
0
100
AcDbCircle
10
102.5
20
57.500000000000014
30
0
40
12.5
0
CIRCLE
5
110
100
AcDbEntity
8
0
100
AcDbCircle
10
177.5
20
57.500000000000014
30
0
40
12.5
0
CIRCLE
5
111
100
AcDbEntity
8
0
100
AcDbCircle
10
252.5
20
57.500000000000014
30
0
40
12.5
0
CIRCLE
5
112
100
AcDbEntity
8
0
100
AcDbCircle
10
-47.5
20
-2.4999999999999822
30
0
40
12.5
0
CIRCLE
5
113
100
AcDbEntity
8
0
100
AcDbCircle
10
27.5
20
-2.4999999999999822
30
0
40
12.5
0
CIRCLE
5
114
100
AcDbEntity
8
0
100
AcDbCircle
10
102.5
20
-2.4999999999999822
30
0
40
12.5
0
CIRCLE
5
115
100
AcDbEntity
8
0
100
AcDbCircle
10
177.5
20
-2.4999999999999822
30
0
40
12.5
0
CIRCLE
5
116
100
AcDbEntity
8
0
100
AcDbCircle
10
252.5
20
-2.4999999999999822
30
0
40
12.5
0
CIRCLE
5
117
100
AcDbEntity
8
0
100
AcDbCircle
10
-47.5
20
-62.499999999999986
30
0
40
12.5
0
CIRCLE
5
118
100
AcDbEntity
8
0
100
AcDbCircle
10
27.5
20
-62.499999999999986
30
0
40
12.5
0
CIRCLE
5
119
100
AcDbEntity
8
0
100
AcDbCircle
10
102.5
20
-62.499999999999986
30
0
40
12.5
0
CIRCLE
5
120
100
AcDbEntity
8
0
100
AcDbCircle
10
177.5
20
-62.499999999999986
30
0
40
12.5
0
CIRCLE
5
121
100
AcDbEntity
8
0
100
AcDbCircle
10
252.5
20
-62.499999999999986
30
0
40
12.5
0
CIRCLE
5
122
100
AcDbEntity
8
0
100
AcDbCircle
10
-47.5
20
-122.49999999999999
30
0
40
12.5
0
CIRCLE
5
123
100
AcDbEntity
8
0
100
AcDbCircle
10
27.5
20
-122.49999999999999
30
0
40
12.5
0
CIRCLE
5
124
100
AcDbEntity
8
0
100
AcDbCircle
10
102.5
20
-122.49999999999999
30
0
40
12.5
0
CIRCLE
5
125
100
AcDbEntity
8
0
100
AcDbCircle
10
177.5
20
-122.49999999999999
30
0
40
12.5
0
CIRCLE
5
126
100
AcDbEntity
8
0
100
AcDbCircle
10
252.5
20
-122.49999999999999
30
0
40
12.5
0
LWPOLYLINE
5
127
100
AcDbEntity
8
0
100
AcDbPolyline
90
8
70
1
43
0.0
10
-271
20
128
10
-271
20
2
42
0.41421356237309509
10
-269.00000000000006
20
0
10
-252
20
-6.6613381477509392e-15
42
0.41421356237309509
10
-250
20
1.9999999999999929
10
-249.99999999999997
20
128
42
0.41421356237309509
10
-251.99999999999994
20
130
10
-269
20
130
42
0.41421356237309509
0
CIRCLE
5
128
100
AcDbEntity
8
0
100
AcDbCircle
10
-224.02557969878194
20
-92.691080041098232
30
0
40
42.5
0
CIRCLE
5
129
100
AcDbEntity
8
0
100
AcDbCircle
10
-47.5
20
117.50000000000001
30
0
40
12.5
0
CIRCLE
5
130
100
AcDbEntity
8
0
100
AcDbCircle
10
27.5
20
117.50000000000001
30
0
40
12.5
0
CIRCLE
5
131
100
AcDbEntity
8
0
100
AcDbCircle
10
102.5
20
117.50000000000001
30
0
40
12.5
0
CIRCLE
5
132
100
AcDbEntity
8
0
100
AcDbCircle
10
177.5
20
117.50000000000001
30
0
40
12.5
0
CIRCLE
5
133
100
AcDbEntity
8
0
100
AcDbCircle
10
252.5
20
117.50000000000001
30
0
40
12.5
0
CIRCLE
5
134
100
AcDbEntity
8
0
100
AcDbCircle
10
-47.5
20
57.500000000000014
30
0
40
12.5
0
CIRCLE
5
135
100
AcDbEntity
8
0
100
AcDbCircle
10
27.5
20
57.500000000000014
30
0
40
12.5
0
CIRCLE
5
136
100
AcDbEntity
8
0
100
AcDbCircle
10
102.5
20
57.500000000000014
30
0
40
12.5
0
CIRCLE
5
137
100
AcDbEntity
8
0
100
AcDbCircle
10
177.5
20
57.500000000000014
30
0
40
12.5
0
CIRCLE
5
138
100
AcDbEntity
8
0
100
AcDbCircle
10
252.5
20
57.500000000000014
30
0
40
12.5
0
CIRCLE
5
139
100
AcDbEntity
8
0
100
AcDbCircle
10
-47.5
20
-2.4999999999999822
30
0
40
12.5
0
CIRCLE
5
140
100
AcDbEntity
8
0
100
AcDbCircle
10
27.5
20
-2.4999999999999822
30
0
40
12.5
0
CIRCLE
5
141
100
AcDbEntity
8
0
100
AcDbCircle
10
102.5
20
-2.4999999999999822
30
0
40
12.5
0
CIRCLE
5
142
100
AcDbEntity
8
0
100
AcDbCircle
10
177.5
20
-2.4999999999999822
30
0
40
12.5
0
CIRCLE
5
143
100
AcDbEntity
8
0
100
AcDbCircle
10
252.5
20
-2.4999999999999822
30
0
40
12.5
0
CIRCLE
5
144
100
AcDbEntity
8
0
100
AcDbCircle
10
-47.5
20
-62.499999999999986
30
0
40
12.5
0
CIRCLE
5
145
100
AcDbEntity
8
0
100
AcDbCircle
10
27.5
20
-62.499999999999986
30
0
40
12.5
0
CIRCLE
5
146
100
AcDbEntity
8
0
100
AcDbCircle
10
102.5
20
-62.499999999999986
30
0
40
12.5
0
CIRCLE
5
147
100
AcDbEntity
8
0
100
AcDbCircle
10
177.5
20
-62.499999999999986
30
0
40
12.5
0
CIRCLE
5
148
100
AcDbEntity
8
0
100
AcDbCircle
10
252.5
20
-62.499999999999986
30
0
40
12.5
0
CIRCLE
5
149
100
AcDbEntity
8
0
100
AcDbCircle
10
-47.5
20
-122.49999999999999
30
0
40
12.5
0
CIRCLE
5
150
100
AcDbEntity
8
0
100
AcDbCircle
10
27.5
20
-122.49999999999999
30
0
40
12.5
0
CIRCLE
5
151
100
AcDbEntity
8
0
100
AcDbCircle
10
102.5
20
-122.49999999999999
30
0
40
12.5
0
CIRCLE
5
152
100
AcDbEntity
8
0
100
AcDbCircle
10
177.5
20
-122.49999999999999
30
0
40
12.5
0
CIRCLE
5
153
100
AcDbEntity
8
0
100
AcDbCircle
10
252.5
20
-122.49999999999999
30
0
40
12.5
0
LWPOLYLINE
5
154
100
AcDbEntity
8
0
100
AcDbPolyline
90
8
70
1
43
0.0
10
270
20
150.00000000000003
42
-0.41421356237309509
10
280
20
140.00000000000003
10
280
20
-139.99999999999997
42
-0.41421356237309509
10
270
20
-149.99999999999997
10
-270
20
-149.99999999999997
42
-0.41421356237309509
10
-280
20
-139.99999999999997
10
-280
20
140.00000000000003
42
-0.41421356237309509
10
-270
20
150.00000000000003
0
LWPOLYLINE
5
155
100
AcDbEntity
8
0
100
AcDbPolyline
90
8
70
1
43
0.0
10
-81.199085805309352
20
134.75988642174804
42
-0.41421356237309509
10
-71.199085805309352
20
124.75988642174805
10
-71.199085805309352
20
-35.24011357825195
42
-0.41421356237309509
10
-81.199085805309352
20
-45.24011357825195
10
-201.19908580530935
20
-45.24011357825195
42
-0.41421356237309509
10
-211.19908580530935
20
-35.24011357825195
10
-211.19908580530935
20
124.75988642174805
42
-0.41421356237309509
10
-201.19908580530935
20
134.75988642174804
0
LWPOLYLINE
5
156
100
AcDbEntity
8
0
100
AcDbPolyline
90
8
70
1
43
0.0
10
-271
20
128
42
-0.41421356237309509
10
-269
20
130
10
-251.99999999999994
20
129.99999999999997
42
-0.41421356237309509
10
-250
20
128
10
-250
20
1.9999999999999929
42
-0.41421356237309509
10
-252
20
0
10
-269.00000000000006
20
4.2743586448068527e-14
42
-0.41421356237309404
10
-271
20
1.9999999999999929
0
CIRCLE
5
157
100
AcDbEntity
8
0
100
AcDbCircle
10
-224.02557969878194
20
-92.691080041098232
30
0
40
40
0
CIRCLE
5
158
100
AcDbEntity
8
0
100
AcDbCircle
10
-224.02557969878194
20
-92.691080041098232
30
0
40
40
0
CIRCLE
5
159
100
AcDbEntity
8
0
100
AcDbCircle
10
-224.02557969878194
20
-92.691080041098232
30
0
40
40
0
CIRCLE
5
160
100
AcDbEntity
8
0
100
AcDbCircle
10
-224.02557969878194
20
-92.691080041098232
30
0
40
42.5
0
ENDSEC
0
SECTION
2
OBJECTS
0
DICTIONARY
5
C
100
AcDbDictionary
3
ACAD_GROUP
350
D
3
ACAD_MLINESTYLE
350
17
0
DICTIONARY
5
D
100
AcDbDictionary
0
DICTIONARY
5
1A
330
C
100
AcDbDictionary
0
DICTIONARY
5
17
100
AcDbDictionary
0
ENDSEC
0
EOF
