  0
SECTION
  2
HEADER
  9
$ACADVER
  1
AC1014
  9
$HANDSEED
  5
FFFF
  9
$MEASUREMENT
 70
     1
  0
ENDSEC
  0
SECTION
  2
TABLES
  0
TABLE
  2
VPORT
  5
8
330
0
100
AcDbSymbolTable
 70
     4
  0
VPORT
  5
2E
330
8
100
AcDbSymbolTableRecord
100
AcDbViewportTableRecord
  2
*ACTIVE
 70
     0
 10
0.0
 20
0.0
 11
1.0
 21
1.0
 12
210.0
 22
148.5
 13
0.0
 23
0.0
 14
10.0
 24
10.0
 15
10.0
 25
10.0
 16
0.0
 26
0.0
 36
1.0
 17
0.0
 27
0.0
 37
0.0
 40
341.0
 41
1.24
 42
50.0
 43
0.0
 44
0.0
 50
0.0
 51
0.0
 71
     0
 72
   100
 73
     1
 74
     3
 75
     0
 76
     0
 77
     0
 78
     0
  0
ENDTAB
  0
TABLE
  2
LTYPE
  5
5
330
0
100
AcDbSymbolTable
 70
     1
  0
LTYPE
  5
14
330
5
100
AcDbSymbolTableRecord
100
AcDbLinetypeTableRecord
  2
BYBLOCK
 70
     0
  3

 72
    65
 73
     0
 40
0.0
  0
LTYPE
  5
15
330
5
100
AcDbSymbolTableRecord
100
AcDbLinetypeTableRecord
  2
BYLAYER
 70
     0
  3

 72
    65
 73
     0
 40
0.0
  0
LTYPE
  5
16
330
5
100
AcDbSymbolTableRecord
100
AcDbLinetypeTableRecord
  2
CONTINUOUS
 70
     0
  3
Solid line
 72
    65
 73
     0
 40
0.0
  0
ENDTAB
  0
TABLE
  2
LAYER
  5
2
100
AcDbSymbolTable
 70
3
  0
LAYER
  5
50
100
AcDbSymbolTableRecord
100
AcDbLayerTableRecord
  2
0
 70
0
  6
CONTINUOUS
  0
LAYER
  5
51
100
AcDbSymbolTableRecord
100
AcDbLayerTableRecord
  2
main_platform
 70
0
  6
CONTINUOUS
  0
LAYER
  5
52
100
AcDbSymbolTableRecord
100
AcDbLayerTableRecord
  2
holes
 70
0
  6
CONTINUOUS
  0
ENDTAB
  0
TABLE
  2
STYLE
  5
3
330
0
100
AcDbSymbolTable
 70
     1
  0
STYLE
  5
11
330
3
100
AcDbSymbolTableRecord
100
AcDbTextStyleTableRecord
  2
STANDARD
 70
     0
 40
0.0
 41
1.0
 50
0.0
 71
     0
 42
2.5
  3
txt
  4

  0
ENDTAB
  0
TABLE
  2
VIEW
  5
6
330
0
100
AcDbSymbolTable
 70
     0
  0
ENDTAB
  0
TABLE
  2
UCS
  5
7
330
0
100
AcDbSymbolTable
 70
     0
  0
ENDTAB
  0
TABLE
  2
APPID
  5
9
330
0
100
AcDbSymbolTable
 70
     2
  0
APPID
  5
12
330
9
100
AcDbSymbolTableRecord
100
AcDbRegAppTableRecord
  2
ACAD
 70
     0
  0
ENDTAB
  0
TABLE
  2
DIMSTYLE
  5
A
330
0
100
AcDbSymbolTable
 70
     1
  0
DIMSTYLE
105
27
330
A
100
AcDbSymbolTableRecord
100
AcDbDimStyleTableRecord
  2
ISO-25
 70
     0
  3

  4

  5

  6

  7

 40
1.0
 41
2.5
 42
0.625
 43
3.75
 44
1.25
 45
0.0
 46
0.0
 47
0.0
 48
0.0
140
2.5
141
2.5
142
0.0
143
0.03937007874016
144
1.0
145
0.0
146
1.0
147
0.625
 71
     0
 72
     0
 73
     0
 74
     0
 75
     0
 76
     0
 77
     1
 78
     8
170
     0
171
     3
172
     1
173
     0
174
     0
175
     0
176
     0
177
     0
178
     0
270
     2
271
     2
272
     2
273
     2
274
     3
340
11
275
     0
280
     0
281
     0
282
     0
283
     0
284
     8
285
     0
286
     0
287
     3
288
     0
  0
ENDTAB
  0
TABLE
  2
BLOCK_RECORD
  5
1
330
0
100
AcDbSymbolTable
 70
     1
  0
BLOCK_RECORD
  5
1F
330
1
100
AcDbSymbolTableRecord
100
AcDbBlockTableRecord
  2
*MODEL_SPACE
  0
BLOCK_RECORD
  5
1B
330
1
100
AcDbSymbolTableRecord
100
AcDbBlockTableRecord
  2
*PAPER_SPACE
  0
ENDTAB
  0
ENDSEC
  0
SECTION
  2
BLOCKS
  0
BLOCK
  5
20
330
1F
100
AcDbEntity
  8
0
100
AcDbBlockBegin
  2
*MODEL_SPACE
 70
     0
 10
0.0
 20
0.0
 30
0.0
  3
*MODEL_SPACE
  1

  0
ENDBLK
  5
21
330
1F
100
AcDbEntity
  8
0
100
AcDbBlockEnd
  0
BLOCK
  5
1C
330
1B
100
AcDbEntity
 67
     1
  8
0
100
AcDbBlockBegin
  2
*PAPER_SPACE
  1

  0
ENDBLK
  5
1D
330
1B
100
AcDbEntity
 67
     1
  8
0
100
AcDbBlockEnd
  0
ENDSEC
  0
SECTION
  2
ENTITIES
  0
SPLINE
  5
100
100
AcDbEntity
  8
main_platform
 62
7
100
AcDbSpline
 70
8
 71
3
 72
8
 73
4
 74
0
 40
0
 40
0
 40
0
 40
0
 40
1
 40
1
 40
1
 40
1
 10
283.492908
 20
700.386184
 30
0.0
 10
283.492908
 20
622.109606
 30
0.0
 10
220.037204
 20
558.653902
 30
0.0
 10
141.760625
 20
558.653901
 30
0.0
  0
SPLINE
  5
101
100
AcDbEntity
  8
main_platform
 62
7
100
AcDbSpline
 70
8
 71
3
 72
8
 73
4
 74
0
 40
0
 40
0
 40
0
 40
0
 40
1
 40
1
 40
1
 40
1
 10
141.760625
 20
558.653901
 30
0.0
 10
63.484047
 20
558.653900
 30
0.0
 10
0.028342
 20
622.109604
 30
0.0
 10
0.028341
 20
700.386182
 30
0.0
  0
SPLINE
  5
102
100
AcDbEntity
  8
main_platform
 62
7
100
AcDbSpline
 70
8
 71
3
 72
8
 73
4
 74
0
 40
0
 40
0
 40
0
 40
0
 40
1
 40
1
 40
1
 40
1
 10
0.028341
 20
700.386182
 30
0.0
 10
0.028341
 20
751.022250
 30
0.0
 10
27.042361
 20
797.811906
 30
0.0
 10
70.894483
 20
823.129940
 30
0.0
  0
SPLINE
  5
103
100
AcDbEntity
  8
main_platform
 62
7
100
AcDbSpline
 70
8
 71
3
 72
8
 73
4
 74
0
 40
0
 40
0
 40
0
 40
0
 40
1
 40
1
 40
1
 40
1
 10
70.894483
 20
823.129940
 30
0.0
 10
114.746604
 20
848.447974
 30
0.0
 10
168.774645
 20
848.447974
 30
0.0
 10
212.626766
 20
823.129940
 30
0.0
  0
SPLINE
  5
104
100
AcDbEntity
  8
main_platform
 62
7
100
AcDbSpline
 70
8
 71
3
 72
8
 73
4
 74
0
 40
0
 40
0
 40
0
 40
0
 40
1
 40
1
 40
1
 40
1
 10
212.626766
 20
823.129940
 30
0.0
 10
256.478887
 20
797.811906
 30
0.0
 10
283.492908
 20
751.022250
 30
0.0
 10
283.492908
 20
700.386182
 30
0.0
  0
SPLINE
  5
105
100
AcDbEntity
  8
holes
 62
7
100
AcDbSpline
 70
8
 71
3
 72
8
 73
4
 74
0
 40
0
 40
0
 40
0
 40
0
 40
1
 40
1
 40
1
 40
1
 10
70.276632
 20
766.236458
 30
0.0
 10
70.276632
 20
763.906507
 30
0.0
 10
68.387834
 20
762.017709
 30
0.0
 10
66.057883
 20
762.017709
 30
0.0
  0
SPLINE
  5
106
100
AcDbEntity
  8
holes
 62
7
100
AcDbSpline
 70
8
 71
3
 72
8
 73
4
 74
0
 40
0
 40
0
 40
0
 40
0
 40
1
 40
1
 40
1
 40
1
 10
66.057883
 20
762.017709
 30
0.0
 10
63.727931
 20
762.017709
 30
0.0
 10
61.839133
 20
763.906507
 30
0.0
 10
61.839133
 20
766.236458
 30
0.0
  0
SPLINE
  5
107
100
AcDbEntity
  8
holes
 62
7
100
AcDbSpline
 70
8
 71
3
 72
8
 73
4
 74
0
 40
0
 40
0
 40
0
 40
0
 40
1
 40
1
 40
1
 40
1
 10
61.839133
 20
766.236458
 30
0.0
 10
61.839133
 20
768.566409
 30
0.0
 10
63.727931
 20
770.455208
 30
0.0
 10
66.057883
 20
770.455208
 30
0.0
  0
SPLINE
  5
108
100
AcDbEntity
  8
holes
 62
7
100
AcDbSpline
 70
8
 71
3
 72
8
 73
4
 74
0
 40
0
 40
0
 40
0
 40
0
 40
1
 40
1
 40
1
 40
1
 10
66.057883
 20
770.455208
 30
0.0
 10
68.387834
 20
770.455208
 30
0.0
 10
70.276632
 20
768.566409
 30
0.0
 10
70.276632
 20
766.236458
 30
0.0
  0
LWPOLYLINE
  5
109
100
AcDbEntity
  8
main_platform
 62
7
100
AcDbPolyline
 90
1
 70
1
 10
283.492908
 20
700.386182
 30
0.0
  0
SPLINE
  5
10a
100
AcDbEntity
  8
holes
 62
7
100
AcDbSpline
 70
8
 71
3
 72
8
 73
4
 74
0
 40
0
 40
0
 40
0
 40
0
 40
1
 40
1
 40
1
 40
1
 10
131.682895
 20
801.124838
 30
0.0
 10
131.682895
 20
799.617624
 30
0.0
 10
130.878806
 20
798.224900
 30
0.0
 10
129.573520
 20
797.471293
 30
0.0
  0
SPLINE
  5
10b
100
AcDbEntity
  8
holes
 62
7
100
AcDbSpline
 70
8
 71
3
 72
8
 73
4
 74
0
 40
0
 40
0
 40
0
 40
0
 40
1
 40
1
 40
1
 40
1
 10
129.573520
 20
797.471293
 30
0.0
 10
128.268235
 20
796.717686
 30
0.0
 10
126.660056
 20
796.717686
 30
0.0
 10
125.354771
 20
797.471293
 30
0.0
  0
SPLINE
  5
10c
100
AcDbEntity
  8
holes
 62
7
100
AcDbSpline
 70
8
 71
3
 72
8
 73
4
 74
0
 40
0
 40
0
 40
0
 40
0
 40
1
 40
1
 40
1
 40
1
 10
125.354771
 20
797.471293
 30
0.0
 10
124.049485
 20
798.224900
 30
0.0
 10
123.245396
 20
799.617624
 30
0.0
 10
123.245396
 20
801.124838
 30
0.0
  0
SPLINE
  5
10d
100
AcDbEntity
  8
holes
 62
7
100
AcDbSpline
 70
8
 71
3
 72
8
 73
4
 74
0
 40
0
 40
0
 40
0
 40
0
 40
1
 40
1
 40
1
 40
1
 10
123.245396
 20
801.124838
 30
0.0
 10
123.245396
 20
802.632052
 30
0.0
 10
124.049485
 20
804.024775
 30
0.0
 10
125.354771
 20
804.778382
 30
0.0
  0
SPLINE
  5
10e
100
AcDbEntity
  8
holes
 62
7
100
AcDbSpline
 70
8
 71
3
 72
8
 73
4
 74
0
 40
0
 40
0
 40
0
 40
0
 40
1
 40
1
 40
1
 40
1
 10
125.354771
 20
804.778382
 30
0.0
 10
126.660056
 20
805.531989
 30
0.0
 10
128.268235
 20
805.531989
 30
0.0
 10
129.573520
 20
804.778382
 30
0.0
  0
SPLINE
  5
10f
100
AcDbEntity
  8
holes
 62
7
100
AcDbSpline
 70
8
 71
3
 72
8
 73
4
 74
0
 40
0
 40
0
 40
0
 40
0
 40
1
 40
1
 40
1
 40
1
 10
129.573520
 20
804.778382
 30
0.0
 10
130.878806
 20
804.024775
 30
0.0
 10
131.682895
 20
802.632052
 30
0.0
 10
131.682895
 20
801.124838
 30
0.0
  0
LWPOLYLINE
  5
110
100
AcDbEntity
  8
holes
 62
7
100
AcDbPolyline
 90
1
 70
1
 10
70.276632
 20
766.236458
 30
0.0
  0
SPLINE
  5
111
100
AcDbEntity
  8
holes
 62
7
100
AcDbSpline
 70
8
 71
3
 72
8
 73
4
 74
0
 40
0
 40
0
 40
0
 40
0
 40
1
 40
1
 40
1
 40
1
 10
79.986470
 20
772.062369
 30
0.0
 10
79.986470
 20
770.555155
 30
0.0
 10
79.182381
 20
769.162432
 30
0.0
 10
77.877095
 20
768.408825
 30
0.0
  0
SPLINE
  5
112
100
AcDbEntity
  8
holes
 62
7
100
AcDbSpline
 70
8
 71
3
 72
8
 73
4
 74
0
 40
0
 40
0
 40
0
 40
0
 40
1
 40
1
 40
1
 40
1
 10
77.877095
 20
768.408825
 30
0.0
 10
76.571809
 20
767.655218
 30
0.0
 10
74.963631
 20
767.655218
 30
0.0
 10
73.658345
 20
768.408825
 30
0.0
  0
SPLINE
  5
113
100
AcDbEntity
  8
holes
 62
7
100
AcDbSpline
 70
8
 71
3
 72
8
 73
4
 74
0
 40
0
 40
0
 40
0
 40
0
 40
1
 40
1
 40
1
 40
1
 10
73.658345
 20
768.408825
 30
0.0
 10
72.353060
 20
769.162432
 30
0.0
 10
71.548970
 20
770.555155
 30
0.0
 10
71.548970
 20
772.062369
 30
0.0
  0
SPLINE
  5
114
100
AcDbEntity
  8
holes
 62
7
100
AcDbSpline
 70
8
 71
3
 72
8
 73
4
 74
0
 40
0
 40
0
 40
0
 40
0
 40
1
 40
1
 40
1
 40
1
 10
71.548970
 20
772.062369
 30
0.0
 10
71.548970
 20
773.569584
 30
0.0
 10
72.353060
 20
774.962307
 30
0.0
 10
73.658345
 20
775.715914
 30
0.0
  0
SPLINE
  5
115
100
AcDbEntity
  8
holes
 62
7
100
AcDbSpline
 70
8
 71
3
 72
8
 73
4
 74
0
 40
0
 40
0
 40
0
 40
0
 40
1
 40
1
 40
1
 40
1
 10
73.658345
 20
775.715914
 30
0.0
 10
74.963631
 20
776.469521
 30
0.0
 10
76.571809
 20
776.469521
 30
0.0
 10
77.877095
 20
775.715914
 30
0.0
  0
SPLINE
  5
116
100
AcDbEntity
  8
holes
 62
7
100
AcDbSpline
 70
8
 71
3
 72
8
 73
4
 74
0
 40
0
 40
0
 40
0
 40
0
 40
1
 40
1
 40
1
 40
1
 10
77.877095
 20
775.715914
 30
0.0
 10
79.182381
 20
774.962307
 30
0.0
 10
79.986470
 20
773.569584
 30
0.0
 10
79.986470
 20
772.062369
 30
0.0
  0
LWPOLYLINE
  5
117
100
AcDbEntity
  8
holes
 62
7
100
AcDbPolyline
 90
1
 70
1
 10
131.682895
 20
801.124838
 30
0.0
  0
SPLINE
  5
118
100
AcDbEntity
  8
holes
 62
7
100
AcDbSpline
 70
8
 71
3
 72
8
 73
4
 74
0
 40
0
 40
0
 40
0
 40
0
 40
1
 40
1
 40
1
 40
1
 10
90.700756
 20
778.089107
 30
0.0
 10
90.700756
 20
776.581893
 30
0.0
 10
89.896667
 20
775.189169
 30
0.0
 10
88.591381
 20
774.435562
 30
0.0
  0
SPLINE
  5
119
100
AcDbEntity
  8
holes
 62
7
100
AcDbSpline
 70
8
 71
3
 72
8
 73
4
 74
0
 40
0
 40
0
 40
0
 40
0
 40
1
 40
1
 40
1
 40
1
 10
88.591381
 20
774.435562
 30
0.0
 10
87.286095
 20
773.681955
 30
0.0
 10
85.677917
 20
773.681955
 30
0.0
 10
84.372631
 20
774.435562
 30
0.0
  0
SPLINE
  5
11a
100
AcDbEntity
  8
holes
 62
7
100
AcDbSpline
 70
8
 71
3
 72
8
 73
4
 74
0
 40
0
 40
0
 40
0
 40
0
 40
1
 40
1
 40
1
 40
1
 10
84.372631
 20
774.435562
 30
0.0
 10
83.067346
 20
775.189169
 30
0.0
 10
82.263256
 20
776.581893
 30
0.0
 10
82.263256
 20
778.089107
 30
0.0
  0
SPLINE
  5
11b
100
AcDbEntity
  8
holes
 62
7
100
AcDbSpline
 70
8
 71
3
 72
8
 73
4
 74
0
 40
0
 40
0
 40
0
 40
0
 40
1
 40
1
 40
1
 40
1
 10
82.263256
 20
778.089107
 30
0.0
 10
82.263257
 20
780.419058
 30
0.0
 10
84.152055
 20
782.307856
 30
0.0
 10
86.482006
 20
782.307856
 30
0.0
  0
SPLINE
  5
11c
100
AcDbEntity
  8
holes
 62
7
100
AcDbSpline
 70
8
 71
3
 72
8
 73
4
 74
0
 40
0
 40
0
 40
0
 40
0
 40
1
 40
1
 40
1
 40
1
 10
86.482006
 20
782.307856
 30
0.0
 10
88.811957
 20
782.307856
 30
0.0
 10
90.700756
 20
780.419058
 30
0.0
 10
90.700756
 20
778.089107
 30
0.0
  0
LWPOLYLINE
  5
11d
100
AcDbEntity
  8
holes
 62
7
100
AcDbPolyline
 90
1
 70
1
 10
79.986470
 20
772.062369
 30
0.0
  0
SPLINE
  5
11e
100
AcDbEntity
  8
holes
 62
7
100
AcDbSpline
 70
8
 71
3
 72
8
 73
4
 74
0
 40
0
 40
0
 40
0
 40
0
 40
1
 40
1
 40
1
 40
1
 10
101.548976
 20
784.249841
 30
0.0
 10
101.548976
 20
782.742626
 30
0.0
 10
100.744887
 20
781.349903
 30
0.0
 10
99.439601
 20
780.596296
 30
0.0
  0
SPLINE
  5
11f
100
AcDbEntity
  8
holes
 62
7
100
AcDbSpline
 70
8
 71
3
 72
8
 73
4
 74
0
 40
0
 40
0
 40
0
 40
0
 40
1
 40
1
 40
1
 40
1
 10
99.439601
 20
780.596296
 30
0.0
 10
98.134316
 20
779.842689
 30
0.0
 10
96.526137
 20
779.842689
 30
0.0
 10
95.220852
 20
780.596296
 30
0.0
  0
SPLINE
  5
120
100
AcDbEntity
  8
holes
 62
7
100
AcDbSpline
 70
8
 71
3
 72
8
 73
4
 74
0
 40
0
 40
0
 40
0
 40
0
 40
1
 40
1
 40
1
 40
1
 10
95.220852
 20
780.596296
 30
0.0
 10
93.915566
 20
781.349903
 30
0.0
 10
93.111477
 20
782.742626
 30
0.0
 10
93.111477
 20
784.249841
 30
0.0
  0
SPLINE
  5
121
100
AcDbEntity
  8
holes
 62
7
100
AcDbSpline
 70
8
 71
3
 72
8
 73
4
 74
0
 40
0
 40
0
 40
0
 40
0
 40
1
 40
1
 40
1
 40
1
 10
93.111477
 20
784.249841
 30
0.0
 10
93.111477
 20
785.757055
 30
0.0
 10
93.915566
 20
787.149778
 30
0.0
 10
95.220852
 20
787.903385
 30
0.0
  0
SPLINE
  5
122
100
AcDbEntity
  8
holes
 62
7
100
AcDbSpline
 70
8
 71
3
 72
8
 73
4
 74
0
 40
0
 40
0
 40
0
 40
0
 40
1
 40
1
 40
1
 40
1
 10
95.220852
 20
787.903385
 30
0.0
 10
96.526137
 20
788.656992
 30
0.0
 10
98.134316
 20
788.656992
 30
0.0
 10
99.439601
 20
787.903385
 30
0.0
  0
SPLINE
  5
123
100
AcDbEntity
  8
holes
 62
7
100
AcDbSpline
 70
8
 71
3
 72
8
 73
4
 74
0
 40
0
 40
0
 40
0
 40
0
 40
1
 40
1
 40
1
 40
1
 10
99.439601
 20
787.903385
 30
0.0
 10
100.744887
 20
787.149778
 30
0.0
 10
101.548976
 20
785.757055
 30
0.0
 10
101.548976
 20
784.249841
 30
0.0
  0
LWPOLYLINE
  5
124
100
AcDbEntity
  8
holes
 62
7
100
AcDbPolyline
 90
1
 70
1
 10
90.700756
 20
778.089107
 30
0.0
  0
SPLINE
  5
125
100
AcDbEntity
  8
holes
 62
7
100
AcDbSpline
 70
8
 71
3
 72
8
 73
4
 74
0
 40
0
 40
0
 40
0
 40
0
 40
1
 40
1
 40
1
 40
1
 10
111.325749
 20
789.740929
 30
0.0
 10
111.325749
 20
788.233715
 30
0.0
 10
110.521659
 20
786.840992
 30
0.0
 10
109.216374
 20
786.087385
 30
0.0
  0
SPLINE
  5
126
100
AcDbEntity
  8
holes
 62
7
100
AcDbSpline
 70
8
 71
3
 72
8
 73
4
 74
0
 40
0
 40
0
 40
0
 40
0
 40
1
 40
1
 40
1
 40
1
 10
109.216374
 20
786.087385
 30
0.0
 10
107.911088
 20
785.333778
 30
0.0
 10
106.302910
 20
785.333778
 30
0.0
 10
104.997624
 20
786.087385
 30
0.0
  0
SPLINE
  5
127
100
AcDbEntity
  8
holes
 62
7
100
AcDbSpline
 70
8
 71
3
 72
8
 73
4
 74
0
 40
0
 40
0
 40
0
 40
0
 40
1
 40
1
 40
1
 40
1
 10
104.997624
 20
786.087385
 30
0.0
 10
103.692338
 20
786.840992
 30
0.0
 10
102.888249
 20
788.233715
 30
0.0
 10
102.888249
 20
789.740929
 30
0.0
  0
SPLINE
  5
128
100
AcDbEntity
  8
holes
 62
7
100
AcDbSpline
 70
8
 71
3
 72
8
 73
4
 74
0
 40
0
 40
0
 40
0
 40
0
 40
1
 40
1
 40
1
 40
1
 10
102.888249
 20
789.740929
 30
0.0
 10
102.888249
 20
791.248143
 30
0.0
 10
103.692338
 20
792.640867
 30
0.0
 10
104.997624
 20
793.394474
 30
0.0
  0
SPLINE
  5
129
100
AcDbEntity
  8
holes
 62
7
100
AcDbSpline
 70
8
 71
3
 72
8
 73
4
 74
0
 40
0
 40
0
 40
0
 40
0
 40
1
 40
1
 40
1
 40
1
 10
104.997624
 20
793.394474
 30
0.0
 10
106.302910
 20
794.148081
 30
0.0
 10
107.911088
 20
794.148081
 30
0.0
 10
109.216374
 20
793.394474
 30
0.0
  0
SPLINE
  5
12a
100
AcDbEntity
  8
holes
 62
7
100
AcDbSpline
 70
8
 71
3
 72
8
 73
4
 74
0
 40
0
 40
0
 40
0
 40
0
 40
1
 40
1
 40
1
 40
1
 10
109.216374
 20
793.394474
 30
0.0
 10
110.521659
 20
792.640867
 30
0.0
 10
111.325749
 20
791.248143
 30
0.0
 10
111.325749
 20
789.740929
 30
0.0
  0
LWPOLYLINE
  5
12b
100
AcDbEntity
  8
holes
 62
7
100
AcDbPolyline
 90
1
 70
1
 10
101.548976
 20
784.249841
 30
0.0
  0
SPLINE
  5
12c
100
AcDbEntity
  8
holes
 62
7
100
AcDbSpline
 70
8
 71
3
 72
8
 73
4
 74
0
 40
0
 40
0
 40
0
 40
0
 40
1
 40
1
 40
1
 40
1
 10
121.370412
 20
795.767709
 30
0.0
 10
121.370412
 20
793.437758
 30
0.0
 10
119.481613
 20
791.548959
 30
0.0
 10
117.151662
 20
791.548959
 30
0.0
  0
SPLINE
  5
12d
100
AcDbEntity
  8
holes
 62
7
100
AcDbSpline
 70
8
 71
3
 72
8
 73
4
 74
0
 40
0
 40
0
 40
0
 40
0
 40
1
 40
1
 40
1
 40
1
 10
117.151662
 20
791.548959
 30
0.0
 10
114.821711
 20
791.548959
 30
0.0
 10
112.932912
 20
793.437758
 30
0.0
 10
112.932912
 20
795.767709
 30
0.0
  0
SPLINE
  5
12e
100
AcDbEntity
  8
holes
 62
7
100
AcDbSpline
 70
8
 71
3
 72
8
 73
4
 74
0
 40
0
 40
0
 40
0
 40
0
 40
1
 40
1
 40
1
 40
1
 10
112.932912
 20
795.767709
 30
0.0
 10
112.932912
 20
798.097660
 30
0.0
 10
114.821711
 20
799.986459
 30
0.0
 10
117.151662
 20
799.986459
 30
0.0
  0
SPLINE
  5
12f
100
AcDbEntity
  8
holes
 62
7
100
AcDbSpline
 70
8
 71
3
 72
8
 73
4
 74
0
 40
0
 40
0
 40
0
 40
0
 40
1
 40
1
 40
1
 40
1
 10
117.151662
 20
799.986459
 30
0.0
 10
119.481613
 20
799.986459
 30
0.0
 10
121.370412
 20
798.097660
 30
0.0
 10
121.370412
 20
795.767709
 30
0.0
  0
LWPOLYLINE
  5
130
100
AcDbEntity
  8
holes
 62
7
100
AcDbPolyline
 90
1
 70
1
 10
111.325749
 20
789.740929
 30
0.0
  0
SPLINE
  5
131
100
AcDbEntity
  8
holes
 62
7
100
AcDbSpline
 70
8
 71
3
 72
8
 73
4
 74
0
 40
0
 40
0
 40
0
 40
0
 40
1
 40
1
 40
1
 40
1
 10
69.673964
 20
778.223064
 30
0.0
 10
69.673964
 20
775.893112
 30
0.0
 10
67.785165
 20
774.004314
 30
0.0
 10
65.455214
 20
774.004314
 30
0.0
  0
SPLINE
  5
132
100
AcDbEntity
  8
holes
 62
7
100
AcDbSpline
 70
8
 71
3
 72
8
 73
4
 74
0
 40
0
 40
0
 40
0
 40
0
 40
1
 40
1
 40
1
 40
1
 10
65.455214
 20
774.004314
 30
0.0
 10
63.125263
 20
774.004314
 30
0.0
 10
61.236464
 20
775.893112
 30
0.0
 10
61.236464
 20
778.223064
 30
0.0
  0
SPLINE
  5
133
100
AcDbEntity
  8
holes
 62
7
100
AcDbSpline
 70
8
 71
3
 72
8
 73
4
 74
0
 40
0
 40
0
 40
0
 40
0
 40
1
 40
1
 40
1
 40
1
 10
61.236464
 20
778.223064
 30
0.0
 10
61.236464
 20
780.553015
 30
0.0
 10
63.125263
 20
782.441813
 30
0.0
 10
65.455214
 20
782.441813
 30
0.0
  0
SPLINE
  5
134
100
AcDbEntity
  8
holes
 62
7
100
AcDbSpline
 70
8
 71
3
 72
8
 73
4
 74
0
 40
0
 40
0
 40
0
 40
0
 40
1
 40
1
 40
1
 40
1
 10
65.455214
 20
782.441813
 30
0.0
 10
67.785165
 20
782.441813
 30
0.0
 10
69.673964
 20
780.553015
 30
0.0
 10
69.673964
 20
778.223064
 30
0.0
  0
LWPOLYLINE
  5
135
100
AcDbEntity
  8
holes
 62
7
100
AcDbPolyline
 90
1
 70
1
 10
121.370412
 20
795.767709
 30
0.0
  0
SPLINE
  5
136
100
AcDbEntity
  8
holes
 62
7
100
AcDbSpline
 70
8
 71
3
 72
8
 73
4
 74
0
 40
0
 40
0
 40
0
 40
0
 40
1
 40
1
 40
1
 40
1
 10
80.388250
 20
784.115929
 30
0.0
 10
80.388250
 20
782.608715
 30
0.0
 10
79.584161
 20
781.215992
 30
0.0
 10
78.278875
 20
780.462385
 30
0.0
  0
SPLINE
  5
137
100
AcDbEntity
  8
holes
 62
7
100
AcDbSpline
 70
8
 71
3
 72
8
 73
4
 74
0
 40
0
 40
0
 40
0
 40
0
 40
1
 40
1
 40
1
 40
1
 10
78.278875
 20
780.462385
 30
0.0
 10
76.973589
 20
779.708778
 30
0.0
 10
75.365411
 20
779.708778
 30
0.0
 10
74.060125
 20
780.462385
 30
0.0
  0
SPLINE
  5
138
100
AcDbEntity
  8
holes
 62
7
100
AcDbSpline
 70
8
 71
3
 72
8
 73
4
 74
0
 40
0
 40
0
 40
0
 40
0
 40
1
 40
1
 40
1
 40
1
 10
74.060125
 20
780.462385
 30
0.0
 10
72.754839
 20
781.215992
 30
0.0
 10
71.950750
 20
782.608715
 30
0.0
 10
71.950750
 20
784.115929
 30
0.0
  0
SPLINE
  5
139
100
AcDbEntity
  8
holes
 62
7
100
AcDbSpline
 70
8
 71
3
 72
8
 73
4
 74
0
 40
0
 40
0
 40
0
 40
0
 40
1
 40
1
 40
1
 40
1
 10
71.950750
 20
784.115929
 30
0.0
 10
71.950750
 20
785.623143
 30
0.0
 10
72.754839
 20
787.015867
 30
0.0
 10
74.060125
 20
787.769474
 30
0.0
  0
SPLINE
  5
13a
100
AcDbEntity
  8
holes
 62
7
100
AcDbSpline
 70
8
 71
3
 72
8
 73
4
 74
0
 40
0
 40
0
 40
0
 40
0
 40
1
 40
1
 40
1
 40
1
 10
74.060125
 20
787.769474
 30
0.0
 10
75.365411
 20
788.523081
 30
0.0
 10
76.973589
 20
788.523081
 30
0.0
 10
78.278875
 20
787.769474
 30
0.0
  0
SPLINE
  5
13b
100
AcDbEntity
  8
holes
 62
7
100
AcDbSpline
 70
8
 71
3
 72
8
 73
4
 74
0
 40
0
 40
0
 40
0
 40
0
 40
1
 40
1
 40
1
 40
1
 10
78.278875
 20
787.769474
 30
0.0
 10
79.584161
 20
787.015867
 30
0.0
 10
80.388250
 20
785.623143
 30
0.0
 10
80.388250
 20
784.115929
 30
0.0
  0
LWPOLYLINE
  5
13c
100
AcDbEntity
  8
holes
 62
7
100
AcDbPolyline
 90
1
 70
1
 10
69.673964
 20
778.223064
 30
0.0
  0
SPLINE
  5
13d
100
AcDbEntity
  8
holes
 62
7
100
AcDbSpline
 70
8
 71
3
 72
8
 73
4
 74
0
 40
0
 40
0
 40
0
 40
0
 40
1
 40
1
 40
1
 40
1
 10
91.772184
 20
790.276620
 30
0.0
 10
91.772184
 20
787.946669
 30
0.0
 10
89.883385
 20
786.057871
 30
0.0
 10
87.553434
 20
786.057871
 30
0.0
  0
SPLINE
  5
13e
100
AcDbEntity
  8
holes
 62
7
100
AcDbSpline
 70
8
 71
3
 72
8
 73
4
 74
0
 40
0
 40
0
 40
0
 40
0
 40
1
 40
1
 40
1
 40
1
 10
87.553434
 20
786.057871
 30
0.0
 10
85.223483
 20
786.057871
 30
0.0
 10
83.334685
 20
787.946669
 30
0.0
 10
83.334684
 20
790.276620
 30
0.0
  0
SPLINE
  5
13f
100
AcDbEntity
  8
holes
 62
7
100
AcDbSpline
 70
8
 71
3
 72
8
 73
4
 74
0
 40
0
 40
0
 40
0
 40
0
 40
1
 40
1
 40
1
 40
1
 10
83.334684
 20
790.276620
 30
0.0
 10
83.334684
 20
791.783835
 30
0.0
 10
84.138774
 20
793.176558
 30
0.0
 10
85.444059
 20
793.930165
 30
0.0
  0
SPLINE
  5
140
100
AcDbEntity
  8
holes
 62
7
100
AcDbSpline
 70
8
 71
3
 72
8
 73
4
 74
0
 40
0
 40
0
 40
0
 40
0
 40
1
 40
1
 40
1
 40
1
 10
85.444059
 20
793.930165
 30
0.0
 10
86.749345
 20
794.683772
 30
0.0
 10
88.357524
 20
794.683772
 30
0.0
 10
89.662809
 20
793.930165
 30
0.0
  0
SPLINE
  5
141
100
AcDbEntity
  8
holes
 62
7
100
AcDbSpline
 70
8
 71
3
 72
8
 73
4
 74
0
 40
0
 40
0
 40
0
 40
0
 40
1
 40
1
 40
1
 40
1
 10
89.662809
 20
793.930165
 30
0.0
 10
90.968095
 20
793.176558
 30
0.0
 10
91.772184
 20
791.783835
 30
0.0
 10
91.772184
 20
790.276620
 30
0.0
  0
LWPOLYLINE
  5
142
100
AcDbEntity
  8
holes
 62
7
100
AcDbPolyline
 90
1
 70
1
 10
80.388250
 20
784.115929
 30
0.0
  0
SPLINE
  5
143
100
AcDbEntity
  8
holes
 62
7
100
AcDbSpline
 70
8
 71
3
 72
8
 73
4
 74
0
 40
0
 40
0
 40
0
 40
0
 40
1
 40
1
 40
1
 40
1
 10
102.218602
 20
796.303443
 30
0.0
 10
102.218602
 20
794.796229
 30
0.0
 10
101.414513
 20
793.403505
 30
0.0
 10
100.109227
 20
792.649898
 30
0.0
  0
SPLINE
  5
144
100
AcDbEntity
  8
holes
 62
7
100
AcDbSpline
 70
8
 71
3
 72
8
 73
4
 74
0
 40
0
 40
0
 40
0
 40
0
 40
1
 40
1
 40
1
 40
1
 10
100.109227
 20
792.649898
 30
0.0
 10
98.803941
 20
791.896291
 30
0.0
 10
97.195763
 20
791.896291
 30
0.0
 10
95.890477
 20
792.649898
 30
0.0
  0
SPLINE
  5
145
100
AcDbEntity
  8
holes
 62
7
100
AcDbSpline
 70
8
 71
3
 72
8
 73
4
 74
0
 40
0
 40
0
 40
0
 40
0
 40
1
 40
1
 40
1
 40
1
 10
95.890477
 20
792.649898
 30
0.0
 10
94.585191
 20
793.403505
 30
0.0
 10
93.781102
 20
794.796229
 30
0.0
 10
93.781102
 20
796.303443
 30
0.0
  0
SPLINE
  5
146
100
AcDbEntity
  8
holes
 62
7
100
AcDbSpline
 70
8
 71
3
 72
8
 73
4
 74
0
 40
0
 40
0
 40
0
 40
0
 40
1
 40
1
 40
1
 40
1
 10
93.781102
 20
796.303443
 30
0.0
 10
93.781102
 20
797.810657
 30
0.0
 10
94.585191
 20
799.203380
 30
0.0
 10
95.890477
 20
799.956987
 30
0.0
  0
SPLINE
  5
147
100
AcDbEntity
  8
holes
 62
7
100
AcDbSpline
 70
8
 71
3
 72
8
 73
4
 74
0
 40
0
 40
0
 40
0
 40
0
 40
1
 40
1
 40
1
 40
1
 10
95.890477
 20
799.956987
 30
0.0
 10
97.195763
 20
800.710594
 30
0.0
 10
98.803941
 20
800.710594
 30
0.0
 10
100.109227
 20
799.956987
 30
0.0
  0
SPLINE
  5
148
100
AcDbEntity
  8
holes
 62
7
100
AcDbSpline
 70
8
 71
3
 72
8
 73
4
 74
0
 40
0
 40
0
 40
0
 40
0
 40
1
 40
1
 40
1
 40
1
 10
100.109227
 20
799.956987
 30
0.0
 10
101.414513
 20
799.203380
 30
0.0
 10
102.218602
 20
797.810657
 30
0.0
 10
102.218602
 20
796.303443
 30
0.0
  0
LWPOLYLINE
  5
149
100
AcDbEntity
  8
holes
 62
7
100
AcDbPolyline
 90
1
 70
1
 10
91.772184
 20
790.276620
 30
0.0
  0
SPLINE
  5
14a
100
AcDbEntity
  8
holes
 62
7
100
AcDbSpline
 70
8
 71
3
 72
8
 73
4
 74
0
 40
0
 40
0
 40
0
 40
0
 40
1
 40
1
 40
1
 40
1
 10
112.129331
 20
801.124838
 30
0.0
 10
112.129331
 20
799.617624
 30
0.0
 10
111.325242
 20
798.224900
 30
0.0
 10
110.019956
 20
797.471293
 30
0.0
  0
SPLINE
  5
14b
100
AcDbEntity
  8
holes
 62
7
100
AcDbSpline
 70
8
 71
3
 72
8
 73
4
 74
0
 40
0
 40
0
 40
0
 40
0
 40
1
 40
1
 40
1
 40
1
 10
110.019956
 20
797.471293
 30
0.0
 10
108.714670
 20
796.717686
 30
0.0
 10
107.106492
 20
796.717686
 30
0.0
 10
105.801206
 20
797.471293
 30
0.0
  0
SPLINE
  5
14c
100
AcDbEntity
  8
holes
 62
7
100
AcDbSpline
 70
8
 71
3
 72
8
 73
4
 74
0
 40
0
 40
0
 40
0
 40
0
 40
1
 40
1
 40
1
 40
1
 10
105.801206
 20
797.471293
 30
0.0
 10
104.495920
 20
798.224900
 30
0.0
 10
103.691831
 20
799.617624
 30
0.0
 10
103.691831
 20
801.124838
 30
0.0
  0
SPLINE
  5
14d
100
AcDbEntity
  8
holes
 62
7
100
AcDbSpline
 70
8
 71
3
 72
8
 73
4
 74
0
 40
0
 40
0
 40
0
 40
0
 40
1
 40
1
 40
1
 40
1
 10
103.691831
 20
801.124838
 30
0.0
 10
103.691831
 20
802.632052
 30
0.0
 10
104.495920
 20
804.024775
 30
0.0
 10
105.801206
 20
804.778382
 30
0.0
  0
SPLINE
  5
14e
100
AcDbEntity
  8
holes
 62
7
100
AcDbSpline
 70
8
 71
3
 72
8
 73
4
 74
0
 40
0
 40
0
 40
0
 40
0
 40
1
 40
1
 40
1
 40
1
 10
105.801206
 20
804.778382
 30
0.0
 10
107.106492
 20
805.531989
 30
0.0
 10
108.714670
 20
805.531989
 30
0.0
 10
110.019956
 20
804.778382
 30
0.0
  0
SPLINE
  5
14f
100
AcDbEntity
  8
holes
 62
7
100
AcDbSpline
 70
8
 71
3
 72
8
 73
4
 74
0
 40
0
 40
0
 40
0
 40
0
 40
1
 40
1
 40
1
 40
1
 10
110.019956
 20
804.778382
 30
0.0
 10
111.325242
 20
804.024775
 30
0.0
 10
112.129331
 20
802.632052
 30
0.0
 10
112.129331
 20
801.124838
 30
0.0
  0
LWPOLYLINE
  5
150
100
AcDbEntity
  8
holes
 62
7
100
AcDbPolyline
 90
1
 70
1
 10
102.218602
 20
796.303443
 30
0.0
  0
SPLINE
  5
151
100
AcDbEntity
  8
holes
 62
7
100
AcDbSpline
 70
8
 71
3
 72
8
 73
4
 74
0
 40
0
 40
0
 40
0
 40
0
 40
1
 40
1
 40
1
 40
1
 10
122.307903
 20
807.419486
 30
0.0
 10
122.307903
 20
805.912272
 30
0.0
 10
121.503814
 20
804.519549
 30
0.0
 10
120.198528
 20
803.765941
 30
0.0
  0
SPLINE
  5
152
100
AcDbEntity
  8
holes
 62
7
100
AcDbSpline
 70
8
 71
3
 72
8
 73
4
 74
0
 40
0
 40
0
 40
0
 40
0
 40
1
 40
1
 40
1
 40
1
 10
120.198528
 20
803.765941
 30
0.0
 10
118.893242
 20
803.012334
 30
0.0
 10
117.285064
 20
803.012334
 30
0.0
 10
115.979778
 20
803.765941
 30
0.0
  0
SPLINE
  5
153
100
AcDbEntity
  8
holes
 62
7
100
AcDbSpline
 70
8
 71
3
 72
8
 73
4
 74
0
 40
0
 40
0
 40
0
 40
0
 40
1
 40
1
 40
1
 40
1
 10
115.979778
 20
803.765941
 30
0.0
 10
114.674492
 20
804.519549
 30
0.0
 10
113.870403
 20
805.912272
 30
0.0
 10
113.870403
 20
807.419486
 30
0.0
  0
SPLINE
  5
154
100
AcDbEntity
  8
holes
 62
7
100
AcDbSpline
 70
8
 71
3
 72
8
 73
4
 74
0
 40
0
 40
0
 40
0
 40
0
 40
1
 40
1
 40
1
 40
1
 10
113.870403
 20
807.419486
 30
0.0
 10
113.870403
 20
808.926700
 30
0.0
 10
114.674492
 20
810.319423
 30
0.0
 10
115.979778
 20
811.073031
 30
0.0
  0
SPLINE
  5
155
100
AcDbEntity
  8
holes
 62
7
100
AcDbSpline
 70
8
 71
3
 72
8
 73
4
 74
0
 40
0
 40
0
 40
0
 40
0
 40
1
 40
1
 40
1
 40
1
 10
115.979778
 20
811.073031
 30
0.0
 10
117.285064
 20
811.826638
 30
0.0
 10
118.893242
 20
811.826638
 30
0.0
 10
120.198528
 20
811.073031
 30
0.0
  0
SPLINE
  5
156
100
AcDbEntity
  8
holes
 62
7
100
AcDbSpline
 70
8
 71
3
 72
8
 73
4
 74
0
 40
0
 40
0
 40
0
 40
0
 40
1
 40
1
 40
1
 40
1
 10
120.198528
 20
811.073031
 30
0.0
 10
121.503814
 20
810.319423
 30
0.0
 10
122.307903
 20
808.926700
 30
0.0
 10
122.307903
 20
807.419486
 30
0.0
  0
LWPOLYLINE
  5
157
100
AcDbEntity
  8
holes
 62
7
100
AcDbPolyline
 90
1
 70
1
 10
112.129331
 20
801.124838
 30
0.0
  0
SPLINE
  5
158
100
AcDbEntity
  8
holes
 62
7
100
AcDbSpline
 70
8
 71
3
 72
8
 73
4
 74
0
 40
0
 40
0
 40
0
 40
0
 40
1
 40
1
 40
1
 40
1
 10
71.147192
 20
790.410577
 30
0.0
 10
71.147192
 20
788.080626
 30
0.0
 10
69.258393
 20
786.191828
 30
0.0
 10
66.928442
 20
786.191828
 30
0.0
  0
SPLINE
  5
159
100
AcDbEntity
  8
holes
 62
7
100
AcDbSpline
 70
8
 71
3
 72
8
 73
4
 74
0
 40
0
 40
0
 40
0
 40
0
 40
1
 40
1
 40
1
 40
1
 10
66.928442
 20
786.191828
 30
0.0
 10
64.598491
 20
786.191828
 30
0.0
 10
62.709692
 20
788.080626
 30
0.0
 10
62.709692
 20
790.410577
 30
0.0
  0
SPLINE
  5
15a
100
AcDbEntity
  8
holes
 62
7
100
AcDbSpline
 70
8
 71
3
 72
8
 73
4
 74
0
 40
0
 40
0
 40
0
 40
0
 40
1
 40
1
 40
1
 40
1
 10
62.709692
 20
790.410577
 30
0.0
 10
62.709692
 20
792.740528
 30
0.0
 10
64.598491
 20
794.629327
 30
0.0
 10
66.928442
 20
794.629327
 30
0.0
  0
SPLINE
  5
15b
100
AcDbEntity
  8
holes
 62
7
100
AcDbSpline
 70
8
 71
3
 72
8
 73
4
 74
0
 40
0
 40
0
 40
0
 40
0
 40
1
 40
1
 40
1
 40
1
 10
66.928442
 20
794.629327
 30
0.0
 10
69.258393
 20
794.629327
 30
0.0
 10
71.147192
 20
792.740528
 30
0.0
 10
71.147192
 20
790.410577
 30
0.0
  0
LWPOLYLINE
  5
15c
100
AcDbEntity
  8
holes
 62
7
100
AcDbPolyline
 90
1
 70
1
 10
122.307903
 20
807.419486
 30
0.0
  0
SPLINE
  5
15d
100
AcDbEntity
  8
holes
 62
7
100
AcDbSpline
 70
8
 71
3
 72
8
 73
4
 74
0
 40
0
 40
0
 40
0
 40
0
 40
1
 40
1
 40
1
 40
1
 10
81.727544
 20
794.964149
 30
0.0
 10
81.727544
 20
793.456935
 30
0.0
 10
80.923454
 20
792.064212
 30
0.0
 10
79.618169
 20
791.310605
 30
0.0
  0
SPLINE
  5
15e
100
AcDbEntity
  8
holes
 62
7
100
AcDbSpline
 70
8
 71
3
 72
8
 73
4
 74
0
 40
0
 40
0
 40
0
 40
0
 40
1
 40
1
 40
1
 40
1
 10
79.618169
 20
791.310605
 30
0.0
 10
78.312883
 20
790.556998
 30
0.0
 10
76.704705
 20
790.556998
 30
0.0
 10
75.399419
 20
791.310605
 30
0.0
  0
SPLINE
  5
15f
100
AcDbEntity
  8
holes
 62
7
100
AcDbSpline
 70
8
 71
3
 72
8
 73
4
 74
0
 40
0
 40
0
 40
0
 40
0
 40
1
 40
1
 40
1
 40
1
 10
75.399419
 20
791.310605
 30
0.0
 10
74.094133
 20
792.064212
 30
0.0
 10
73.290044
 20
793.456935
 30
0.0
 10
73.290044
 20
794.964149
 30
0.0
  0
SPLINE
  5
160
100
AcDbEntity
  8
holes
 62
7
100
AcDbSpline
 70
8
 71
3
 72
8
 73
4
 74
0
 40
0
 40
0
 40
0
 40
0
 40
1
 40
1
 40
1
 40
1
 10
73.290044
 20
794.964149
 30
0.0
 10
73.290044
 20
796.471363
 30
0.0
 10
74.094133
 20
797.864087
 30
0.0
 10
75.399419
 20
798.617694
 30
0.0
  0
SPLINE
  5
161
100
AcDbEntity
  8
holes
 62
7
100
AcDbSpline
 70
8
 71
3
 72
8
 73
4
 74
0
 40
0
 40
0
 40
0
 40
0
 40
1
 40
1
 40
1
 40
1
 10
75.399419
 20
798.617694
 30
0.0
 10
76.704705
 20
799.371301
 30
0.0
 10
78.312883
 20
799.371301
 30
0.0
 10
79.618169
 20
798.617694
 30
0.0
  0
SPLINE
  5
162
100
AcDbEntity
  8
holes
 62
7
100
AcDbSpline
 70
8
 71
3
 72
8
 73
4
 74
0
 40
0
 40
0
 40
0
 40
0
 40
1
 40
1
 40
1
 40
1
 10
79.618169
 20
798.617694
 30
0.0
 10
80.923454
 20
797.864087
 30
0.0
 10
81.727544
 20
796.471363
 30
0.0
 10
81.727544
 20
794.964149
 30
0.0
  0
LWPOLYLINE
  5
163
100
AcDbEntity
  8
holes
 62
7
100
AcDbPolyline
 90
1
 70
1
 10
71.147192
 20
790.410577
 30
0.0
  0
SPLINE
  5
164
100
AcDbEntity
  8
holes
 62
7
100
AcDbSpline
 70
8
 71
3
 72
8
 73
4
 74
0
 40
0
 40
0
 40
0
 40
0
 40
1
 40
1
 40
1
 40
1
 10
92.843609
 20
801.392706
 30
0.0
 10
92.843609
 20
799.885492
 30
0.0
 10
92.039520
 20
798.492769
 30
0.0
 10
90.734234
 20
797.739162
 30
0.0
  0
SPLINE
  5
165
100
AcDbEntity
  8
holes
 62
7
100
AcDbSpline
 70
8
 71
3
 72
8
 73
4
 74
0
 40
0
 40
0
 40
0
 40
0
 40
1
 40
1
 40
1
 40
1
 10
90.734234
 20
797.739162
 30
0.0
 10
89.428949
 20
796.985555
 30
0.0
 10
87.820770
 20
796.985555
 30
0.0
 10
86.515485
 20
797.739162
 30
0.0
  0
SPLINE
  5
166
100
AcDbEntity
  8
holes
 62
7
100
AcDbSpline
 70
8
 71
3
 72
8
 73
4
 74
0
 40
0
 40
0
 40
0
 40
0
 40
1
 40
1
 40
1
 40
1
 10
86.515485
 20
797.739162
 30
0.0
 10
85.210199
 20
798.492769
 30
0.0
 10
84.406110
 20
799.885492
 30
0.0
 10
84.406110
 20
801.392706
 30
0.0
  0
SPLINE
  5
167
100
AcDbEntity
  8
holes
 62
7
100
AcDbSpline
 70
8
 71
3
 72
8
 73
4
 74
0
 40
0
 40
0
 40
0
 40
0
 40
1
 40
1
 40
1
 40
1
 10
84.406110
 20
801.392706
 30
0.0
 10
84.406110
 20
802.899920
 30
0.0
 10
85.210199
 20
804.292644
 30
0.0
 10
86.515485
 20
805.046251
 30
0.0
  0
SPLINE
  5
168
100
AcDbEntity
  8
holes
 62
7
100
AcDbSpline
 70
8
 71
3
 72
8
 73
4
 74
0
 40
0
 40
0
 40
0
 40
0
 40
1
 40
1
 40
1
 40
1
 10
86.515485
 20
805.046251
 30
0.0
 10
87.820770
 20
805.799858
 30
0.0
 10
89.428949
 20
805.799858
 30
0.0
 10
90.734234
 20
805.046251
 30
0.0
  0
SPLINE
  5
169
100
AcDbEntity
  8
holes
 62
7
100
AcDbSpline
 70
8
 71
3
 72
8
 73
4
 74
0
 40
0
 40
0
 40
0
 40
0
 40
1
 40
1
 40
1
 40
1
 10
90.734234
 20
805.046251
 30
0.0
 10
92.039520
 20
804.292644
 30
0.0
 10
92.843609
 20
802.899920
 30
0.0
 10
92.843609
 20
801.392706
 30
0.0
  0
LWPOLYLINE
  5
16a
100
AcDbEntity
  8
holes
 62
7
100
AcDbPolyline
 90
1
 70
1
 10
81.727544
 20
794.964149
 30
0.0
  0
SPLINE
  5
16b
100
AcDbEntity
  8
holes
 62
7
100
AcDbSpline
 70
8
 71
3
 72
8
 73
4
 74
0
 40
0
 40
0
 40
0
 40
0
 40
1
 40
1
 40
1
 40
1
 10
103.022184
 20
806.615926
 30
0.0
 10
103.022184
 20
805.108712
 30
0.0
 10
102.218095
 20
803.715989
 30
0.0
 10
100.912809
 20
802.962382
 30
0.0
  0
SPLINE
  5
16c
100
AcDbEntity
  8
holes
 62
7
100
AcDbSpline
 70
8
 71
3
 72
8
 73
4
 74
0
 40
0
 40
0
 40
0
 40
0
 40
1
 40
1
 40
1
 40
1
 10
100.912809
 20
802.962382
 30
0.0
 10
99.607524
 20
802.208775
 30
0.0
 10
97.999345
 20
802.208775
 30
0.0
 10
96.694059
 20
802.962382
 30
0.0
  0
SPLINE
  5
16d
100
AcDbEntity
  8
holes
 62
7
100
AcDbSpline
 70
8
 71
3
 72
8
 73
4
 74
0
 40
0
 40
0
 40
0
 40
0
 40
1
 40
1
 40
1
 40
1
 10
96.694059
 20
802.962382
 30
0.0
 10
95.388774
 20
803.715989
 30
0.0
 10
94.584684
 20
805.108712
 30
0.0
 10
94.584684
 20
806.615926
 30
0.0
  0
SPLINE
  5
16e
100
AcDbEntity
  8
holes
 62
7
100
AcDbSpline
 70
8
 71
3
 72
8
 73
4
 74
0
 40
0
 40
0
 40
0
 40
0
 40
1
 40
1
 40
1
 40
1
 10
94.584684
 20
806.615926
 30
0.0
 10
94.584684
 20
808.123140
 30
0.0
 10
95.388774
 20
809.515864
 30
0.0
 10
96.694059
 20
810.269471
 30
0.0
  0
SPLINE
  5
16f
100
AcDbEntity
  8
holes
 62
7
100
AcDbSpline
 70
8
 71
3
 72
8
 73
4
 74
0
 40
0
 40
0
 40
0
 40
0
 40
1
 40
1
 40
1
 40
1
 10
96.694059
 20
810.269471
 30
0.0
 10
97.999345
 20
811.023078
 30
0.0
 10
99.607524
 20
811.023078
 30
0.0
 10
100.912809
 20
810.269471
 30
0.0
  0
SPLINE
  5
170
100
AcDbEntity
  8
holes
 62
7
100
AcDbSpline
 70
8
 71
3
 72
8
 73
4
 74
0
 40
0
 40
0
 40
0
 40
0
 40
1
 40
1
 40
1
 40
1
 10
100.912809
 20
810.269471
 30
0.0
 10
102.218095
 20
809.515864
 30
0.0
 10
103.022184
 20
808.123140
 30
0.0
 10
103.022184
 20
806.615926
 30
0.0
  0
LWPOLYLINE
  5
171
100
AcDbEntity
  8
holes
 62
7
100
AcDbPolyline
 90
1
 70
1
 10
92.843609
 20
801.392706
 30
0.0
  0
SPLINE
  5
172
100
AcDbEntity
  8
holes
 62
7
100
AcDbSpline
 70
8
 71
3
 72
8
 73
4
 74
0
 40
0
 40
0
 40
0
 40
0
 40
1
 40
1
 40
1
 40
1
 10
112.531111
 20
812.374883
 30
0.0
 10
112.531111
 20
810.867669
 30
0.0
 10
111.727022
 20
809.474946
 30
0.0
 10
110.421736
 20
808.721339
 30
0.0
  0
SPLINE
  5
173
100
AcDbEntity
  8
holes
 62
7
100
AcDbSpline
 70
8
 71
3
 72
8
 73
4
 74
0
 40
0
 40
0
 40
0
 40
0
 40
1
 40
1
 40
1
 40
1
 10
110.421736
 20
808.721339
 30
0.0
 10
109.116450
 20
807.967732
 30
0.0
 10
107.508272
 20
807.967732
 30
0.0
 10
106.202986
 20
808.721339
 30
0.0
  0
SPLINE
  5
174
100
AcDbEntity
  8
holes
 62
7
100
AcDbSpline
 70
8
 71
3
 72
8
 73
4
 74
0
 40
0
 40
0
 40
0
 40
0
 40
1
 40
1
 40
1
 40
1
 10
106.202986
 20
808.721339
 30
0.0
 10
104.897700
 20
809.474946
 30
0.0
 10
104.093611
 20
810.867669
 30
0.0
 10
104.093611
 20
812.374883
 30
0.0
  0
SPLINE
  5
175
100
AcDbEntity
  8
holes
 62
7
100
AcDbSpline
 70
8
 71
3
 72
8
 73
4
 74
0
 40
0
 40
0
 40
0
 40
0
 40
1
 40
1
 40
1
 40
1
 10
104.093611
 20
812.374883
 30
0.0
 10
104.093611
 20
813.882097
 30
0.0
 10
104.897700
 20
815.274821
 30
0.0
 10
106.202986
 20
816.028428
 30
0.0
  0
SPLINE
  5
176
100
AcDbEntity
  8
holes
 62
7
100
AcDbSpline
 70
8
 71
3
 72
8
 73
4
 74
0
 40
0
 40
0
 40
0
 40
0
 40
1
 40
1
 40
1
 40
1
 10
106.202986
 20
816.028428
 30
0.0
 10
107.508272
 20
816.782035
 30
0.0
 10
109.116450
 20
816.782035
 30
0.0
 10
110.421736
 20
816.028428
 30
0.0
  0
SPLINE
  5
177
100
AcDbEntity
  8
holes
 62
7
100
AcDbSpline
 70
8
 71
3
 72
8
 73
4
 74
0
 40
0
 40
0
 40
0
 40
0
 40
1
 40
1
 40
1
 40
1
 10
110.421736
 20
816.028428
 30
0.0
 10
111.727022
 20
815.274821
 30
0.0
 10
112.531111
 20
813.882097
 30
0.0
 10
112.531111
 20
812.374883
 30
0.0
  0
LWPOLYLINE
  5
178
100
AcDbEntity
  8
holes
 62
7
100
AcDbPolyline
 90
1
 70
1
 10
103.022184
 20
806.615926
 30
0.0
  0
SPLINE
  5
179
100
AcDbEntity
  8
holes
 62
7
100
AcDbSpline
 70
8
 71
3
 72
8
 73
4
 74
0
 40
0
 40
0
 40
0
 40
0
 40
1
 40
1
 40
1
 40
1
 10
73.290042
 20
801.392706
 30
0.0
 10
73.290042
 20
799.885492
 30
0.0
 10
72.485953
 20
798.492769
 30
0.0
 10
71.180667
 20
797.739162
 30
0.0
  0
SPLINE
  5
17a
100
AcDbEntity
  8
holes
 62
7
100
AcDbSpline
 70
8
 71
3
 72
8
 73
4
 74
0
 40
0
 40
0
 40
0
 40
0
 40
1
 40
1
 40
1
 40
1
 10
71.180667
 20
797.739162
 30
0.0
 10
69.875381
 20
796.985555
 30
0.0
 10
68.267203
 20
796.985555
 30
0.0
 10
66.961917
 20
797.739162
 30
0.0
  0
SPLINE
  5
17b
100
AcDbEntity
  8
holes
 62
7
100
AcDbSpline
 70
8
 71
3
 72
8
 73
4
 74
0
 40
0
 40
0
 40
0
 40
0
 40
1
 40
1
 40
1
 40
1
 10
66.961917
 20
797.739162
 30
0.0
 10
65.656632
 20
798.492769
 30
0.0
 10
64.852542
 20
799.885492
 30
0.0
 10
64.852542
 20
801.392706
 30
0.0
  0
SPLINE
  5
17c
100
AcDbEntity
  8
holes
 62
7
100
AcDbSpline
 70
8
 71
3
 72
8
 73
4
 74
0
 40
0
 40
0
 40
0
 40
0
 40
1
 40
1
 40
1
 40
1
 10
64.852542
 20
801.392706
 30
0.0
 10
64.852543
 20
803.722657
 30
0.0
 10
66.741341
 20
805.611456
 30
0.0
 10
69.071292
 20
805.611456
 30
0.0
  0
SPLINE
  5
17d
100
AcDbEntity
  8
holes
 62
7
100
AcDbSpline
 70
8
 71
3
 72
8
 73
4
 74
0
 40
0
 40
0
 40
0
 40
0
 40
1
 40
1
 40
1
 40
1
 10
69.071292
 20
805.611456
 30
0.0
 10
71.401243
 20
805.611456
 30
0.0
 10
73.290042
 20
803.722657
 30
0.0
 10
73.290042
 20
801.392706
 30
0.0
  0
LWPOLYLINE
  5
17e
100
AcDbEntity
  8
holes
 62
7
100
AcDbPolyline
 90
1
 70
1
 10
112.531111
 20
812.374883
 30
0.0
  0
SPLINE
  5
17f
100
AcDbEntity
  8
holes
 62
7
100
AcDbSpline
 70
8
 71
3
 72
8
 73
4
 74
0
 40
0
 40
0
 40
0
 40
0
 40
1
 40
1
 40
1
 40
1
 10
83.066814
 20
806.749838
 30
0.0
 10
83.066814
 20
804.419887
 30
0.0
 10
81.178016
 20
802.531088
 30
0.0
 10
78.848065
 20
802.531088
 30
0.0
  0
SPLINE
  5
180
100
AcDbEntity
  8
holes
 62
7
100
AcDbSpline
 70
8
 71
3
 72
8
 73
4
 74
0
 40
0
 40
0
 40
0
 40
0
 40
1
 40
1
 40
1
 40
1
 10
78.848065
 20
802.531088
 30
0.0
 10
76.518113
 20
802.531088
 30
0.0
 10
74.629315
 20
804.419887
 30
0.0
 10
74.629315
 20
806.749838
 30
0.0
  0
SPLINE
  5
181
100
AcDbEntity
  8
holes
 62
7
100
AcDbSpline
 70
8
 71
3
 72
8
 73
4
 74
0
 40
0
 40
0
 40
0
 40
0
 40
1
 40
1
 40
1
 40
1
 10
74.629315
 20
806.749838
 30
0.0
 10
74.629315
 20
809.079789
 30
0.0
 10
76.518113
 20
810.968587
 30
0.0
 10
78.848065
 20
810.968587
 30
0.0
  0
SPLINE
  5
182
100
AcDbEntity
  8
holes
 62
7
100
AcDbSpline
 70
8
 71
3
 72
8
 73
4
 74
0
 40
0
 40
0
 40
0
 40
0
 40
1
 40
1
 40
1
 40
1
 10
78.848065
 20
810.968587
 30
0.0
 10
81.178016
 20
810.968587
 30
0.0
 10
83.066814
 20
809.079789
 30
0.0
 10
83.066814
 20
806.749838
 30
0.0
  0
LWPOLYLINE
  5
183
100
AcDbEntity
  8
holes
 62
7
100
AcDbPolyline
 90
1
 70
1
 10
73.290042
 20
801.392706
 30
0.0
  0
SPLINE
  5
184
100
AcDbEntity
  8
holes
 62
7
100
AcDbSpline
 70
8
 71
3
 72
8
 73
4
 74
0
 40
0
 40
0
 40
0
 40
0
 40
1
 40
1
 40
1
 40
1
 10
93.647192
 20
812.910575
 30
0.0
 10
93.647192
 20
811.403360
 30
0.0
 10
92.843103
 20
810.010637
 30
0.0
 10
91.537817
 20
809.257030
 30
0.0
  0
SPLINE
  5
185
100
AcDbEntity
  8
holes
 62
7
100
AcDbSpline
 70
8
 71
3
 72
8
 73
4
 74
0
 40
0
 40
0
 40
0
 40
0
 40
1
 40
1
 40
1
 40
1
 10
91.537817
 20
809.257030
 30
0.0
 10
90.232531
 20
808.503423
 30
0.0
 10
88.624353
 20
808.503423
 30
0.0
 10
87.319067
 20
809.257030
 30
0.0
  0
SPLINE
  5
186
100
AcDbEntity
  8
holes
 62
7
100
AcDbSpline
 70
8
 71
3
 72
8
 73
4
 74
0
 40
0
 40
0
 40
0
 40
0
 40
1
 40
1
 40
1
 40
1
 10
87.319067
 20
809.257030
 30
0.0
 10
86.013781
 20
810.010637
 30
0.0
 10
85.209692
 20
811.403360
 30
0.0
 10
85.209692
 20
812.910575
 30
0.0
  0
SPLINE
  5
187
100
AcDbEntity
  8
holes
 62
7
100
AcDbSpline
 70
8
 71
3
 72
8
 73
4
 74
0
 40
0
 40
0
 40
0
 40
0
 40
1
 40
1
 40
1
 40
1
 10
85.209692
 20
812.910575
 30
0.0
 10
85.209692
 20
814.417789
 30
0.0
 10
86.013781
 20
815.810512
 30
0.0
 10
87.319067
 20
816.564119
 30
0.0
  0
SPLINE
  5
188
100
AcDbEntity
  8
holes
 62
7
100
AcDbSpline
 70
8
 71
3
 72
8
 73
4
 74
0
 40
0
 40
0
 40
0
 40
0
 40
1
 40
1
 40
1
 40
1
 10
87.319067
 20
816.564119
 30
0.0
 10
88.624353
 20
817.317726
 30
0.0
 10
90.232531
 20
817.317726
 30
0.0
 10
91.537817
 20
816.564119
 30
0.0
  0
SPLINE
  5
189
100
AcDbEntity
  8
holes
 62
7
100
AcDbSpline
 70
8
 71
3
 72
8
 73
4
 74
0
 40
0
 40
0
 40
0
 40
0
 40
1
 40
1
 40
1
 40
1
 10
91.537817
 20
816.564119
 30
0.0
 10
92.843103
 20
815.810512
 30
0.0
 10
93.647192
 20
814.417789
 30
0.0
 10
93.647192
 20
812.910575
 30
0.0
  0
LWPOLYLINE
  5
18a
100
AcDbEntity
  8
holes
 62
7
100
AcDbPolyline
 90
1
 70
1
 10
83.066814
 20
806.749838
 30
0.0
  0
SPLINE
  5
18b
100
AcDbEntity
  8
holes
 62
7
100
AcDbSpline
 70
8
 71
3
 72
8
 73
4
 74
0
 40
0
 40
0
 40
0
 40
0
 40
1
 40
1
 40
1
 40
1
 10
103.290050
 20
818.267707
 30
0.0
 10
103.290050
 20
816.760493
 30
0.0
 10
102.485961
 20
815.367769
 30
0.0
 10
101.180675
 20
814.614162
 30
0.0
  0
SPLINE
  5
18c
100
AcDbEntity
  8
holes
 62
7
100
AcDbSpline
 70
8
 71
3
 72
8
 73
4
 74
0
 40
0
 40
0
 40
0
 40
0
 40
1
 40
1
 40
1
 40
1
 10
101.180675
 20
814.614162
 30
0.0
 10
99.875389
 20
813.860555
 30
0.0
 10
98.267211
 20
813.860555
 30
0.0
 10
96.961925
 20
814.614162
 30
0.0
  0
SPLINE
  5
18d
100
AcDbEntity
  8
holes
 62
7
100
AcDbSpline
 70
8
 71
3
 72
8
 73
4
 74
0
 40
0
 40
0
 40
0
 40
0
 40
1
 40
1
 40
1
 40
1
 10
96.961925
 20
814.614162
 30
0.0
 10
95.656639
 20
815.367769
 30
0.0
 10
94.852550
 20
816.760493
 30
0.0
 10
94.852550
 20
818.267707
 30
0.0
  0
SPLINE
  5
18e
100
AcDbEntity
  8
holes
 62
7
100
AcDbSpline
 70
8
 71
3
 72
8
 73
4
 74
0
 40
0
 40
0
 40
0
 40
0
 40
1
 40
1
 40
1
 40
1
 10
94.852550
 20
818.267707
 30
0.0
 10
94.852550
 20
819.774921
 30
0.0
 10
95.656639
 20
821.167644
 30
0.0
 10
96.961925
 20
821.921251
 30
0.0
  0
SPLINE
  5
18f
100
AcDbEntity
  8
holes
 62
7
100
AcDbSpline
 70
8
 71
3
 72
8
 73
4
 74
0
 40
0
 40
0
 40
0
 40
0
 40
1
 40
1
 40
1
 40
1
 10
96.961925
 20
821.921251
 30
0.0
 10
98.267211
 20
822.674858
 30
0.0
 10
99.875389
 20
822.674858
 30
0.0
 10
101.180675
 20
821.921251
 30
0.0
  0
SPLINE
  5
190
100
AcDbEntity
  8
holes
 62
7
100
AcDbSpline
 70
8
 71
3
 72
8
 73
4
 74
0
 40
0
 40
0
 40
0
 40
0
 40
1
 40
1
 40
1
 40
1
 10
101.180675
 20
821.921251
 30
0.0
 10
102.485961
 20
821.167644
 30
0.0
 10
103.290050
 20
819.774921
 30
0.0
 10
103.290050
 20
818.267707
 30
0.0
  0
LWPOLYLINE
  5
191
100
AcDbEntity
  8
holes
 62
7
100
AcDbPolyline
 90
1
 70
1
 10
93.647192
 20
812.910575
 30
0.0
  0
SPLINE
  5
192
100
AcDbEntity
  8
holes
 62
7
100
AcDbSpline
 70
8
 71
3
 72
8
 73
4
 74
0
 40
0
 40
0
 40
0
 40
0
 40
1
 40
1
 40
1
 40
1
 10
214.686564
 20
762.265939
 30
0.0
 10
214.686564
 20
760.758725
 30
0.0
 10
215.490653
 20
759.366001
 30
0.0
 10
216.795938
 20
758.612394
 30
0.0
  0
SPLINE
  5
193
100
AcDbEntity
  8
holes
 62
7
100
AcDbSpline
 70
8
 71
3
 72
8
 73
4
 74
0
 40
0
 40
0
 40
0
 40
0
 40
1
 40
1
 40
1
 40
1
 10
216.795938
 20
758.612394
 30
0.0
 10
218.101224
 20
757.858787
 30
0.0
 10
219.709403
 20
757.858787
 30
0.0
 10
221.014688
 20
758.612394
 30
0.0
  0
SPLINE
  5
194
100
AcDbEntity
  8
holes
 62
7
100
AcDbSpline
 70
8
 71
3
 72
8
 73
4
 74
0
 40
0
 40
0
 40
0
 40
0
 40
1
 40
1
 40
1
 40
1
 10
221.014688
 20
758.612394
 30
0.0
 10
222.319974
 20
759.366001
 30
0.0
 10
223.124063
 20
760.758725
 30
0.0
 10
223.124063
 20
762.265939
 30
0.0
  0
SPLINE
  5
195
100
AcDbEntity
  8
holes
 62
7
100
AcDbSpline
 70
8
 71
3
 72
8
 73
4
 74
0
 40
0
 40
0
 40
0
 40
0
 40
1
 40
1
 40
1
 40
1
 10
223.124063
 20
762.265939
 30
0.0
 10
223.124063
 20
763.773153
 30
0.0
 10
222.319974
 20
765.165876
 30
0.0
 10
221.014688
 20
765.919483
 30
0.0
  0
SPLINE
  5
196
100
AcDbEntity
  8
holes
 62
7
100
AcDbSpline
 70
8
 71
3
 72
8
 73
4
 74
0
 40
0
 40
0
 40
0
 40
0
 40
1
 40
1
 40
1
 40
1
 10
221.014688
 20
765.919483
 30
0.0
 10
219.709403
 20
766.673091
 30
0.0
 10
218.101224
 20
766.673091
 30
0.0
 10
216.795938
 20
765.919483
 30
0.0
  0
SPLINE
  5
197
100
AcDbEntity
  8
holes
 62
7
100
AcDbSpline
 70
8
 71
3
 72
8
 73
4
 74
0
 40
0
 40
0
 40
0
 40
0
 40
1
 40
1
 40
1
 40
1
 10
216.795938
 20
765.919483
 30
0.0
 10
215.490653
 20
765.165876
 30
0.0
 10
214.686564
 20
763.773153
 30
0.0
 10
214.686564
 20
762.265939
 30
0.0
  0
LWPOLYLINE
  5
198
100
AcDbEntity
  8
holes
 62
7
100
AcDbPolyline
 90
1
 70
1
 10
103.290050
 20
818.267707
 30
0.0
  0
SPLINE
  5
199
100
AcDbEntity
  8
holes
 62
7
100
AcDbSpline
 70
8
 71
3
 72
8
 73
4
 74
0
 40
0
 40
0
 40
0
 40
0
 40
1
 40
1
 40
1
 40
1
 10
153.280332
 20
797.154318
 30
0.0
 10
153.280332
 20
795.647104
 30
0.0
 10
154.084421
 20
794.254381
 30
0.0
 10
155.389707
 20
793.500774
 30
0.0
  0
SPLINE
  5
19a
100
AcDbEntity
  8
holes
 62
7
100
AcDbSpline
 70
8
 71
3
 72
8
 73
4
 74
0
 40
0
 40
0
 40
0
 40
0
 40
1
 40
1
 40
1
 40
1
 10
155.389707
 20
793.500774
 30
0.0
 10
156.694992
 20
792.747167
 30
0.0
 10
158.303171
 20
792.747167
 30
0.0
 10
159.608457
 20
793.500774
 30
0.0
  0
SPLINE
  5
19b
100
AcDbEntity
  8
holes
 62
7
100
AcDbSpline
 70
8
 71
3
 72
8
 73
4
 74
0
 40
0
 40
0
 40
0
 40
0
 40
1
 40
1
 40
1
 40
1
 10
159.608457
 20
793.500774
 30
0.0
 10
160.913742
 20
794.254381
 30
0.0
 10
161.717831
 20
795.647104
 30
0.0
 10
161.717831
 20
797.154318
 30
0.0
  0
SPLINE
  5
19c
100
AcDbEntity
  8
holes
 62
7
100
AcDbSpline
 70
8
 71
3
 72
8
 73
4
 74
0
 40
0
 40
0
 40
0
 40
0
 40
1
 40
1
 40
1
 40
1
 10
161.717831
 20
797.154318
 30
0.0
 10
161.717831
 20
798.661533
 30
0.0
 10
160.913742
 20
800.054256
 30
0.0
 10
159.608457
 20
800.807863
 30
0.0
  0
SPLINE
  5
19d
100
AcDbEntity
  8
holes
 62
7
100
AcDbSpline
 70
8
 71
3
 72
8
 73
4
 74
0
 40
0
 40
0
 40
0
 40
0
 40
1
 40
1
 40
1
 40
1
 10
159.608457
 20
800.807863
 30
0.0
 10
158.303171
 20
801.561470
 30
0.0
 10
156.694992
 20
801.561470
 30
0.0
 10
155.389707
 20
800.807863
 30
0.0
  0
SPLINE
  5
19e
100
AcDbEntity
  8
holes
 62
7
100
AcDbSpline
 70
8
 71
3
 72
8
 73
4
 74
0
 40
0
 40
0
 40
0
 40
0
 40
1
 40
1
 40
1
 40
1
 10
155.389707
 20
800.807863
 30
0.0
 10
154.084421
 20
800.054256
 30
0.0
 10
153.280332
 20
798.661533
 30
0.0
 10
153.280332
 20
797.154318
 30
0.0
  0
LWPOLYLINE
  5
19f
100
AcDbEntity
  8
holes
 62
7
100
AcDbPolyline
 90
1
 70
1
 10
214.686564
 20
762.265939
 30
0.0
  0
SPLINE
  5
1a0
100
AcDbEntity
  8
holes
 62
7
100
AcDbSpline
 70
8
 71
3
 72
8
 73
4
 74
0
 40
0
 40
0
 40
0
 40
0
 40
1
 40
1
 40
1
 40
1
 10
204.976726
 20
768.091850
 30
0.0
 10
204.976726
 20
766.584636
 30
0.0
 10
205.780815
 20
765.191913
 30
0.0
 10
207.086101
 20
764.438306
 30
0.0
  0
SPLINE
  5
1a1
100
AcDbEntity
  8
holes
 62
7
100
AcDbSpline
 70
8
 71
3
 72
8
 73
4
 74
0
 40
0
 40
0
 40
0
 40
0
 40
1
 40
1
 40
1
 40
1
 10
207.086101
 20
764.438306
 30
0.0
 10
208.391386
 20
763.684698
 30
0.0
 10
209.999565
 20
763.684698
 30
0.0
 10
211.304851
 20
764.438306
 30
0.0
  0
SPLINE
  5
1a2
100
AcDbEntity
  8
holes
 62
7
100
AcDbSpline
 70
8
 71
3
 72
8
 73
4
 74
0
 40
0
 40
0
 40
0
 40
0
 40
1
 40
1
 40
1
 40
1
 10
211.304851
 20
764.438306
 30
0.0
 10
212.610136
 20
765.191913
 30
0.0
 10
213.414225
 20
766.584636
 30
0.0
 10
213.414225
 20
768.091850
 30
0.0
  0
SPLINE
  5
1a3
100
AcDbEntity
  8
holes
 62
7
100
AcDbSpline
 70
8
 71
3
 72
8
 73
4
 74
0
 40
0
 40
0
 40
0
 40
0
 40
1
 40
1
 40
1
 40
1
 10
213.414225
 20
768.091850
 30
0.0
 10
213.414225
 20
769.599064
 30
0.0
 10
212.610136
 20
770.991788
 30
0.0
 10
211.304851
 20
771.745395
 30
0.0
  0
SPLINE
  5
1a4
100
AcDbEntity
  8
holes
 62
7
100
AcDbSpline
 70
8
 71
3
 72
8
 73
4
 74
0
 40
0
 40
0
 40
0
 40
0
 40
1
 40
1
 40
1
 40
1
 10
211.304851
 20
771.745395
 30
0.0
 10
209.999565
 20
772.499002
 30
0.0
 10
208.391386
 20
772.499002
 30
0.0
 10
207.086101
 20
771.745395
 30
0.0
  0
SPLINE
  5
1a5
100
AcDbEntity
  8
holes
 62
7
100
AcDbSpline
 70
8
 71
3
 72
8
 73
4
 74
0
 40
0
 40
0
 40
0
 40
0
 40
1
 40
1
 40
1
 40
1
 10
207.086101
 20
771.745395
 30
0.0
 10
205.780815
 20
770.991788
 30
0.0
 10
204.976726
 20
769.599064
 30
0.0
 10
204.976726
 20
768.091850
 30
0.0
  0
LWPOLYLINE
  5
1a6
100
AcDbEntity
  8
holes
 62
7
100
AcDbPolyline
 90
1
 70
1
 10
153.280332
 20
797.154318
 30
0.0
  0
SPLINE
  5
1a7
100
AcDbEntity
  8
holes
 62
7
100
AcDbSpline
 70
8
 71
3
 72
8
 73
4
 74
0
 40
0
 40
0
 40
0
 40
0
 40
1
 40
1
 40
1
 40
1
 10
194.262460
 20
774.118587
 30
0.0
 10
194.262460
 20
772.611373
 30
0.0
 10
195.066549
 20
771.218650
 30
0.0
 10
196.371835
 20
770.465043
 30
0.0
  0
SPLINE
  5
1a8
100
AcDbEntity
  8
holes
 62
7
100
AcDbSpline
 70
8
 71
3
 72
8
 73
4
 74
0
 40
0
 40
0
 40
0
 40
0
 40
1
 40
1
 40
1
 40
1
 10
196.371835
 20
770.465043
 30
0.0
 10
197.677120
 20
769.711436
 30
0.0
 10
199.285299
 20
769.711436
 30
0.0
 10
200.590584
 20
770.465043
 30
0.0
  0
SPLINE
  5
1a9
100
AcDbEntity
  8
holes
 62
7
100
AcDbSpline
 70
8
 71
3
 72
8
 73
4
 74
0
 40
0
 40
0
 40
0
 40
0
 40
1
 40
1
 40
1
 40
1
 10
200.590584
 20
770.465043
 30
0.0
 10
201.895870
 20
771.218650
 30
0.0
 10
202.699959
 20
772.611373
 30
0.0
 10
202.699959
 20
774.118587
 30
0.0
  0
SPLINE
  5
1aa
100
AcDbEntity
  8
holes
 62
7
100
AcDbSpline
 70
8
 71
3
 72
8
 73
4
 74
0
 40
0
 40
0
 40
0
 40
0
 40
1
 40
1
 40
1
 40
1
 10
202.699959
 20
774.118587
 30
0.0
 10
202.699959
 20
775.625802
 30
0.0
 10
201.895870
 20
777.018525
 30
0.0
 10
200.590584
 20
777.772132
 30
0.0
  0
SPLINE
  5
1ab
100
AcDbEntity
  8
holes
 62
7
100
AcDbSpline
 70
8
 71
3
 72
8
 73
4
 74
0
 40
0
 40
0
 40
0
 40
0
 40
1
 40
1
 40
1
 40
1
 10
200.590584
 20
777.772132
 30
0.0
 10
199.285299
 20
778.525739
 30
0.0
 10
197.677120
 20
778.525739
 30
0.0
 10
196.371835
 20
777.772132
 30
0.0
  0
SPLINE
  5
1ac
100
AcDbEntity
  8
holes
 62
7
100
AcDbSpline
 70
8
 71
3
 72
8
 73
4
 74
0
 40
0
 40
0
 40
0
 40
0
 40
1
 40
1
 40
1
 40
1
 10
196.371835
 20
777.772132
 30
0.0
 10
195.066549
 20
777.018525
 30
0.0
 10
194.262460
 20
775.625802
 30
0.0
 10
194.262460
 20
774.118587
 30
0.0
  0
LWPOLYLINE
  5
1ad
100
AcDbEntity
  8
holes
 62
7
100
AcDbPolyline
 90
1
 70
1
 10
204.976726
 20
768.091850
 30
0.0
  0
SPLINE
  5
1ae
100
AcDbEntity
  8
holes
 62
7
100
AcDbSpline
 70
8
 71
3
 72
8
 73
4
 74
0
 40
0
 40
0
 40
0
 40
0
 40
1
 40
1
 40
1
 40
1
 10
183.414239
 20
780.279321
 30
0.0
 10
183.414239
 20
778.772107
 30
0.0
 10
184.218329
 20
777.379384
 30
0.0
 10
185.523614
 20
776.625777
 30
0.0
  0
SPLINE
  5
1af
100
AcDbEntity
  8
holes
 62
7
100
AcDbSpline
 70
8
 71
3
 72
8
 73
4
 74
0
 40
0
 40
0
 40
0
 40
0
 40
1
 40
1
 40
1
 40
1
 10
185.523614
 20
776.625777
 30
0.0
 10
186.828900
 20
775.872170
 30
0.0
 10
188.437078
 20
775.872170
 30
0.0
 10
189.742364
 20
776.625777
 30
0.0
  0
SPLINE
  5
1b0
100
AcDbEntity
  8
holes
 62
7
100
AcDbSpline
 70
8
 71
3
 72
8
 73
4
 74
0
 40
0
 40
0
 40
0
 40
0
 40
1
 40
1
 40
1
 40
1
 10
189.742364
 20
776.625777
 30
0.0
 10
191.047650
 20
777.379384
 30
0.0
 10
191.851739
 20
778.772107
 30
0.0
 10
191.851739
 20
780.279321
 30
0.0
  0
SPLINE
  5
1b1
100
AcDbEntity
  8
holes
 62
7
100
AcDbSpline
 70
8
 71
3
 72
8
 73
4
 74
0
 40
0
 40
0
 40
0
 40
0
 40
1
 40
1
 40
1
 40
1
 10
191.851739
 20
780.279321
 30
0.0
 10
191.851739
 20
781.786535
 30
0.0
 10
191.047650
 20
783.179259
 30
0.0
 10
189.742364
 20
783.932866
 30
0.0
  0
SPLINE
  5
1b2
100
AcDbEntity
  8
holes
 62
7
100
AcDbSpline
 70
8
 71
3
 72
8
 73
4
 74
0
 40
0
 40
0
 40
0
 40
0
 40
1
 40
1
 40
1
 40
1
 10
189.742364
 20
783.932866
 30
0.0
 10
188.437078
 20
784.686473
 30
0.0
 10
186.828900
 20
784.686473
 30
0.0
 10
185.523614
 20
783.932866
 30
0.0
  0
SPLINE
  5
1b3
100
AcDbEntity
  8
holes
 62
7
100
AcDbSpline
 70
8
 71
3
 72
8
 73
4
 74
0
 40
0
 40
0
 40
0
 40
0
 40
1
 40
1
 40
1
 40
1
 10
185.523614
 20
783.932866
 30
0.0
 10
184.218329
 20
783.179259
 30
0.0
 10
183.414239
 20
781.786535
 30
0.0
 10
183.414239
 20
780.279321
 30
0.0
  0
LWPOLYLINE
  5
1b4
100
AcDbEntity
  8
holes
 62
7
100
AcDbPolyline
 90
1
 70
1
 10
194.262460
 20
774.118587
 30
0.0
  0
SPLINE
  5
1b5
100
AcDbEntity
  8
holes
 62
7
100
AcDbSpline
 70
8
 71
3
 72
8
 73
4
 74
0
 40
0
 40
0
 40
0
 40
0
 40
1
 40
1
 40
1
 40
1
 10
173.637456
 20
785.770410
 30
0.0
 10
173.637456
 20
784.263196
 30
0.0
 10
174.441545
 20
782.870472
 30
0.0
 10
175.746831
 20
782.116865
 30
0.0
  0
SPLINE
  5
1b6
100
AcDbEntity
  8
holes
 62
7
100
AcDbSpline
 70
8
 71
3
 72
8
 73
4
 74
0
 40
0
 40
0
 40
0
 40
0
 40
1
 40
1
 40
1
 40
1
 10
175.746831
 20
782.116865
 30
0.0
 10
177.052116
 20
781.363258
 30
0.0
 10
178.660295
 20
781.363258
 30
0.0
 10
179.965581
 20
782.116865
 30
0.0
  0
SPLINE
  5
1b7
100
AcDbEntity
  8
holes
 62
7
100
AcDbSpline
 70
8
 71
3
 72
8
 73
4
 74
0
 40
0
 40
0
 40
0
 40
0
 40
1
 40
1
 40
1
 40
1
 10
179.965581
 20
782.116865
 30
0.0
 10
181.270866
 20
782.870472
 30
0.0
 10
182.074956
 20
784.263196
 30
0.0
 10
182.074956
 20
785.770410
 30
0.0
  0
SPLINE
  5
1b8
100
AcDbEntity
  8
holes
 62
7
100
AcDbSpline
 70
8
 71
3
 72
8
 73
4
 74
0
 40
0
 40
0
 40
0
 40
0
 40
1
 40
1
 40
1
 40
1
 10
182.074956
 20
785.770410
 30
0.0
 10
182.074956
 20
787.277624
 30
0.0
 10
181.270866
 20
788.670347
 30
0.0
 10
179.965581
 20
789.423954
 30
0.0
  0
SPLINE
  5
1b9
100
AcDbEntity
  8
holes
 62
7
100
AcDbSpline
 70
8
 71
3
 72
8
 73
4
 74
0
 40
0
 40
0
 40
0
 40
0
 40
1
 40
1
 40
1
 40
1
 10
179.965581
 20
789.423954
 30
0.0
 10
178.660295
 20
790.177561
 30
0.0
 10
177.052116
 20
790.177561
 30
0.0
 10
175.746831
 20
789.423954
 30
0.0
  0
SPLINE
  5
1ba
100
AcDbEntity
  8
holes
 62
7
100
AcDbSpline
 70
8
 71
3
 72
8
 73
4
 74
0
 40
0
 40
0
 40
0
 40
0
 40
1
 40
1
 40
1
 40
1
 10
175.746831
 20
789.423954
 30
0.0
 10
174.441545
 20
788.670347
 30
0.0
 10
173.637456
 20
787.277624
 30
0.0
 10
173.637456
 20
785.770410
 30
0.0
  0
LWPOLYLINE
  5
1bb
100
AcDbEntity
  8
holes
 62
7
100
AcDbPolyline
 90
1
 70
1
 10
183.414239
 20
780.279321
 30
0.0
  0
SPLINE
  5
1bc
100
AcDbEntity
  8
holes
 62
7
100
AcDbSpline
 70
8
 71
3
 72
8
 73
4
 74
0
 40
0
 40
0
 40
0
 40
0
 40
1
 40
1
 40
1
 40
1
 10
163.592795
 20
791.797190
 30
0.0
 10
163.592795
 20
790.289975
 30
0.0
 10
164.396885
 20
788.897252
 30
0.0
 10
165.702170
 20
788.143645
 30
0.0
  0
SPLINE
  5
1bd
100
AcDbEntity
  8
holes
 62
7
100
AcDbSpline
 70
8
 71
3
 72
8
 73
4
 74
0
 40
0
 40
0
 40
0
 40
0
 40
1
 40
1
 40
1
 40
1
 10
165.702170
 20
788.143645
 30
0.0
 10
167.007456
 20
787.390038
 30
0.0
 10
168.615634
 20
787.390038
 30
0.0
 10
169.920920
 20
788.143645
 30
0.0
  0
SPLINE
  5
1be
100
AcDbEntity
  8
holes
 62
7
100
AcDbSpline
 70
8
 71
3
 72
8
 73
4
 74
0
 40
0
 40
0
 40
0
 40
0
 40
1
 40
1
 40
1
 40
1
 10
169.920920
 20
788.143645
 30
0.0
 10
171.226206
 20
788.897252
 30
0.0
 10
172.030295
 20
790.289975
 30
0.0
 10
172.030295
 20
791.797190
 30
0.0
  0
SPLINE
  5
1bf
100
AcDbEntity
  8
holes
 62
7
100
AcDbSpline
 70
8
 71
3
 72
8
 73
4
 74
0
 40
0
 40
0
 40
0
 40
0
 40
1
 40
1
 40
1
 40
1
 10
172.030295
 20
791.797190
 30
0.0
 10
172.030295
 20
793.304404
 30
0.0
 10
171.226206
 20
794.697127
 30
0.0
 10
169.920920
 20
795.450734
 30
0.0
  0
SPLINE
  5
1c0
100
AcDbEntity
  8
holes
 62
7
100
AcDbSpline
 70
8
 71
3
 72
8
 73
4
 74
0
 40
0
 40
0
 40
0
 40
0
 40
1
 40
1
 40
1
 40
1
 10
169.920920
 20
795.450734
 30
0.0
 10
168.615634
 20
796.204341
 30
0.0
 10
167.007456
 20
796.204341
 30
0.0
 10
165.702170
 20
795.450734
 30
0.0
  0
SPLINE
  5
1c1
100
AcDbEntity
  8
holes
 62
7
100
AcDbSpline
 70
8
 71
3
 72
8
 73
4
 74
0
 40
0
 40
0
 40
0
 40
0
 40
1
 40
1
 40
1
 40
1
 10
165.702170
 20
795.450734
 30
0.0
 10
164.396885
 20
794.697127
 30
0.0
 10
163.592795
 20
793.304404
 30
0.0
 10
163.592795
 20
791.797190
 30
0.0
  0
LWPOLYLINE
  5
1c2
100
AcDbEntity
  8
holes
 62
7
100
AcDbPolyline
 90
1
 70
1
 10
173.637456
 20
785.770410
 30
0.0
  0
SPLINE
  5
1c3
100
AcDbEntity
  8
holes
 62
7
100
AcDbSpline
 70
8
 71
3
 72
8
 73
4
 74
0
 40
0
 40
0
 40
0
 40
0
 40
1
 40
1
 40
1
 40
1
 10
215.289232
 20
774.252541
 30
0.0
 10
215.289232
 20
772.745327
 30
0.0
 10
216.093321
 20
771.352604
 30
0.0
 10
217.398607
 20
770.598997
 30
0.0
  0
SPLINE
  5
1c4
100
AcDbEntity
  8
holes
 62
7
100
AcDbSpline
 70
8
 71
3
 72
8
 73
4
 74
0
 40
0
 40
0
 40
0
 40
0
 40
1
 40
1
 40
1
 40
1
 10
217.398607
 20
770.598997
 30
0.0
 10
218.703893
 20
769.845390
 30
0.0
 10
220.312071
 20
769.845390
 30
0.0
 10
221.617357
 20
770.598997
 30
0.0
  0
SPLINE
  5
1c5
100
AcDbEntity
  8
holes
 62
7
100
AcDbSpline
 70
8
 71
3
 72
8
 73
4
 74
0
 40
0
 40
0
 40
0
 40
0
 40
1
 40
1
 40
1
 40
1
 10
221.617357
 20
770.598997
 30
0.0
 10
222.922642
 20
771.352604
 30
0.0
 10
223.726732
 20
772.745327
 30
0.0
 10
223.726732
 20
774.252541
 30
0.0
  0
SPLINE
  5
1c6
100
AcDbEntity
  8
holes
 62
7
100
AcDbSpline
 70
8
 71
3
 72
8
 73
4
 74
0
 40
0
 40
0
 40
0
 40
0
 40
1
 40
1
 40
1
 40
1
 10
223.726732
 20
774.252541
 30
0.0
 10
223.726732
 20
775.759756
 30
0.0
 10
222.922642
 20
777.152479
 30
0.0
 10
221.617357
 20
777.906086
 30
0.0
  0
SPLINE
  5
1c7
100
AcDbEntity
  8
holes
 62
7
100
AcDbSpline
 70
8
 71
3
 72
8
 73
4
 74
0
 40
0
 40
0
 40
0
 40
0
 40
1
 40
1
 40
1
 40
1
 10
221.617357
 20
777.906086
 30
0.0
 10
220.312071
 20
778.659693
 30
0.0
 10
218.703893
 20
778.659693
 30
0.0
 10
217.398607
 20
777.906086
 30
0.0
  0
SPLINE
  5
1c8
100
AcDbEntity
  8
holes
 62
7
100
AcDbSpline
 70
8
 71
3
 72
8
 73
4
 74
0
 40
0
 40
0
 40
0
 40
0
 40
1
 40
1
 40
1
 40
1
 10
217.398607
 20
777.906086
 30
0.0
 10
216.093321
 20
777.152479
 30
0.0
 10
215.289232
 20
775.759756
 30
0.0
 10
215.289232
 20
774.252541
 30
0.0
  0
LWPOLYLINE
  5
1c9
100
AcDbEntity
  8
holes
 62
7
100
AcDbPolyline
 90
1
 70
1
 10
163.592795
 20
791.797190
 30
0.0
  0
SPLINE
  5
1ca
100
AcDbEntity
  8
holes
 62
7
100
AcDbSpline
 70
8
 71
3
 72
8
 73
4
 74
0
 40
0
 40
0
 40
0
 40
0
 40
1
 40
1
 40
1
 40
1
 10
204.574946
 20
780.145410
 30
0.0
 10
204.574946
 20
778.638196
 30
0.0
 10
205.379035
 20
777.245472
 30
0.0
 10
206.684321
 20
776.491865
 30
0.0
  0
SPLINE
  5
1cb
100
AcDbEntity
  8
holes
 62
7
100
AcDbSpline
 70
8
 71
3
 72
8
 73
4
 74
0
 40
0
 40
0
 40
0
 40
0
 40
1
 40
1
 40
1
 40
1
 10
206.684321
 20
776.491865
 30
0.0
 10
207.989607
 20
775.738258
 30
0.0
 10
209.597785
 20
775.738258
 30
0.0
 10
210.903071
 20
776.491865
 30
0.0
  0
SPLINE
  5
1cc
100
AcDbEntity
  8
holes
 62
7
100
AcDbSpline
 70
8
 71
3
 72
8
 73
4
 74
0
 40
0
 40
0
 40
0
 40
0
 40
1
 40
1
 40
1
 40
1
 10
210.903071
 20
776.491865
 30
0.0
 10
212.208356
 20
777.245472
 30
0.0
 10
213.012446
 20
778.638196
 30
0.0
 10
213.012446
 20
780.145410
 30
0.0
  0
SPLINE
  5
1cd
100
AcDbEntity
  8
holes
 62
7
100
AcDbSpline
 70
8
 71
3
 72
8
 73
4
 74
0
 40
0
 40
0
 40
0
 40
0
 40
1
 40
1
 40
1
 40
1
 10
213.012446
 20
780.145410
 30
0.0
 10
213.012446
 20
781.652624
 30
0.0
 10
212.208356
 20
783.045347
 30
0.0
 10
210.903071
 20
783.798954
 30
0.0
  0
SPLINE
  5
1ce
100
AcDbEntity
  8
holes
 62
7
100
AcDbSpline
 70
8
 71
3
 72
8
 73
4
 74
0
 40
0
 40
0
 40
0
 40
0
 40
1
 40
1
 40
1
 40
1
 10
210.903071
 20
783.798954
 30
0.0
 10
209.597785
 20
784.552561
 30
0.0
 10
207.989607
 20
784.552561
 30
0.0
 10
206.684321
 20
783.798954
 30
0.0
  0
SPLINE
  5
1cf
100
AcDbEntity
  8
holes
 62
7
100
AcDbSpline
 70
8
 71
3
 72
8
 73
4
 74
0
 40
0
 40
0
 40
0
 40
0
 40
1
 40
1
 40
1
 40
1
 10
206.684321
 20
783.798954
 30
0.0
 10
205.379035
 20
783.045347
 30
0.0
 10
204.574946
 20
781.652624
 30
0.0
 10
204.574946
 20
780.145410
 30
0.0
  0
LWPOLYLINE
  5
1d0
100
AcDbEntity
  8
holes
 62
7
100
AcDbPolyline
 90
1
 70
1
 10
215.289232
 20
774.252541
 30
0.0
  0
SPLINE
  5
1d1
100
AcDbEntity
  8
holes
 62
7
100
AcDbSpline
 70
8
 71
3
 72
8
 73
4
 74
0
 40
0
 40
0
 40
0
 40
0
 40
1
 40
1
 40
1
 40
1
 10
193.191034
 20
786.306101
 30
0.0
 10
193.191034
 20
784.798887
 30
0.0
 10
193.995124
 20
783.406164
 30
0.0
 10
195.300409
 20
782.652557
 30
0.0
  0
SPLINE
  5
1d2
100
AcDbEntity
  8
holes
 62
7
100
AcDbSpline
 70
8
 71
3
 72
8
 73
4
 74
0
 40
0
 40
0
 40
0
 40
0
 40
1
 40
1
 40
1
 40
1
 10
195.300409
 20
782.652557
 30
0.0
 10
196.605695
 20
781.898949
 30
0.0
 10
198.213873
 20
781.898949
 30
0.0
 10
199.519159
 20
782.652557
 30
0.0
  0
SPLINE
  5
1d3
100
AcDbEntity
  8
holes
 62
7
100
AcDbSpline
 70
8
 71
3
 72
8
 73
4
 74
0
 40
0
 40
0
 40
0
 40
0
 40
1
 40
1
 40
1
 40
1
 10
199.519159
 20
782.652557
 30
0.0
 10
200.824445
 20
783.406164
 30
0.0
 10
201.628534
 20
784.798887
 30
0.0
 10
201.628534
 20
786.306101
 30
0.0
  0
SPLINE
  5
1d4
100
AcDbEntity
  8
holes
 62
7
100
AcDbSpline
 70
8
 71
3
 72
8
 73
4
 74
0
 40
0
 40
0
 40
0
 40
0
 40
1
 40
1
 40
1
 40
1
 10
201.628534
 20
786.306101
 30
0.0
 10
201.628534
 20
787.813315
 30
0.0
 10
200.824445
 20
789.206039
 30
0.0
 10
199.519159
 20
789.959646
 30
0.0
  0
SPLINE
  5
1d5
100
AcDbEntity
  8
holes
 62
7
100
AcDbSpline
 70
8
 71
3
 72
8
 73
4
 74
0
 40
0
 40
0
 40
0
 40
0
 40
1
 40
1
 40
1
 40
1
 10
199.519159
 20
789.959646
 30
0.0
 10
198.213873
 20
790.713253
 30
0.0
 10
196.605695
 20
790.713253
 30
0.0
 10
195.300409
 20
789.959646
 30
0.0
  0
SPLINE
  5
1d6
100
AcDbEntity
  8
holes
 62
7
100
AcDbSpline
 70
8
 71
3
 72
8
 73
4
 74
0
 40
0
 40
0
 40
0
 40
0
 40
1
 40
1
 40
1
 40
1
 10
195.300409
 20
789.959646
 30
0.0
 10
193.995124
 20
789.206039
 30
0.0
 10
193.191034
 20
787.813315
 30
0.0
 10
193.191034
 20
786.306101
 30
0.0
  0
LWPOLYLINE
  5
1d7
100
AcDbEntity
  8
holes
 62
7
100
AcDbPolyline
 90
1
 70
1
 10
204.574946
 20
780.145410
 30
0.0
  0
SPLINE
  5
1d8
100
AcDbEntity
  8
holes
 62
7
100
AcDbSpline
 70
8
 71
3
 72
8
 73
4
 74
0
 40
0
 40
0
 40
0
 40
0
 40
1
 40
1
 40
1
 40
1
 10
182.744571
 20
792.332923
 30
0.0
 10
182.744571
 20
790.825709
 30
0.0
 10
183.548661
 20
789.432986
 30
0.0
 10
184.853946
 20
788.679379
 30
0.0
  0
SPLINE
  5
1d9
100
AcDbEntity
  8
holes
 62
7
100
AcDbSpline
 70
8
 71
3
 72
8
 73
4
 74
0
 40
0
 40
0
 40
0
 40
0
 40
1
 40
1
 40
1
 40
1
 10
184.853946
 20
788.679379
 30
0.0
 10
186.159232
 20
787.925772
 30
0.0
 10
187.767410
 20
787.925772
 30
0.0
 10
189.072696
 20
788.679379
 30
0.0
  0
SPLINE
  5
1da
100
AcDbEntity
  8
holes
 62
7
100
AcDbSpline
 70
8
 71
3
 72
8
 73
4
 74
0
 40
0
 40
0
 40
0
 40
0
 40
1
 40
1
 40
1
 40
1
 10
189.072696
 20
788.679379
 30
0.0
 10
190.377982
 20
789.432986
 30
0.0
 10
191.182071
 20
790.825709
 30
0.0
 10
191.182071
 20
792.332923
 30
0.0
  0
SPLINE
  5
1db
100
AcDbEntity
  8
holes
 62
7
100
AcDbSpline
 70
8
 71
3
 72
8
 73
4
 74
0
 40
0
 40
0
 40
0
 40
0
 40
1
 40
1
 40
1
 40
1
 10
191.182071
 20
792.332923
 30
0.0
 10
191.182071
 20
793.840138
 30
0.0
 10
190.377982
 20
795.232861
 30
0.0
 10
189.072696
 20
795.986468
 30
0.0
  0
SPLINE
  5
1dc
100
AcDbEntity
  8
holes
 62
7
100
AcDbSpline
 70
8
 71
3
 72
8
 73
4
 74
0
 40
0
 40
0
 40
0
 40
0
 40
1
 40
1
 40
1
 40
1
 10
189.072696
 20
795.986468
 30
0.0
 10
187.767410
 20
796.740075
 30
0.0
 10
186.159232
 20
796.740075
 30
0.0
 10
184.853946
 20
795.986468
 30
0.0
  0
SPLINE
  5
1dd
100
AcDbEntity
  8
holes
 62
7
100
AcDbSpline
 70
8
 71
3
 72
8
 73
4
 74
0
 40
0
 40
0
 40
0
 40
0
 40
1
 40
1
 40
1
 40
1
 10
184.853946
 20
795.986468
 30
0.0
 10
183.548661
 20
795.232861
 30
0.0
 10
182.744571
 20
793.840138
 30
0.0
 10
182.744571
 20
792.332923
 30
0.0
  0
LWPOLYLINE
  5
1de
100
AcDbEntity
  8
holes
 62
7
100
AcDbPolyline
 90
1
 70
1
 10
193.191034
 20
786.306101
 30
0.0
  0
SPLINE
  5
1df
100
AcDbEntity
  8
holes
 62
7
100
AcDbSpline
 70
8
 71
3
 72
8
 73
4
 74
0
 40
0
 40
0
 40
0
 40
0
 40
1
 40
1
 40
1
 40
1
 10
172.833919
 20
797.154318
 30
0.0
 10
172.833919
 20
795.647104
 30
0.0
 10
173.638008
 20
794.254381
 30
0.0
 10
174.943294
 20
793.500774
 30
0.0
  0
SPLINE
  5
1e0
100
AcDbEntity
  8
holes
 62
7
100
AcDbSpline
 70
8
 71
3
 72
8
 73
4
 74
0
 40
0
 40
0
 40
0
 40
0
 40
1
 40
1
 40
1
 40
1
 10
174.943294
 20
793.500774
 30
0.0
 10
176.248579
 20
792.747167
 30
0.0
 10
177.856758
 20
792.747167
 30
0.0
 10
179.162044
 20
793.500774
 30
0.0
  0
SPLINE
  5
1e1
100
AcDbEntity
  8
holes
 62
7
100
AcDbSpline
 70
8
 71
3
 72
8
 73
4
 74
0
 40
0
 40
0
 40
0
 40
0
 40
1
 40
1
 40
1
 40
1
 10
179.162044
 20
793.500774
 30
0.0
 10
180.467329
 20
794.254381
 30
0.0
 10
181.271419
 20
795.647104
 30
0.0
 10
181.271419
 20
797.154318
 30
0.0
  0
SPLINE
  5
1e2
100
AcDbEntity
  8
holes
 62
7
100
AcDbSpline
 70
8
 71
3
 72
8
 73
4
 74
0
 40
0
 40
0
 40
0
 40
0
 40
1
 40
1
 40
1
 40
1
 10
181.271419
 20
797.154318
 30
0.0
 10
181.271419
 20
798.661533
 30
0.0
 10
180.467329
 20
800.054256
 30
0.0
 10
179.162044
 20
800.807863
 30
0.0
  0
SPLINE
  5
1e3
100
AcDbEntity
  8
holes
 62
7
100
AcDbSpline
 70
8
 71
3
 72
8
 73
4
 74
0
 40
0
 40
0
 40
0
 40
0
 40
1
 40
1
 40
1
 40
1
 10
179.162044
 20
800.807863
 30
0.0
 10
177.856758
 20
801.561470
 30
0.0
 10
176.248579
 20
801.561470
 30
0.0
 10
174.943294
 20
800.807863
 30
0.0
  0
SPLINE
  5
1e4
100
AcDbEntity
  8
holes
 62
7
100
AcDbSpline
 70
8
 71
3
 72
8
 73
4
 74
0
 40
0
 40
0
 40
0
 40
0
 40
1
 40
1
 40
1
 40
1
 10
174.943294
 20
800.807863
 30
0.0
 10
173.638008
 20
800.054256
 30
0.0
 10
172.833919
 20
798.661533
 30
0.0
 10
172.833919
 20
797.154318
 30
0.0
  0
LWPOLYLINE
  5
1e5
100
AcDbEntity
  8
holes
 62
7
100
AcDbPolyline
 90
1
 70
1
 10
182.744571
 20
792.332923
 30
0.0
  0
SPLINE
  5
1e6
100
AcDbEntity
  8
holes
 62
7
100
AcDbSpline
 70
8
 71
3
 72
8
 73
4
 74
0
 40
0
 40
0
 40
0
 40
0
 40
1
 40
1
 40
1
 40
1
 10
162.655324
 20
803.448967
 30
0.0
 10
162.655324
 20
801.941752
 30
0.0
 10
163.459413
 20
800.549029
 30
0.0
 10
164.764699
 20
799.795422
 30
0.0
  0
SPLINE
  5
1e7
100
AcDbEntity
  8
holes
 62
7
100
AcDbSpline
 70
8
 71
3
 72
8
 73
4
 74
0
 40
0
 40
0
 40
0
 40
0
 40
1
 40
1
 40
1
 40
1
 10
164.764699
 20
799.795422
 30
0.0
 10
166.069985
 20
799.041815
 30
0.0
 10
167.678163
 20
799.041815
 30
0.0
 10
168.983449
 20
799.795422
 30
0.0
  0
SPLINE
  5
1e8
100
AcDbEntity
  8
holes
 62
7
100
AcDbSpline
 70
8
 71
3
 72
8
 73
4
 74
0
 40
0
 40
0
 40
0
 40
0
 40
1
 40
1
 40
1
 40
1
 10
168.983449
 20
799.795422
 30
0.0
 10
170.288735
 20
800.549029
 30
0.0
 10
171.092824
 20
801.941752
 30
0.0
 10
171.092824
 20
803.448967
 30
0.0
  0
SPLINE
  5
1e9
100
AcDbEntity
  8
holes
 62
7
100
AcDbSpline
 70
8
 71
3
 72
8
 73
4
 74
0
 40
0
 40
0
 40
0
 40
0
 40
1
 40
1
 40
1
 40
1
 10
171.092824
 20
803.448967
 30
0.0
 10
171.092824
 20
804.956181
 30
0.0
 10
170.288735
 20
806.348904
 30
0.0
 10
168.983449
 20
807.102511
 30
0.0
  0
SPLINE
  5
1ea
100
AcDbEntity
  8
holes
 62
7
100
AcDbSpline
 70
8
 71
3
 72
8
 73
4
 74
0
 40
0
 40
0
 40
0
 40
0
 40
1
 40
1
 40
1
 40
1
 10
168.983449
 20
807.102511
 30
0.0
 10
167.678163
 20
807.856118
 30
0.0
 10
166.069985
 20
807.856118
 30
0.0
 10
164.764699
 20
807.102511
 30
0.0
  0
SPLINE
  5
1eb
100
AcDbEntity
  8
holes
 62
7
100
AcDbSpline
 70
8
 71
3
 72
8
 73
4
 74
0
 40
0
 40
0
 40
0
 40
0
 40
1
 40
1
 40
1
 40
1
 10
164.764699
 20
807.102511
 30
0.0
 10
163.459413
 20
806.348904
 30
0.0
 10
162.655324
 20
804.956181
 30
0.0
 10
162.655324
 20
803.448967
 30
0.0
  0
LWPOLYLINE
  5
1ec
100
AcDbEntity
  8
holes
 62
7
100
AcDbPolyline
 90
1
 70
1
 10
172.833919
 20
797.154318
 30
0.0
  0
SPLINE
  5
1ed
100
AcDbEntity
  8
holes
 62
7
100
AcDbSpline
 70
8
 71
3
 72
8
 73
4
 74
0
 40
0
 40
0
 40
0
 40
0
 40
1
 40
1
 40
1
 40
1
 10
213.816047
 20
786.440058
 30
0.0
 10
213.816047
 20
784.932844
 30
0.0
 10
214.620136
 20
783.540120
 30
0.0
 10
215.925422
 20
782.786513
 30
0.0
  0
SPLINE
  5
1ee
100
AcDbEntity
  8
holes
 62
7
100
AcDbSpline
 70
8
 71
3
 72
8
 73
4
 74
0
 40
0
 40
0
 40
0
 40
0
 40
1
 40
1
 40
1
 40
1
 10
215.925422
 20
782.786513
 30
0.0
 10
217.230707
 20
782.032906
 30
0.0
 10
218.838886
 20
782.032906
 30
0.0
 10
220.144171
 20
782.786513
 30
0.0
  0
SPLINE
  5
1ef
100
AcDbEntity
  8
holes
 62
7
100
AcDbSpline
 70
8
 71
3
 72
8
 73
4
 74
0
 40
0
 40
0
 40
0
 40
0
 40
1
 40
1
 40
1
 40
1
 10
220.144171
 20
782.786513
 30
0.0
 10
221.449457
 20
783.540120
 30
0.0
 10
222.253546
 20
784.932844
 30
0.0
 10
222.253546
 20
786.440058
 30
0.0
  0
SPLINE
  5
1f0
100
AcDbEntity
  8
holes
 62
7
100
AcDbSpline
 70
8
 71
3
 72
8
 73
4
 74
0
 40
0
 40
0
 40
0
 40
0
 40
1
 40
1
 40
1
 40
1
 10
222.253546
 20
786.440058
 30
0.0
 10
222.253546
 20
787.947272
 30
0.0
 10
221.449457
 20
789.339995
 30
0.0
 10
220.144171
 20
790.093603
 30
0.0
  0
SPLINE
  5
1f1
100
AcDbEntity
  8
holes
 62
7
100
AcDbSpline
 70
8
 71
3
 72
8
 73
4
 74
0
 40
0
 40
0
 40
0
 40
0
 40
1
 40
1
 40
1
 40
1
 10
220.144171
 20
790.093603
 30
0.0
 10
218.838886
 20
790.847210
 30
0.0
 10
217.230707
 20
790.847210
 30
0.0
 10
215.925422
 20
790.093603
 30
0.0
  0
SPLINE
  5
1f2
100
AcDbEntity
  8
holes
 62
7
100
AcDbSpline
 70
8
 71
3
 72
8
 73
4
 74
0
 40
0
 40
0
 40
0
 40
0
 40
1
 40
1
 40
1
 40
1
 10
215.925422
 20
790.093603
 30
0.0
 10
214.620136
 20
789.339995
 30
0.0
 10
213.816047
 20
787.947272
 30
0.0
 10
213.816047
 20
786.440058
 30
0.0
  0
LWPOLYLINE
  5
1f3
100
AcDbEntity
  8
holes
 62
7
100
AcDbPolyline
 90
1
 70
1
 10
162.655324
 20
803.448967
 30
0.0
  0
SPLINE
  5
1f4
100
AcDbEntity
  8
holes
 62
7
100
AcDbSpline
 70
8
 71
3
 72
8
 73
4
 74
0
 40
0
 40
0
 40
0
 40
0
 40
1
 40
1
 40
1
 40
1
 10
203.235672
 20
790.993630
 30
0.0
 10
203.235672
 20
789.486416
 30
0.0
 10
204.039761
 20
788.093692
 30
0.0
 10
205.345047
 20
787.340085
 30
0.0
  0
SPLINE
  5
1f5
100
AcDbEntity
  8
holes
 62
7
100
AcDbSpline
 70
8
 71
3
 72
8
 73
4
 74
0
 40
0
 40
0
 40
0
 40
0
 40
1
 40
1
 40
1
 40
1
 10
205.345047
 20
787.340085
 30
0.0
 10
206.650333
 20
786.586478
 30
0.0
 10
208.258511
 20
786.586478
 30
0.0
 10
209.563797
 20
787.340085
 30
0.0
  0
SPLINE
  5
1f6
100
AcDbEntity
  8
holes
 62
7
100
AcDbSpline
 70
8
 71
3
 72
8
 73
4
 74
0
 40
0
 40
0
 40
0
 40
0
 40
1
 40
1
 40
1
 40
1
 10
209.563797
 20
787.340085
 30
0.0
 10
210.869083
 20
788.093692
 30
0.0
 10
211.673172
 20
789.486416
 30
0.0
 10
211.673172
 20
790.993630
 30
0.0
  0
SPLINE
  5
1f7
100
AcDbEntity
  8
holes
 62
7
100
AcDbSpline
 70
8
 71
3
 72
8
 73
4
 74
0
 40
0
 40
0
 40
0
 40
0
 40
1
 40
1
 40
1
 40
1
 10
211.673172
 20
790.993630
 30
0.0
 10
211.673172
 20
792.500844
 30
0.0
 10
210.869083
 20
793.893567
 30
0.0
 10
209.563797
 20
794.647174
 30
0.0
  0
SPLINE
  5
1f8
100
AcDbEntity
  8
holes
 62
7
100
AcDbSpline
 70
8
 71
3
 72
8
 73
4
 74
0
 40
0
 40
0
 40
0
 40
0
 40
1
 40
1
 40
1
 40
1
 10
209.563797
 20
794.647174
 30
0.0
 10
208.258511
 20
795.400782
 30
0.0
 10
206.650333
 20
795.400782
 30
0.0
 10
205.345047
 20
794.647174
 30
0.0
  0
SPLINE
  5
1f9
100
AcDbEntity
  8
holes
 62
7
100
AcDbSpline
 70
8
 71
3
 72
8
 73
4
 74
0
 40
0
 40
0
 40
0
 40
0
 40
1
 40
1
 40
1
 40
1
 10
205.345047
 20
794.647174
 30
0.0
 10
204.039761
 20
793.893567
 30
0.0
 10
203.235672
 20
792.500844
 30
0.0
 10
203.235672
 20
790.993630
 30
0.0
  0
LWPOLYLINE
  5
1fa
100
AcDbEntity
  8
holes
 62
7
100
AcDbPolyline
 90
1
 70
1
 10
213.816047
 20
786.440058
 30
0.0
  0
SPLINE
  5
1fb
100
AcDbEntity
  8
holes
 62
7
100
AcDbSpline
 70
8
 71
3
 72
8
 73
4
 74
0
 40
0
 40
0
 40
0
 40
0
 40
1
 40
1
 40
1
 40
1
 10
192.119587
 20
797.422187
 30
0.0
 10
192.119587
 20
795.914973
 30
0.0
 10
192.923676
 20
794.522249
 30
0.0
 10
194.228961
 20
793.768642
 30
0.0
  0
SPLINE
  5
1fc
100
AcDbEntity
  8
holes
 62
7
100
AcDbSpline
 70
8
 71
3
 72
8
 73
4
 74
0
 40
0
 40
0
 40
0
 40
0
 40
1
 40
1
 40
1
 40
1
 10
194.228961
 20
793.768642
 30
0.0
 10
195.534247
 20
793.015035
 30
0.0
 10
197.142426
 20
793.015035
 30
0.0
 10
198.447711
 20
793.768642
 30
0.0
  0
SPLINE
  5
1fd
100
AcDbEntity
  8
holes
 62
7
100
AcDbSpline
 70
8
 71
3
 72
8
 73
4
 74
0
 40
0
 40
0
 40
0
 40
0
 40
1
 40
1
 40
1
 40
1
 10
198.447711
 20
793.768642
 30
0.0
 10
199.752997
 20
794.522249
 30
0.0
 10
200.557086
 20
795.914973
 30
0.0
 10
200.557086
 20
797.422187
 30
0.0
  0
SPLINE
  5
1fe
100
AcDbEntity
  8
holes
 62
7
100
AcDbSpline
 70
8
 71
3
 72
8
 73
4
 74
0
 40
0
 40
0
 40
0
 40
0
 40
1
 40
1
 40
1
 40
1
 10
200.557086
 20
797.422187
 30
0.0
 10
200.557086
 20
798.929401
 30
0.0
 10
199.752997
 20
800.322124
 30
0.0
 10
198.447711
 20
801.075731
 30
0.0
  0
SPLINE
  5
1ff
100
AcDbEntity
  8
holes
 62
7
100
AcDbSpline
 70
8
 71
3
 72
8
 73
4
 74
0
 40
0
 40
0
 40
0
 40
0
 40
1
 40
1
 40
1
 40
1
 10
198.447711
 20
801.075731
 30
0.0
 10
197.142426
 20
801.829338
 30
0.0
 10
195.534247
 20
801.829338
 30
0.0
 10
194.228961
 20
801.075731
 30
0.0
  0
SPLINE
  5
200
100
AcDbEntity
  8
holes
 62
7
100
AcDbSpline
 70
8
 71
3
 72
8
 73
4
 74
0
 40
0
 40
0
 40
0
 40
0
 40
1
 40
1
 40
1
 40
1
 10
194.228961
 20
801.075731
 30
0.0
 10
192.923676
 20
800.322124
 30
0.0
 10
192.119587
 20
798.929401
 30
0.0
 10
192.119587
 20
797.422187
 30
0.0
  0
LWPOLYLINE
  5
201
100
AcDbEntity
  8
holes
 62
7
100
AcDbPolyline
 90
1
 70
1
 10
203.235672
 20
790.993630
 30
0.0
  0
SPLINE
  5
202
100
AcDbEntity
  8
holes
 62
7
100
AcDbSpline
 70
8
 71
3
 72
8
 73
4
 74
0
 40
0
 40
0
 40
0
 40
0
 40
1
 40
1
 40
1
 40
1
 10
181.941012
 20
802.645407
 30
0.0
 10
181.941012
 20
801.138193
 30
0.0
 10
182.745101
 20
799.745469
 30
0.0
 10
184.050387
 20
798.991862
 30
0.0
  0
SPLINE
  5
203
100
AcDbEntity
  8
holes
 62
7
100
AcDbSpline
 70
8
 71
3
 72
8
 73
4
 74
0
 40
0
 40
0
 40
0
 40
0
 40
1
 40
1
 40
1
 40
1
 10
184.050387
 20
798.991862
 30
0.0
 10
185.355672
 20
798.238255
 30
0.0
 10
186.963851
 20
798.238255
 30
0.0
 10
188.269137
 20
798.991862
 30
0.0
  0
SPLINE
  5
204
100
AcDbEntity
  8
holes
 62
7
100
AcDbSpline
 70
8
 71
3
 72
8
 73
4
 74
0
 40
0
 40
0
 40
0
 40
0
 40
1
 40
1
 40
1
 40
1
 10
188.269137
 20
798.991862
 30
0.0
 10
189.574422
 20
799.745469
 30
0.0
 10
190.378511
 20
801.138193
 30
0.0
 10
190.378511
 20
802.645407
 30
0.0
  0
SPLINE
  5
205
100
AcDbEntity
  8
holes
 62
7
100
AcDbSpline
 70
8
 71
3
 72
8
 73
4
 74
0
 40
0
 40
0
 40
0
 40
0
 40
1
 40
1
 40
1
 40
1
 10
190.378511
 20
802.645407
 30
0.0
 10
190.378511
 20
804.152621
 30
0.0
 10
189.574422
 20
805.545344
 30
0.0
 10
188.269137
 20
806.298951
 30
0.0
  0
SPLINE
  5
206
100
AcDbEntity
  8
holes
 62
7
100
AcDbSpline
 70
8
 71
3
 72
8
 73
4
 74
0
 40
0
 40
0
 40
0
 40
0
 40
1
 40
1
 40
1
 40
1
 10
188.269137
 20
806.298951
 30
0.0
 10
186.963851
 20
807.052559
 30
0.0
 10
185.355672
 20
807.052559
 30
0.0
 10
184.050387
 20
806.298951
 30
0.0
  0
SPLINE
  5
207
100
AcDbEntity
  8
holes
 62
7
100
AcDbSpline
 70
8
 71
3
 72
8
 73
4
 74
0
 40
0
 40
0
 40
0
 40
0
 40
1
 40
1
 40
1
 40
1
 10
184.050387
 20
806.298951
 30
0.0
 10
182.745101
 20
805.545344
 30
0.0
 10
181.941012
 20
804.152621
 30
0.0
 10
181.941012
 20
802.645407
 30
0.0
  0
LWPOLYLINE
  5
208
100
AcDbEntity
  8
holes
 62
7
100
AcDbPolyline
 90
1
 70
1
 10
192.119587
 20
797.422187
 30
0.0
  0
SPLINE
  5
209
100
AcDbEntity
  8
holes
 62
7
100
AcDbSpline
 70
8
 71
3
 72
8
 73
4
 74
0
 40
0
 40
0
 40
0
 40
0
 40
1
 40
1
 40
1
 40
1
 10
172.432096
 20
808.404364
 30
0.0
 10
172.432096
 20
806.897150
 30
0.0
 10
173.236186
 20
805.504426
 30
0.0
 10
174.541471
 20
804.750819
 30
0.0
  0
SPLINE
  5
20a
100
AcDbEntity
  8
holes
 62
7
100
AcDbSpline
 70
8
 71
3
 72
8
 73
4
 74
0
 40
0
 40
0
 40
0
 40
0
 40
1
 40
1
 40
1
 40
1
 10
174.541471
 20
804.750819
 30
0.0
 10
175.846757
 20
803.997212
 30
0.0
 10
177.454935
 20
803.997212
 30
0.0
 10
178.760221
 20
804.750819
 30
0.0
  0
SPLINE
  5
20b
100
AcDbEntity
  8
holes
 62
7
100
AcDbSpline
 70
8
 71
3
 72
8
 73
4
 74
0
 40
0
 40
0
 40
0
 40
0
 40
1
 40
1
 40
1
 40
1
 10
178.760221
 20
804.750819
 30
0.0
 10
180.065507
 20
805.504426
 30
0.0
 10
180.869596
 20
806.897150
 30
0.0
 10
180.869596
 20
808.404364
 30
0.0
  0
SPLINE
  5
20c
100
AcDbEntity
  8
holes
 62
7
100
AcDbSpline
 70
8
 71
3
 72
8
 73
4
 74
0
 40
0
 40
0
 40
0
 40
0
 40
1
 40
1
 40
1
 40
1
 10
180.869596
 20
808.404364
 30
0.0
 10
180.869596
 20
809.911578
 30
0.0
 10
180.065507
 20
811.304301
 30
0.0
 10
178.760221
 20
812.057908
 30
0.0
  0
SPLINE
  5
20d
100
AcDbEntity
  8
holes
 62
7
100
AcDbSpline
 70
8
 71
3
 72
8
 73
4
 74
0
 40
0
 40
0
 40
0
 40
0
 40
1
 40
1
 40
1
 40
1
 10
178.760221
 20
812.057908
 30
0.0
 10
177.454935
 20
812.811515
 30
0.0
 10
175.846757
 20
812.811515
 30
0.0
 10
174.541471
 20
812.057908
 30
0.0
  0
SPLINE
  5
20e
100
AcDbEntity
  8
holes
 62
7
100
AcDbSpline
 70
8
 71
3
 72
8
 73
4
 74
0
 40
0
 40
0
 40
0
 40
0
 40
1
 40
1
 40
1
 40
1
 10
174.541471
 20
812.057908
 30
0.0
 10
173.236186
 20
811.304301
 30
0.0
 10
172.432096
 20
809.911578
 30
0.0
 10
172.432096
 20
808.404364
 30
0.0
  0
LWPOLYLINE
  5
20f
100
AcDbEntity
  8
holes
 62
7
100
AcDbPolyline
 90
1
 70
1
 10
181.941012
 20
802.645407
 30
0.0
  0
SPLINE
  5
210
100
AcDbEntity
  8
holes
 62
7
100
AcDbSpline
 70
8
 71
3
 72
8
 73
4
 74
0
 40
0
 40
0
 40
0
 40
0
 40
1
 40
1
 40
1
 40
1
 10
211.673151
 20
797.422187
 30
0.0
 10
211.673151
 20
795.914973
 30
0.0
 10
212.477240
 20
794.522249
 30
0.0
 10
213.782526
 20
793.768642
 30
0.0
  0
SPLINE
  5
211
100
AcDbEntity
  8
holes
 62
7
100
AcDbSpline
 70
8
 71
3
 72
8
 73
4
 74
0
 40
0
 40
0
 40
0
 40
0
 40
1
 40
1
 40
1
 40
1
 10
213.782526
 20
793.768642
 30
0.0
 10
215.087812
 20
793.015035
 30
0.0
 10
216.695990
 20
793.015035
 30
0.0
 10
218.001276
 20
793.768642
 30
0.0
  0
SPLINE
  5
212
100
AcDbEntity
  8
holes
 62
7
100
AcDbSpline
 70
8
 71
3
 72
8
 73
4
 74
0
 40
0
 40
0
 40
0
 40
0
 40
1
 40
1
 40
1
 40
1
 10
218.001276
 20
793.768642
 30
0.0
 10
219.306561
 20
794.522249
 30
0.0
 10
220.110651
 20
795.914973
 30
0.0
 10
220.110651
 20
797.422187
 30
0.0
  0
SPLINE
  5
213
100
AcDbEntity
  8
holes
 62
7
100
AcDbSpline
 70
8
 71
3
 72
8
 73
4
 74
0
 40
0
 40
0
 40
0
 40
0
 40
1
 40
1
 40
1
 40
1
 10
220.110651
 20
797.422187
 30
0.0
 10
220.110651
 20
798.929401
 30
0.0
 10
219.306561
 20
800.322124
 30
0.0
 10
218.001276
 20
801.075731
 30
0.0
  0
SPLINE
  5
214
100
AcDbEntity
  8
holes
 62
7
100
AcDbSpline
 70
8
 71
3
 72
8
 73
4
 74
0
 40
0
 40
0
 40
0
 40
0
 40
1
 40
1
 40
1
 40
1
 10
218.001276
 20
801.075731
 30
0.0
 10
216.695990
 20
801.829338
 30
0.0
 10
215.087812
 20
801.829338
 30
0.0
 10
213.782526
 20
801.075731
 30
0.0
  0
SPLINE
  5
215
100
AcDbEntity
  8
holes
 62
7
100
AcDbSpline
 70
8
 71
3
 72
8
 73
4
 74
0
 40
0
 40
0
 40
0
 40
0
 40
1
 40
1
 40
1
 40
1
 10
213.782526
 20
801.075731
 30
0.0
 10
212.477240
 20
800.322124
 30
0.0
 10
211.673151
 20
798.929401
 30
0.0
 10
211.673151
 20
797.422187
 30
0.0
  0
LWPOLYLINE
  5
216
100
AcDbEntity
  8
holes
 62
7
100
AcDbPolyline
 90
1
 70
1
 10
172.432096
 20
808.404364
 30
0.0
  0
SPLINE
  5
217
100
AcDbEntity
  8
holes
 62
7
100
AcDbSpline
 70
8
 71
3
 72
8
 73
4
 74
0
 40
0
 40
0
 40
0
 40
0
 40
1
 40
1
 40
1
 40
1
 10
201.896379
 20
802.779318
 30
0.0
 10
201.896379
 20
801.272104
 30
0.0
 10
202.700468
 20
799.879381
 30
0.0
 10
204.005754
 20
799.125774
 30
0.0
  0
SPLINE
  5
218
100
AcDbEntity
  8
holes
 62
7
100
AcDbSpline
 70
8
 71
3
 72
8
 73
4
 74
0
 40
0
 40
0
 40
0
 40
0
 40
1
 40
1
 40
1
 40
1
 10
204.005754
 20
799.125774
 30
0.0
 10
205.311039
 20
798.372167
 30
0.0
 10
206.919218
 20
798.372167
 30
0.0
 10
208.224503
 20
799.125774
 30
0.0
  0
SPLINE
  5
219
100
AcDbEntity
  8
holes
 62
7
100
AcDbSpline
 70
8
 71
3
 72
8
 73
4
 74
0
 40
0
 40
0
 40
0
 40
0
 40
1
 40
1
 40
1
 40
1
 10
208.224503
 20
799.125774
 30
0.0
 10
209.529789
 20
799.879381
 30
0.0
 10
210.333878
 20
801.272104
 30
0.0
 10
210.333878
 20
802.779318
 30
0.0
  0
SPLINE
  5
21a
100
AcDbEntity
  8
holes
 62
7
100
AcDbSpline
 70
8
 71
3
 72
8
 73
4
 74
0
 40
0
 40
0
 40
0
 40
0
 40
1
 40
1
 40
1
 40
1
 10
210.333878
 20
802.779318
 30
0.0
 10
210.333878
 20
804.286533
 30
0.0
 10
209.529789
 20
805.679256
 30
0.0
 10
208.224503
 20
806.432863
 30
0.0
  0
SPLINE
  5
21b
100
AcDbEntity
  8
holes
 62
7
100
AcDbSpline
 70
8
 71
3
 72
8
 73
4
 74
0
 40
0
 40
0
 40
0
 40
0
 40
1
 40
1
 40
1
 40
1
 10
208.224503
 20
806.432863
 30
0.0
 10
206.919218
 20
807.186470
 30
0.0
 10
205.311039
 20
807.186470
 30
0.0
 10
204.005754
 20
806.432863
 30
0.0
  0
SPLINE
  5
21c
100
AcDbEntity
  8
holes
 62
7
100
AcDbSpline
 70
8
 71
3
 72
8
 73
4
 74
0
 40
0
 40
0
 40
0
 40
0
 40
1
 40
1
 40
1
 40
1
 10
204.005754
 20
806.432863
 30
0.0
 10
202.700468
 20
805.679256
 30
0.0
 10
201.896379
 20
804.286533
 30
0.0
 10
201.896379
 20
802.779318
 30
0.0
  0
LWPOLYLINE
  5
21d
100
AcDbEntity
  8
holes
 62
7
100
AcDbPolyline
 90
1
 70
1
 10
211.673151
 20
797.422187
 30
0.0
  0
SPLINE
  5
21e
100
AcDbEntity
  8
holes
 62
7
100
AcDbSpline
 70
8
 71
3
 72
8
 73
4
 74
0
 40
0
 40
0
 40
0
 40
0
 40
1
 40
1
 40
1
 40
1
 10
191.316047
 20
808.940055
 30
0.0
 10
191.316047
 20
807.432841
 30
0.0
 10
192.120136
 20
806.040118
 30
0.0
 10
193.425422
 20
805.286511
 30
0.0
  0
SPLINE
  5
21f
100
AcDbEntity
  8
holes
 62
7
100
AcDbSpline
 70
8
 71
3
 72
8
 73
4
 74
0
 40
0
 40
0
 40
0
 40
0
 40
1
 40
1
 40
1
 40
1
 10
193.425422
 20
805.286511
 30
0.0
 10
194.730707
 20
804.532904
 30
0.0
 10
196.338886
 20
804.532904
 30
0.0
 10
197.644171
 20
805.286511
 30
0.0
  0
SPLINE
  5
220
100
AcDbEntity
  8
holes
 62
7
100
AcDbSpline
 70
8
 71
3
 72
8
 73
4
 74
0
 40
0
 40
0
 40
0
 40
0
 40
1
 40
1
 40
1
 40
1
 10
197.644171
 20
805.286511
 30
0.0
 10
198.949457
 20
806.040118
 30
0.0
 10
199.753546
 20
807.432841
 30
0.0
 10
199.753546
 20
808.940055
 30
0.0
  0
SPLINE
  5
221
100
AcDbEntity
  8
holes
 62
7
100
AcDbSpline
 70
8
 71
3
 72
8
 73
4
 74
0
 40
0
 40
0
 40
0
 40
0
 40
1
 40
1
 40
1
 40
1
 10
199.753546
 20
808.940055
 30
0.0
 10
199.753546
 20
810.447269
 30
0.0
 10
198.949457
 20
811.839993
 30
0.0
 10
197.644171
 20
812.593600
 30
0.0
  0
SPLINE
  5
222
100
AcDbEntity
  8
holes
 62
7
100
AcDbSpline
 70
8
 71
3
 72
8
 73
4
 74
0
 40
0
 40
0
 40
0
 40
0
 40
1
 40
1
 40
1
 40
1
 10
197.644171
 20
812.593600
 30
0.0
 10
196.338886
 20
813.347207
 30
0.0
 10
194.730707
 20
813.347207
 30
0.0
 10
193.425422
 20
812.593600
 30
0.0
  0
SPLINE
  5
223
100
AcDbEntity
  8
holes
 62
7
100
AcDbSpline
 70
8
 71
3
 72
8
 73
4
 74
0
 40
0
 40
0
 40
0
 40
0
 40
1
 40
1
 40
1
 40
1
 10
193.425422
 20
812.593600
 30
0.0
 10
192.120136
 20
811.839993
 30
0.0
 10
191.316047
 20
810.447269
 30
0.0
 10
191.316047
 20
808.940055
 30
0.0
  0
LWPOLYLINE
  5
224
100
AcDbEntity
  8
holes
 62
7
100
AcDbPolyline
 90
1
 70
1
 10
201.896379
 20
802.779318
 30
0.0
  0
SPLINE
  5
225
100
AcDbEntity
  8
holes
 62
7
100
AcDbSpline
 70
8
 71
3
 72
8
 73
4
 74
0
 40
0
 40
0
 40
0
 40
0
 40
1
 40
1
 40
1
 40
1
 10
181.673166
 20
814.297187
 30
0.0
 10
181.673166
 20
812.789973
 30
0.0
 10
182.477255
 20
811.397250
 30
0.0
 10
183.782541
 20
810.643643
 30
0.0
  0
SPLINE
  5
226
100
AcDbEntity
  8
holes
 62
7
100
AcDbSpline
 70
8
 71
3
 72
8
 73
4
 74
0
 40
0
 40
0
 40
0
 40
0
 40
1
 40
1
 40
1
 40
1
 10
183.782541
 20
810.643643
 30
0.0
 10
185.087827
 20
809.890035
 30
0.0
 10
186.696005
 20
809.890035
 30
0.0
 10
188.001291
 20
810.643643
 30
0.0
  0
SPLINE
  5
227
100
AcDbEntity
  8
holes
 62
7
100
AcDbSpline
 70
8
 71
3
 72
8
 73
4
 74
0
 40
0
 40
0
 40
0
 40
0
 40
1
 40
1
 40
1
 40
1
 10
188.001291
 20
810.643643
 30
0.0
 10
189.306577
 20
811.397250
 30
0.0
 10
190.110666
 20
812.789973
 30
0.0
 10
190.110666
 20
814.297187
 30
0.0
  0
SPLINE
  5
228
100
AcDbEntity
  8
holes
 62
7
100
AcDbSpline
 70
8
 71
3
 72
8
 73
4
 74
0
 40
0
 40
0
 40
0
 40
0
 40
1
 40
1
 40
1
 40
1
 10
190.110666
 20
814.297187
 30
0.0
 10
190.110666
 20
815.804401
 30
0.0
 10
189.306577
 20
817.197125
 30
0.0
 10
188.001291
 20
817.950732
 30
0.0
  0
SPLINE
  5
229
100
AcDbEntity
  8
holes
 62
7
100
AcDbSpline
 70
8
 71
3
 72
8
 73
4
 74
0
 40
0
 40
0
 40
0
 40
0
 40
1
 40
1
 40
1
 40
1
 10
188.001291
 20
817.950732
 30
0.0
 10
186.696005
 20
818.704339
 30
0.0
 10
185.087827
 20
818.704339
 30
0.0
 10
183.782541
 20
817.950732
 30
0.0
  0
SPLINE
  5
22a
100
AcDbEntity
  8
holes
 62
7
100
AcDbSpline
 70
8
 71
3
 72
8
 73
4
 74
0
 40
0
 40
0
 40
0
 40
0
 40
1
 40
1
 40
1
 40
1
 10
183.782541
 20
817.950732
 30
0.0
 10
182.477255
 20
817.197125
 30
0.0
 10
181.673166
 20
815.804401
 30
0.0
 10
181.673166
 20
814.297187
 30
0.0
  0
LWPOLYLINE
  5
22b
100
AcDbEntity
  8
holes
 62
7
100
AcDbPolyline
 90
1
 70
1
 10
191.316047
 20
808.940055
 30
0.0
  0
SPLINE
  5
22c
100
AcDbEntity
  8
holes
 62
7
100
AcDbSpline
 70
8
 71
3
 72
8
 73
4
 74
0
 40
0
 40
0
 40
0
 40
0
 40
1
 40
1
 40
1
 40
1
 10
69.406118
 20
635.086908
 30
0.0
 10
69.406118
 20
637.416859
 30
0.0
 10
67.517320
 20
639.305657
 30
0.0
 10
65.187369
 20
639.305657
 30
0.0
  0
SPLINE
  5
22d
100
AcDbEntity
  8
holes
 62
7
100
AcDbSpline
 70
8
 71
3
 72
8
 73
4
 74
0
 40
0
 40
0
 40
0
 40
0
 40
1
 40
1
 40
1
 40
1
 10
65.187369
 20
639.305657
 30
0.0
 10
62.857417
 20
639.305657
 30
0.0
 10
60.968619
 20
637.416859
 30
0.0
 10
60.968619
 20
635.086908
 30
0.0
  0
SPLINE
  5
22e
100
AcDbEntity
  8
holes
 62
7
100
AcDbSpline
 70
8
 71
3
 72
8
 73
4
 74
0
 40
0
 40
0
 40
0
 40
0
 40
1
 40
1
 40
1
 40
1
 10
60.968619
 20
635.086908
 30
0.0
 10
60.968619
 20
632.756957
 30
0.0
 10
62.857417
 20
630.868158
 30
0.0
 10
65.187369
 20
630.868158
 30
0.0
  0
SPLINE
  5
22f
100
AcDbEntity
  8
holes
 62
7
100
AcDbSpline
 70
8
 71
3
 72
8
 73
4
 74
0
 40
0
 40
0
 40
0
 40
0
 40
1
 40
1
 40
1
 40
1
 10
65.187369
 20
630.868158
 30
0.0
 10
67.517320
 20
630.868158
 30
0.0
 10
69.406118
 20
632.756957
 30
0.0
 10
69.406118
 20
635.086908
 30
0.0
  0
LWPOLYLINE
  5
230
100
AcDbEntity
  8
holes
 62
7
100
AcDbPolyline
 90
1
 70
1
 10
181.673166
 20
814.297187
 30
0.0
  0
SPLINE
  5
231
100
AcDbEntity
  8
holes
 62
7
100
AcDbSpline
 70
8
 71
3
 72
8
 73
4
 74
0
 40
0
 40
0
 40
0
 40
0
 40
1
 40
1
 40
1
 40
1
 10
130.812359
 20
600.198503
 30
0.0
 10
130.812359
 20
602.528454
 30
0.0
 10
128.923560
 20
604.417252
 30
0.0
 10
126.593609
 20
604.417252
 30
0.0
  0
SPLINE
  5
232
100
AcDbEntity
  8
holes
 62
7
100
AcDbSpline
 70
8
 71
3
 72
8
 73
4
 74
0
 40
0
 40
0
 40
0
 40
0
 40
1
 40
1
 40
1
 40
1
 10
126.593609
 20
604.417252
 30
0.0
 10
124.263658
 20
604.417252
 30
0.0
 10
122.374859
 20
602.528454
 30
0.0
 10
122.374859
 20
600.198503
 30
0.0
  0
SPLINE
  5
233
100
AcDbEntity
  8
holes
 62
7
100
AcDbSpline
 70
8
 71
3
 72
8
 73
4
 74
0
 40
0
 40
0
 40
0
 40
0
 40
1
 40
1
 40
1
 40
1
 10
122.374859
 20
600.198503
 30
0.0
 10
122.374859
 20
597.868552
 30
0.0
 10
124.263658
 20
595.979753
 30
0.0
 10
126.593609
 20
595.979753
 30
0.0
  0
SPLINE
  5
234
100
AcDbEntity
  8
holes
 62
7
100
AcDbSpline
 70
8
 71
3
 72
8
 73
4
 74
0
 40
0
 40
0
 40
0
 40
0
 40
1
 40
1
 40
1
 40
1
 10
126.593609
 20
595.979753
 30
0.0
 10
128.923560
 20
595.979753
 30
0.0
 10
130.812358
 20
597.868552
 30
0.0
 10
130.812359
 20
600.198503
 30
0.0
  0
LWPOLYLINE
  5
235
100
AcDbEntity
  8
holes
 62
7
100
AcDbPolyline
 90
1
 70
1
 10
69.406118
 20
635.086908
 30
0.0
  0
SPLINE
  5
236
100
AcDbEntity
  8
holes
 62
7
100
AcDbSpline
 70
8
 71
3
 72
8
 73
4
 74
0
 40
0
 40
0
 40
0
 40
0
 40
1
 40
1
 40
1
 40
1
 10
79.115933
 20
629.260974
 30
0.0
 10
79.115933
 20
630.768188
 30
0.0
 10
78.311844
 20
632.160911
 30
0.0
 10
77.006559
 20
632.914518
 30
0.0
  0
SPLINE
  5
237
100
AcDbEntity
  8
holes
 62
7
100
AcDbSpline
 70
8
 71
3
 72
8
 73
4
 74
0
 40
0
 40
0
 40
0
 40
0
 40
1
 40
1
 40
1
 40
1
 10
77.006559
 20
632.914518
 30
0.0
 10
75.701273
 20
633.668125
 30
0.0
 10
74.093094
 20
633.668125
 30
0.0
 10
72.787809
 20
632.914518
 30
0.0
  0
SPLINE
  5
238
100
AcDbEntity
  8
holes
 62
7
100
AcDbSpline
 70
8
 71
3
 72
8
 73
4
 74
0
 40
0
 40
0
 40
0
 40
0
 40
1
 40
1
 40
1
 40
1
 10
72.787809
 20
632.914518
 30
0.0
 10
71.482523
 20
632.160911
 30
0.0
 10
70.678434
 20
630.768188
 30
0.0
 10
70.678434
 20
629.260974
 30
0.0
  0
SPLINE
  5
239
100
AcDbEntity
  8
holes
 62
7
100
AcDbSpline
 70
8
 71
3
 72
8
 73
4
 74
0
 40
0
 40
0
 40
0
 40
0
 40
1
 40
1
 40
1
 40
1
 10
70.678434
 20
629.260974
 30
0.0
 10
70.678434
 20
626.931023
 30
0.0
 10
72.567233
 20
625.042224
 30
0.0
 10
74.897184
 20
625.042224
 30
0.0
  0
SPLINE
  5
23a
100
AcDbEntity
  8
holes
 62
7
100
AcDbSpline
 70
8
 71
3
 72
8
 73
4
 74
0
 40
0
 40
0
 40
0
 40
0
 40
1
 40
1
 40
1
 40
1
 10
74.897184
 20
625.042224
 30
0.0
 10
77.227135
 20
625.042224
 30
0.0
 10
79.115933
 20
626.931023
 30
0.0
 10
79.115933
 20
629.260974
 30
0.0
  0
LWPOLYLINE
  5
23b
100
AcDbEntity
  8
holes
 62
7
100
AcDbPolyline
 90
1
 70
1
 10
130.812359
 20
600.198503
 30
0.0
  0
SPLINE
  5
23c
100
AcDbEntity
  8
holes
 62
7
100
AcDbSpline
 70
8
 71
3
 72
8
 73
4
 74
0
 40
0
 40
0
 40
0
 40
0
 40
1
 40
1
 40
1
 40
1
 10
89.830219
 20
623.234239
 30
0.0
 10
89.830219
 20
624.741454
 30
0.0
 10
89.026130
 20
626.134177
 30
0.0
 10
87.720845
 20
626.887784
 30
0.0
  0
SPLINE
  5
23d
100
AcDbEntity
  8
holes
 62
7
100
AcDbSpline
 70
8
 71
3
 72
8
 73
4
 74
0
 40
0
 40
0
 40
0
 40
0
 40
1
 40
1
 40
1
 40
1
 10
87.720845
 20
626.887784
 30
0.0
 10
86.415559
 20
627.641391
 30
0.0
 10
84.807380
 20
627.641391
 30
0.0
 10
83.502095
 20
626.887784
 30
0.0
  0
SPLINE
  5
23e
100
AcDbEntity
  8
holes
 62
7
100
AcDbSpline
 70
8
 71
3
 72
8
 73
4
 74
0
 40
0
 40
0
 40
0
 40
0
 40
1
 40
1
 40
1
 40
1
 10
83.502095
 20
626.887784
 30
0.0
 10
82.196809
 20
626.134177
 30
0.0
 10
81.392720
 20
624.741454
 30
0.0
 10
81.392720
 20
623.234239
 30
0.0
  0
SPLINE
  5
23f
100
AcDbEntity
  8
holes
 62
7
100
AcDbSpline
 70
8
 71
3
 72
8
 73
4
 74
0
 40
0
 40
0
 40
0
 40
0
 40
1
 40
1
 40
1
 40
1
 10
81.392720
 20
623.234239
 30
0.0
 10
81.392720
 20
621.727025
 30
0.0
 10
82.196809
 20
620.334302
 30
0.0
 10
83.502095
 20
619.580695
 30
0.0
  0
SPLINE
  5
240
100
AcDbEntity
  8
holes
 62
7
100
AcDbSpline
 70
8
 71
3
 72
8
 73
4
 74
0
 40
0
 40
0
 40
0
 40
0
 40
1
 40
1
 40
1
 40
1
 10
83.502095
 20
619.580695
 30
0.0
 10
84.807380
 20
618.827088
 30
0.0
 10
86.415559
 20
618.827088
 30
0.0
 10
87.720845
 20
619.580695
 30
0.0
  0
SPLINE
  5
241
100
AcDbEntity
  8
holes
 62
7
100
AcDbSpline
 70
8
 71
3
 72
8
 73
4
 74
0
 40
0
 40
0
 40
0
 40
0
 40
1
 40
1
 40
1
 40
1
 10
87.720845
 20
619.580695
 30
0.0
 10
89.026130
 20
620.334302
 30
0.0
 10
89.830219
 20
621.727025
 30
0.0
 10
89.830219
 20
623.234239
 30
0.0
  0
LWPOLYLINE
  5
242
100
AcDbEntity
  8
holes
 62
7
100
AcDbPolyline
 90
1
 70
1
 10
79.115933
 20
629.260974
 30
0.0
  0
SPLINE
  5
243
100
AcDbEntity
  8
holes
 62
7
100
AcDbSpline
 70
8
 71
3
 72
8
 73
4
 74
0
 40
0
 40
0
 40
0
 40
0
 40
1
 40
1
 40
1
 40
1
 10
100.678440
 20
617.073503
 30
0.0
 10
100.678440
 20
618.580717
 30
0.0
 10
99.874350
 20
619.973440
 30
0.0
 10
98.569065
 20
620.727047
 30
0.0
  0
SPLINE
  5
244
100
AcDbEntity
  8
holes
 62
7
100
AcDbSpline
 70
8
 71
3
 72
8
 73
4
 74
0
 40
0
 40
0
 40
0
 40
0
 40
1
 40
1
 40
1
 40
1
 10
98.569065
 20
620.727047
 30
0.0
 10
97.263779
 20
621.480654
 30
0.0
 10
95.655601
 20
621.480654
 30
0.0
 10
94.350315
 20
620.727047
 30
0.0
  0
SPLINE
  5
245
100
AcDbEntity
  8
holes
 62
7
100
AcDbSpline
 70
8
 71
3
 72
8
 73
4
 74
0
 40
0
 40
0
 40
0
 40
0
 40
1
 40
1
 40
1
 40
1
 10
94.350315
 20
620.727047
 30
0.0
 10
93.045029
 20
619.973440
 30
0.0
 10
92.240940
 20
618.580717
 30
0.0
 10
92.240940
 20
617.073503
 30
0.0
  0
SPLINE
  5
246
100
AcDbEntity
  8
holes
 62
7
100
AcDbSpline
 70
8
 71
3
 72
8
 73
4
 74
0
 40
0
 40
0
 40
0
 40
0
 40
1
 40
1
 40
1
 40
1
 10
92.240940
 20
617.073503
 30
0.0
 10
92.240940
 20
615.566289
 30
0.0
 10
93.045029
 20
614.173565
 30
0.0
 10
94.350315
 20
613.419958
 30
0.0
  0
SPLINE
  5
247
100
AcDbEntity
  8
holes
 62
7
100
AcDbSpline
 70
8
 71
3
 72
8
 73
4
 74
0
 40
0
 40
0
 40
0
 40
0
 40
1
 40
1
 40
1
 40
1
 10
94.350315
 20
613.419958
 30
0.0
 10
95.655601
 20
612.666351
 30
0.0
 10
97.263779
 20
612.666351
 30
0.0
 10
98.569065
 20
613.419958
 30
0.0
  0
SPLINE
  5
248
100
AcDbEntity
  8
holes
 62
7
100
AcDbSpline
 70
8
 71
3
 72
8
 73
4
 74
0
 40
0
 40
0
 40
0
 40
0
 40
1
 40
1
 40
1
 40
1
 10
98.569065
 20
613.419958
 30
0.0
 10
99.874350
 20
614.173565
 30
0.0
 10
100.678440
 20
615.566289
 30
0.0
 10
100.678440
 20
617.073503
 30
0.0
  0
LWPOLYLINE
  5
249
100
AcDbEntity
  8
holes
 62
7
100
AcDbPolyline
 90
1
 70
1
 10
89.830219
 20
623.234239
 30
0.0
  0
SPLINE
  5
24a
100
AcDbEntity
  8
holes
 62
7
100
AcDbSpline
 70
8
 71
3
 72
8
 73
4
 74
0
 40
0
 40
0
 40
0
 40
0
 40
1
 40
1
 40
1
 40
1
 10
110.455235
 20
611.582417
 30
0.0
 10
110.455234
 20
613.912368
 30
0.0
 10
108.566436
 20
615.801167
 30
0.0
 10
106.236485
 20
615.801167
 30
0.0
  0
SPLINE
  5
24b
100
AcDbEntity
  8
holes
 62
7
100
AcDbSpline
 70
8
 71
3
 72
8
 73
4
 74
0
 40
0
 40
0
 40
0
 40
0
 40
1
 40
1
 40
1
 40
1
 10
106.236485
 20
615.801167
 30
0.0
 10
103.906534
 20
615.801167
 30
0.0
 10
102.017735
 20
613.912368
 30
0.0
 10
102.017735
 20
611.582417
 30
0.0
  0
SPLINE
  5
24c
100
AcDbEntity
  8
holes
 62
7
100
AcDbSpline
 70
8
 71
3
 72
8
 73
4
 74
0
 40
0
 40
0
 40
0
 40
0
 40
1
 40
1
 40
1
 40
1
 10
102.017735
 20
611.582417
 30
0.0
 10
102.017735
 20
609.252466
 30
0.0
 10
103.906534
 20
607.363668
 30
0.0
 10
106.236485
 20
607.363668
 30
0.0
  0
SPLINE
  5
24d
100
AcDbEntity
  8
holes
 62
7
100
AcDbSpline
 70
8
 71
3
 72
8
 73
4
 74
0
 40
0
 40
0
 40
0
 40
0
 40
1
 40
1
 40
1
 40
1
 10
106.236485
 20
607.363668
 30
0.0
 10
108.566436
 20
607.363668
 30
0.0
 10
110.455234
 20
609.252466
 30
0.0
 10
110.455235
 20
611.582417
 30
0.0
  0
LWPOLYLINE
  5
24e
100
AcDbEntity
  8
holes
 62
7
100
AcDbPolyline
 90
1
 70
1
 10
100.678440
 20
617.073503
 30
0.0
  0
SPLINE
  5
24f
100
AcDbEntity
  8
holes
 62
7
100
AcDbSpline
 70
8
 71
3
 72
8
 73
4
 74
0
 40
0
 40
0
 40
0
 40
0
 40
1
 40
1
 40
1
 40
1
 10
120.499895
 20
605.555680
 30
0.0
 10
120.499895
 20
607.062894
 30
0.0
 10
119.695806
 20
608.455617
 30
0.0
 10
118.390520
 20
609.209224
 30
0.0
  0
SPLINE
  5
250
100
AcDbEntity
  8
holes
 62
7
100
AcDbSpline
 70
8
 71
3
 72
8
 73
4
 74
0
 40
0
 40
0
 40
0
 40
0
 40
1
 40
1
 40
1
 40
1
 10
118.390520
 20
609.209224
 30
0.0
 10
117.085234
 20
609.962831
 30
0.0
 10
115.477056
 20
609.962831
 30
0.0
 10
114.171770
 20
609.209224
 30
0.0
  0
SPLINE
  5
251
100
AcDbEntity
  8
holes
 62
7
100
AcDbSpline
 70
8
 71
3
 72
8
 73
4
 74
0
 40
0
 40
0
 40
0
 40
0
 40
1
 40
1
 40
1
 40
1
 10
114.171770
 20
609.209224
 30
0.0
 10
112.866485
 20
608.455617
 30
0.0
 10
112.062395
 20
607.062894
 30
0.0
 10
112.062395
 20
605.555680
 30
0.0
  0
SPLINE
  5
252
100
AcDbEntity
  8
holes
 62
7
100
AcDbSpline
 70
8
 71
3
 72
8
 73
4
 74
0
 40
0
 40
0
 40
0
 40
0
 40
1
 40
1
 40
1
 40
1
 10
112.062395
 20
605.555680
 30
0.0
 10
112.062395
 20
604.048466
 30
0.0
 10
112.866485
 20
602.655742
 30
0.0
 10
114.171770
 20
601.902135
 30
0.0
  0
SPLINE
  5
253
100
AcDbEntity
  8
holes
 62
7
100
AcDbSpline
 70
8
 71
3
 72
8
 73
4
 74
0
 40
0
 40
0
 40
0
 40
0
 40
1
 40
1
 40
1
 40
1
 10
114.171770
 20
601.902135
 30
0.0
 10
115.477056
 20
601.148528
 30
0.0
 10
117.085234
 20
601.148528
 30
0.0
 10
118.390520
 20
601.902135
 30
0.0
  0
SPLINE
  5
254
100
AcDbEntity
  8
holes
 62
7
100
AcDbSpline
 70
8
 71
3
 72
8
 73
4
 74
0
 40
0
 40
0
 40
0
 40
0
 40
1
 40
1
 40
1
 40
1
 10
118.390520
 20
601.902135
 30
0.0
 10
119.695806
 20
602.655742
 30
0.0
 10
120.499895
 20
604.048466
 30
0.0
 10
120.499895
 20
605.555680
 30
0.0
  0
LWPOLYLINE
  5
255
100
AcDbEntity
  8
holes
 62
7
100
AcDbPolyline
 90
1
 70
1
 10
110.455235
 20
611.582417
 30
0.0
  0
SPLINE
  5
256
100
AcDbEntity
  8
holes
 62
7
100
AcDbSpline
 70
8
 71
3
 72
8
 73
4
 74
0
 40
0
 40
0
 40
0
 40
0
 40
1
 40
1
 40
1
 40
1
 10
68.803427
 20
623.100325
 30
0.0
 10
68.803427
 20
624.607539
 30
0.0
 10
67.999338
 20
626.000263
 30
0.0
 10
66.694052
 20
626.753870
 30
0.0
  0
SPLINE
  5
257
100
AcDbEntity
  8
holes
 62
7
100
AcDbSpline
 70
8
 71
3
 72
8
 73
4
 74
0
 40
0
 40
0
 40
0
 40
0
 40
1
 40
1
 40
1
 40
1
 10
66.694052
 20
626.753870
 30
0.0
 10
65.388767
 20
627.507477
 30
0.0
 10
63.780588
 20
627.507477
 30
0.0
 10
62.475303
 20
626.753870
 30
0.0
  0
SPLINE
  5
258
100
AcDbEntity
  8
holes
 62
7
100
AcDbSpline
 70
8
 71
3
 72
8
 73
4
 74
0
 40
0
 40
0
 40
0
 40
0
 40
1
 40
1
 40
1
 40
1
 10
62.475303
 20
626.753870
 30
0.0
 10
61.170017
 20
626.000263
 30
0.0
 10
60.365928
 20
624.607539
 30
0.0
 10
60.365928
 20
623.100325
 30
0.0
  0
SPLINE
  5
259
100
AcDbEntity
  8
holes
 62
7
100
AcDbSpline
 70
8
 71
3
 72
8
 73
4
 74
0
 40
0
 40
0
 40
0
 40
0
 40
1
 40
1
 40
1
 40
1
 10
60.365928
 20
623.100325
 30
0.0
 10
60.365928
 20
621.593111
 30
0.0
 10
61.170017
 20
620.200388
 30
0.0
 10
62.475303
 20
619.446781
 30
0.0
  0
SPLINE
  5
25a
100
AcDbEntity
  8
holes
 62
7
100
AcDbSpline
 70
8
 71
3
 72
8
 73
4
 74
0
 40
0
 40
0
 40
0
 40
0
 40
1
 40
1
 40
1
 40
1
 10
62.475303
 20
619.446781
 30
0.0
 10
63.780588
 20
618.693173
 30
0.0
 10
65.388767
 20
618.693173
 30
0.0
 10
66.694052
 20
619.446781
 30
0.0
  0
SPLINE
  5
25b
100
AcDbEntity
  8
holes
 62
7
100
AcDbSpline
 70
8
 71
3
 72
8
 73
4
 74
0
 40
0
 40
0
 40
0
 40
0
 40
1
 40
1
 40
1
 40
1
 10
66.694052
 20
619.446781
 30
0.0
 10
67.999338
 20
620.200388
 30
0.0
 10
68.803427
 20
621.593111
 30
0.0
 10
68.803427
 20
623.100325
 30
0.0
  0
LWPOLYLINE
  5
25c
100
AcDbEntity
  8
holes
 62
7
100
AcDbPolyline
 90
1
 70
1
 10
120.499895
 20
605.555680
 30
0.0
  0
SPLINE
  5
25d
100
AcDbEntity
  8
holes
 62
7
100
AcDbSpline
 70
8
 71
3
 72
8
 73
4
 74
0
 40
0
 40
0
 40
0
 40
0
 40
1
 40
1
 40
1
 40
1
 10
79.517713
 20
617.207417
 30
0.0
 10
79.517713
 20
618.714631
 30
0.0
 10
78.713624
 20
620.107354
 30
0.0
 10
77.408338
 20
620.860962
 30
0.0
  0
SPLINE
  5
25e
100
AcDbEntity
  8
holes
 62
7
100
AcDbSpline
 70
8
 71
3
 72
8
 73
4
 74
0
 40
0
 40
0
 40
0
 40
0
 40
1
 40
1
 40
1
 40
1
 10
77.408338
 20
620.860962
 30
0.0
 10
76.103053
 20
621.614569
 30
0.0
 10
74.494874
 20
621.614569
 30
0.0
 10
73.189589
 20
620.860962
 30
0.0
  0
SPLINE
  5
25f
100
AcDbEntity
  8
holes
 62
7
100
AcDbSpline
 70
8
 71
3
 72
8
 73
4
 74
0
 40
0
 40
0
 40
0
 40
0
 40
1
 40
1
 40
1
 40
1
 10
73.189589
 20
620.860962
 30
0.0
 10
71.884303
 20
620.107354
 30
0.0
 10
71.080214
 20
618.714631
 30
0.0
 10
71.080214
 20
617.207417
 30
0.0
  0
SPLINE
  5
260
100
AcDbEntity
  8
holes
 62
7
100
AcDbSpline
 70
8
 71
3
 72
8
 73
4
 74
0
 40
0
 40
0
 40
0
 40
0
 40
1
 40
1
 40
1
 40
1
 10
71.080214
 20
617.207417
 30
0.0
 10
71.080214
 20
615.700203
 30
0.0
 10
71.884303
 20
614.307480
 30
0.0
 10
73.189589
 20
613.553872
 30
0.0
  0
SPLINE
  5
261
100
AcDbEntity
  8
holes
 62
7
100
AcDbSpline
 70
8
 71
3
 72
8
 73
4
 74
0
 40
0
 40
0
 40
0
 40
0
 40
1
 40
1
 40
1
 40
1
 10
73.189589
 20
613.553872
 30
0.0
 10
74.494874
 20
612.800265
 30
0.0
 10
76.103053
 20
612.800265
 30
0.0
 10
77.408338
 20
613.553872
 30
0.0
  0
SPLINE
  5
262
100
AcDbEntity
  8
holes
 62
7
100
AcDbSpline
 70
8
 71
3
 72
8
 73
4
 74
0
 40
0
 40
0
 40
0
 40
0
 40
1
 40
1
 40
1
 40
1
 10
77.408338
 20
613.553872
 30
0.0
 10
78.713624
 20
614.307480
 30
0.0
 10
79.517713
 20
615.700203
 30
0.0
 10
79.517713
 20
617.207417
 30
0.0
  0
LWPOLYLINE
  5
263
100
AcDbEntity
  8
holes
 62
7
100
AcDbPolyline
 90
1
 70
1
 10
68.803427
 20
623.100325
 30
0.0
  0
SPLINE
  5
264
100
AcDbEntity
  8
holes
 62
7
100
AcDbSpline
 70
8
 71
3
 72
8
 73
4
 74
0
 40
0
 40
0
 40
0
 40
0
 40
1
 40
1
 40
1
 40
1
 10
90.901647
 20
611.046768
 30
0.0
 10
90.901647
 20
612.553982
 30
0.0
 10
90.097558
 20
613.946706
 30
0.0
 10
88.792273
 20
614.700313
 30
0.0
  0
SPLINE
  5
265
100
AcDbEntity
  8
holes
 62
7
100
AcDbSpline
 70
8
 71
3
 72
8
 73
4
 74
0
 40
0
 40
0
 40
0
 40
0
 40
1
 40
1
 40
1
 40
1
 10
88.792273
 20
614.700313
 30
0.0
 10
87.486987
 20
615.453920
 30
0.0
 10
85.878808
 20
615.453920
 30
0.0
 10
84.573523
 20
614.700313
 30
0.0
  0
SPLINE
  5
266
100
AcDbEntity
  8
holes
 62
7
100
AcDbSpline
 70
8
 71
3
 72
8
 73
4
 74
0
 40
0
 40
0
 40
0
 40
0
 40
1
 40
1
 40
1
 40
1
 10
84.573523
 20
614.700313
 30
0.0
 10
83.268237
 20
613.946706
 30
0.0
 10
82.464148
 20
612.553982
 30
0.0
 10
82.464148
 20
611.046768
 30
0.0
  0
SPLINE
  5
267
100
AcDbEntity
  8
holes
 62
7
100
AcDbSpline
 70
8
 71
3
 72
8
 73
4
 74
0
 40
0
 40
0
 40
0
 40
0
 40
1
 40
1
 40
1
 40
1
 10
82.464148
 20
611.046768
 30
0.0
 10
82.464148
 20
608.716817
 30
0.0
 10
84.352947
 20
606.828019
 30
0.0
 10
86.682898
 20
606.828019
 30
0.0
  0
SPLINE
  5
268
100
AcDbEntity
  8
holes
 62
7
100
AcDbSpline
 70
8
 71
3
 72
8
 73
4
 74
0
 40
0
 40
0
 40
0
 40
0
 40
1
 40
1
 40
1
 40
1
 10
86.682898
 20
606.828019
 30
0.0
 10
89.012849
 20
606.828019
 30
0.0
 10
90.901647
 20
608.716817
 30
0.0
 10
90.901647
 20
611.046768
 30
0.0
  0
LWPOLYLINE
  5
269
100
AcDbEntity
  8
holes
 62
7
100
AcDbPolyline
 90
1
 70
1
 10
79.517713
 20
617.207417
 30
0.0
  0
SPLINE
  5
26a
100
AcDbEntity
  8
holes
 62
7
100
AcDbSpline
 70
8
 71
3
 72
8
 73
4
 74
0
 40
0
 40
0
 40
0
 40
0
 40
1
 40
1
 40
1
 40
1
 10
101.348088
 20
605.019946
 30
0.0
 10
101.348088
 20
606.527160
 30
0.0
 10
100.543999
 20
607.919883
 30
0.0
 10
99.238713
 20
608.673490
 30
0.0
  0
SPLINE
  5
26b
100
AcDbEntity
  8
holes
 62
7
100
AcDbSpline
 70
8
 71
3
 72
8
 73
4
 74
0
 40
0
 40
0
 40
0
 40
0
 40
1
 40
1
 40
1
 40
1
 10
99.238713
 20
608.673490
 30
0.0
 10
97.933427
 20
609.427097
 30
0.0
 10
96.325249
 20
609.427097
 30
0.0
 10
95.019963
 20
608.673490
 30
0.0
  0
SPLINE
  5
26c
100
AcDbEntity
  8
holes
 62
7
100
AcDbSpline
 70
8
 71
3
 72
8
 73
4
 74
0
 40
0
 40
0
 40
0
 40
0
 40
1
 40
1
 40
1
 40
1
 10
95.019963
 20
608.673490
 30
0.0
 10
93.714677
 20
607.919883
 30
0.0
 10
92.910588
 20
606.527160
 30
0.0
 10
92.910588
 20
605.019946
 30
0.0
  0
SPLINE
  5
26d
100
AcDbEntity
  8
holes
 62
7
100
AcDbSpline
 70
8
 71
3
 72
8
 73
4
 74
0
 40
0
 40
0
 40
0
 40
0
 40
1
 40
1
 40
1
 40
1
 10
92.910588
 20
605.019946
 30
0.0
 10
92.910588
 20
603.512732
 30
0.0
 10
93.714677
 20
602.120008
 30
0.0
 10
95.019963
 20
601.366401
 30
0.0
  0
SPLINE
  5
26e
100
AcDbEntity
  8
holes
 62
7
100
AcDbSpline
 70
8
 71
3
 72
8
 73
4
 74
0
 40
0
 40
0
 40
0
 40
0
 40
1
 40
1
 40
1
 40
1
 10
95.019963
 20
601.366401
 30
0.0
 10
96.325249
 20
600.612794
 30
0.0
 10
97.933427
 20
600.612794
 30
0.0
 10
99.238713
 20
601.366401
 30
0.0
  0
SPLINE
  5
26f
100
AcDbEntity
  8
holes
 62
7
100
AcDbSpline
 70
8
 71
3
 72
8
 73
4
 74
0
 40
0
 40
0
 40
0
 40
0
 40
1
 40
1
 40
1
 40
1
 10
99.238713
 20
601.366401
 30
0.0
 10
100.543999
 20
602.120008
 30
0.0
 10
101.348088
 20
603.512732
 30
0.0
 10
101.348088
 20
605.019946
 30
0.0
  0
LWPOLYLINE
  5
270
100
AcDbEntity
  8
holes
 62
7
100
AcDbPolyline
 90
1
 70
1
 10
90.901647
 20
611.046768
 30
0.0
  0
SPLINE
  5
271
100
AcDbEntity
  8
holes
 62
7
100
AcDbSpline
 70
8
 71
3
 72
8
 73
4
 74
0
 40
0
 40
0
 40
0
 40
0
 40
1
 40
1
 40
1
 40
1
 10
111.258794
 20
600.198503
 30
0.0
 10
111.258794
 20
601.705717
 30
0.0
 10
110.454705
 20
603.098440
 30
0.0
 10
109.149419
 20
603.852047
 30
0.0
  0
SPLINE
  5
272
100
AcDbEntity
  8
holes
 62
7
100
AcDbSpline
 70
8
 71
3
 72
8
 73
4
 74
0
 40
0
 40
0
 40
0
 40
0
 40
1
 40
1
 40
1
 40
1
 10
109.149419
 20
603.852047
 30
0.0
 10
107.844134
 20
604.605654
 30
0.0
 10
106.235955
 20
604.605654
 30
0.0
 10
104.930669
 20
603.852047
 30
0.0
  0
SPLINE
  5
273
100
AcDbEntity
  8
holes
 62
7
100
AcDbSpline
 70
8
 71
3
 72
8
 73
4
 74
0
 40
0
 40
0
 40
0
 40
0
 40
1
 40
1
 40
1
 40
1
 10
104.930669
 20
603.852047
 30
0.0
 10
103.625384
 20
603.098440
 30
0.0
 10
102.821295
 20
601.705717
 30
0.0
 10
102.821295
 20
600.198503
 30
0.0
  0
SPLINE
  5
274
100
AcDbEntity
  8
holes
 62
7
100
AcDbSpline
 70
8
 71
3
 72
8
 73
4
 74
0
 40
0
 40
0
 40
0
 40
0
 40
1
 40
1
 40
1
 40
1
 10
102.821295
 20
600.198503
 30
0.0
 10
102.821295
 20
598.691289
 30
0.0
 10
103.625384
 20
597.298565
 30
0.0
 10
104.930669
 20
596.544958
 30
0.0
  0
SPLINE
  5
275
100
AcDbEntity
  8
holes
 62
7
100
AcDbSpline
 70
8
 71
3
 72
8
 73
4
 74
0
 40
0
 40
0
 40
0
 40
0
 40
1
 40
1
 40
1
 40
1
 10
104.930669
 20
596.544958
 30
0.0
 10
106.235955
 20
595.791351
 30
0.0
 10
107.844134
 20
595.791351
 30
0.0
 10
109.149419
 20
596.544958
 30
0.0
  0
SPLINE
  5
276
100
AcDbEntity
  8
holes
 62
7
100
AcDbSpline
 70
8
 71
3
 72
8
 73
4
 74
0
 40
0
 40
0
 40
0
 40
0
 40
1
 40
1
 40
1
 40
1
 10
109.149419
 20
596.544958
 30
0.0
 10
110.454705
 20
597.298565
 30
0.0
 10
111.258794
 20
598.691289
 30
0.0
 10
111.258794
 20
600.198503
 30
0.0
  0
LWPOLYLINE
  5
277
100
AcDbEntity
  8
holes
 62
7
100
AcDbPolyline
 90
1
 70
1
 10
101.348088
 20
605.019946
 30
0.0
  0
SPLINE
  5
278
100
AcDbEntity
  8
holes
 62
7
100
AcDbSpline
 70
8
 71
3
 72
8
 73
4
 74
0
 40
0
 40
0
 40
0
 40
0
 40
1
 40
1
 40
1
 40
1
 10
121.437366
 20
593.903857
 30
0.0
 10
121.437366
 20
595.411071
 30
0.0
 10
120.633277
 20
596.803795
 30
0.0
 10
119.327991
 20
597.557402
 30
0.0
  0
SPLINE
  5
279
100
AcDbEntity
  8
holes
 62
7
100
AcDbSpline
 70
8
 71
3
 72
8
 73
4
 74
0
 40
0
 40
0
 40
0
 40
0
 40
1
 40
1
 40
1
 40
1
 10
119.327991
 20
597.557402
 30
0.0
 10
118.022706
 20
598.311009
 30
0.0
 10
116.414527
 20
598.311009
 30
0.0
 10
115.109241
 20
597.557402
 30
0.0
  0
SPLINE
  5
27a
100
AcDbEntity
  8
holes
 62
7
100
AcDbSpline
 70
8
 71
3
 72
8
 73
4
 74
0
 40
0
 40
0
 40
0
 40
0
 40
1
 40
1
 40
1
 40
1
 10
115.109241
 20
597.557402
 30
0.0
 10
113.803956
 20
596.803795
 30
0.0
 10
112.999867
 20
595.411071
 30
0.0
 10
112.999867
 20
593.903857
 30
0.0
  0
SPLINE
  5
27b
100
AcDbEntity
  8
holes
 62
7
100
AcDbSpline
 70
8
 71
3
 72
8
 73
4
 74
0
 40
0
 40
0
 40
0
 40
0
 40
1
 40
1
 40
1
 40
1
 10
112.999867
 20
593.903857
 30
0.0
 10
112.999867
 20
592.396643
 30
0.0
 10
113.803956
 20
591.003920
 30
0.0
 10
115.109241
 20
590.250313
 30
0.0
  0
SPLINE
  5
27c
100
AcDbEntity
  8
holes
 62
7
100
AcDbSpline
 70
8
 71
3
 72
8
 73
4
 74
0
 40
0
 40
0
 40
0
 40
0
 40
1
 40
1
 40
1
 40
1
 10
115.109241
 20
590.250313
 30
0.0
 10
116.414527
 20
589.496706
 30
0.0
 10
118.022706
 20
589.496706
 30
0.0
 10
119.327991
 20
590.250313
 30
0.0
  0
SPLINE
  5
27d
100
AcDbEntity
  8
holes
 62
7
100
AcDbSpline
 70
8
 71
3
 72
8
 73
4
 74
0
 40
0
 40
0
 40
0
 40
0
 40
1
 40
1
 40
1
 40
1
 10
119.327991
 20
590.250313
 30
0.0
 10
120.633277
 20
591.003920
 30
0.0
 10
121.437366
 20
592.396643
 30
0.0
 10
121.437366
 20
593.903857
 30
0.0
  0
LWPOLYLINE
  5
27e
100
AcDbEntity
  8
holes
 62
7
100
AcDbPolyline
 90
1
 70
1
 10
111.258794
 20
600.198503
 30
0.0
  0
SPLINE
  5
27f
100
AcDbEntity
  8
holes
 62
7
100
AcDbSpline
 70
8
 71
3
 72
8
 73
4
 74
0
 40
0
 40
0
 40
0
 40
0
 40
1
 40
1
 40
1
 40
1
 10
70.276655
 20
610.912769
 30
0.0
 10
70.276655
 20
612.419983
 30
0.0
 10
69.472566
 20
613.812706
 30
0.0
 10
68.167280
 20
614.566313
 30
0.0
  0
SPLINE
  5
280
100
AcDbEntity
  8
holes
 62
7
100
AcDbSpline
 70
8
 71
3
 72
8
 73
4
 74
0
 40
0
 40
0
 40
0
 40
0
 40
1
 40
1
 40
1
 40
1
 10
68.167280
 20
614.566313
 30
0.0
 10
66.861994
 20
615.319920
 30
0.0
 10
65.253816
 20
615.319920
 30
0.0
 10
63.948530
 20
614.566313
 30
0.0
  0
SPLINE
  5
281
100
AcDbEntity
  8
holes
 62
7
100
AcDbSpline
 70
8
 71
3
 72
8
 73
4
 74
0
 40
0
 40
0
 40
0
 40
0
 40
1
 40
1
 40
1
 40
1
 10
63.948530
 20
614.566313
 30
0.0
 10
62.643245
 20
613.812706
 30
0.0
 10
61.839155
 20
612.419983
 30
0.0
 10
61.839155
 20
610.912769
 30
0.0
  0
SPLINE
  5
282
100
AcDbEntity
  8
holes
 62
7
100
AcDbSpline
 70
8
 71
3
 72
8
 73
4
 74
0
 40
0
 40
0
 40
0
 40
0
 40
1
 40
1
 40
1
 40
1
 10
61.839155
 20
610.912769
 30
0.0
 10
61.839155
 20
608.582818
 30
0.0
 10
63.727954
 20
606.694019
 30
0.0
 10
66.057905
 20
606.694019
 30
0.0
  0
SPLINE
  5
283
100
AcDbEntity
  8
holes
 62
7
100
AcDbSpline
 70
8
 71
3
 72
8
 73
4
 74
0
 40
0
 40
0
 40
0
 40
0
 40
1
 40
1
 40
1
 40
1
 10
66.057905
 20
606.694019
 30
0.0
 10
68.387856
 20
606.694019
 30
0.0
 10
70.276655
 20
608.582818
 30
0.0
 10
70.276655
 20
610.912769
 30
0.0
  0
LWPOLYLINE
  5
284
100
AcDbEntity
  8
holes
 62
7
100
AcDbPolyline
 90
1
 70
1
 10
121.437366
 20
593.903857
 30
0.0
  0
SPLINE
  5
285
100
AcDbEntity
  8
holes
 62
7
100
AcDbSpline
 70
8
 71
3
 72
8
 73
4
 74
0
 40
0
 40
0
 40
0
 40
0
 40
1
 40
1
 40
1
 40
1
 10
80.857007
 20
606.359239
 30
0.0
 10
80.857007
 20
608.689190
 30
0.0
 10
78.968208
 20
610.577989
 30
0.0
 10
76.638257
 20
610.577989
 30
0.0
  0
SPLINE
  5
286
100
AcDbEntity
  8
holes
 62
7
100
AcDbSpline
 70
8
 71
3
 72
8
 73
4
 74
0
 40
0
 40
0
 40
0
 40
0
 40
1
 40
1
 40
1
 40
1
 10
76.638257
 20
610.577989
 30
0.0
 10
74.308306
 20
610.577989
 30
0.0
 10
72.419507
 20
608.689190
 30
0.0
 10
72.419507
 20
606.359239
 30
0.0
  0
SPLINE
  5
287
100
AcDbEntity
  8
holes
 62
7
100
AcDbSpline
 70
8
 71
3
 72
8
 73
4
 74
0
 40
0
 40
0
 40
0
 40
0
 40
1
 40
1
 40
1
 40
1
 10
72.419507
 20
606.359239
 30
0.0
 10
72.419507
 20
604.029288
 30
0.0
 10
74.308306
 20
602.140490
 30
0.0
 10
76.638257
 20
602.140490
 30
0.0
  0
SPLINE
  5
288
100
AcDbEntity
  8
holes
 62
7
100
AcDbSpline
 70
8
 71
3
 72
8
 73
4
 74
0
 40
0
 40
0
 40
0
 40
0
 40
1
 40
1
 40
1
 40
1
 10
76.638257
 20
602.140490
 30
0.0
 10
78.968208
 20
602.140490
 30
0.0
 10
80.857007
 20
604.029288
 30
0.0
 10
80.857007
 20
606.359239
 30
0.0
  0
LWPOLYLINE
  5
289
100
AcDbEntity
  8
holes
 62
7
100
AcDbPolyline
 90
1
 70
1
 10
70.276655
 20
610.912769
 30
0.0
  0
SPLINE
  5
28a
100
AcDbEntity
  8
holes
 62
7
100
AcDbSpline
 70
8
 71
3
 72
8
 73
4
 74
0
 40
0
 40
0
 40
0
 40
0
 40
1
 40
1
 40
1
 40
1
 10
91.973073
 20
599.930680
 30
0.0
 10
91.973073
 20
601.437894
 30
0.0
 10
91.168984
 20
602.830617
 30
0.0
 10
89.863698
 20
603.584224
 30
0.0
  0
SPLINE
  5
28b
100
AcDbEntity
  8
holes
 62
7
100
AcDbSpline
 70
8
 71
3
 72
8
 73
4
 74
0
 40
0
 40
0
 40
0
 40
0
 40
1
 40
1
 40
1
 40
1
 10
89.863698
 20
603.584224
 30
0.0
 10
88.558412
 20
604.337831
 30
0.0
 10
86.950234
 20
604.337831
 30
0.0
 10
85.644948
 20
603.584224
 30
0.0
  0
SPLINE
  5
28c
100
AcDbEntity
  8
holes
 62
7
100
AcDbSpline
 70
8
 71
3
 72
8
 73
4
 74
0
 40
0
 40
0
 40
0
 40
0
 40
1
 40
1
 40
1
 40
1
 10
85.644948
 20
603.584224
 30
0.0
 10
84.339662
 20
602.830617
 30
0.0
 10
83.535573
 20
601.437894
 30
0.0
 10
83.535573
 20
599.930680
 30
0.0
  0
SPLINE
  5
28d
100
AcDbEntity
  8
holes
 62
7
100
AcDbSpline
 70
8
 71
3
 72
8
 73
4
 74
0
 40
0
 40
0
 40
0
 40
0
 40
1
 40
1
 40
1
 40
1
 10
83.535573
 20
599.930680
 30
0.0
 10
83.535573
 20
598.423466
 30
0.0
 10
84.339662
 20
597.030742
 30
0.0
 10
85.644948
 20
596.277135
 30
0.0
  0
SPLINE
  5
28e
100
AcDbEntity
  8
holes
 62
7
100
AcDbSpline
 70
8
 71
3
 72
8
 73
4
 74
0
 40
0
 40
0
 40
0
 40
0
 40
1
 40
1
 40
1
 40
1
 10
85.644948
 20
596.277135
 30
0.0
 10
86.950234
 20
595.523528
 30
0.0
 10
88.558412
 20
595.523528
 30
0.0
 10
89.863698
 20
596.277135
 30
0.0
  0
SPLINE
  5
28f
100
AcDbEntity
  8
holes
 62
7
100
AcDbSpline
 70
8
 71
3
 72
8
 73
4
 74
0
 40
0
 40
0
 40
0
 40
0
 40
1
 40
1
 40
1
 40
1
 10
89.863698
 20
596.277135
 30
0.0
 10
91.168984
 20
597.030742
 30
0.0
 10
91.973073
 20
598.423466
 30
0.0
 10
91.973073
 20
599.930680
 30
0.0
  0
LWPOLYLINE
  5
290
100
AcDbEntity
  8
holes
 62
7
100
AcDbPolyline
 90
1
 70
1
 10
80.857007
 20
606.359239
 30
0.0
  0
SPLINE
  5
291
100
AcDbEntity
  8
holes
 62
7
100
AcDbSpline
 70
8
 71
3
 72
8
 73
4
 74
0
 40
0
 40
0
 40
0
 40
0
 40
1
 40
1
 40
1
 40
1
 10
102.151667
 20
594.707417
 30
0.0
 10
102.151667
 20
596.214631
 30
0.0
 10
101.347578
 20
597.607354
 30
0.0
 10
100.042292
 20
598.360962
 30
0.0
  0
SPLINE
  5
292
100
AcDbEntity
  8
holes
 62
7
100
AcDbSpline
 70
8
 71
3
 72
8
 73
4
 74
0
 40
0
 40
0
 40
0
 40
0
 40
1
 40
1
 40
1
 40
1
 10
100.042292
 20
598.360962
 30
0.0
 10
98.737007
 20
599.114569
 30
0.0
 10
97.128828
 20
599.114569
 30
0.0
 10
95.823543
 20
598.360962
 30
0.0
  0
SPLINE
  5
293
100
AcDbEntity
  8
holes
 62
7
100
AcDbSpline
 70
8
 71
3
 72
8
 73
4
 74
0
 40
0
 40
0
 40
0
 40
0
 40
1
 40
1
 40
1
 40
1
 10
95.823543
 20
598.360962
 30
0.0
 10
94.518257
 20
597.607354
 30
0.0
 10
93.714168
 20
596.214631
 30
0.0
 10
93.714168
 20
594.707417
 30
0.0
  0
SPLINE
  5
294
100
AcDbEntity
  8
holes
 62
7
100
AcDbSpline
 70
8
 71
3
 72
8
 73
4
 74
0
 40
0
 40
0
 40
0
 40
0
 40
1
 40
1
 40
1
 40
1
 10
93.714168
 20
594.707417
 30
0.0
 10
93.714168
 20
593.200203
 30
0.0
 10
94.518257
 20
591.807480
 30
0.0
 10
95.823543
 20
591.053872
 30
0.0
  0
SPLINE
  5
295
100
AcDbEntity
  8
holes
 62
7
100
AcDbSpline
 70
8
 71
3
 72
8
 73
4
 74
0
 40
0
 40
0
 40
0
 40
0
 40
1
 40
1
 40
1
 40
1
 10
95.823543
 20
591.053872
 30
0.0
 10
97.128828
 20
590.300265
 30
0.0
 10
98.737007
 20
590.300265
 30
0.0
 10
100.042292
 20
591.053872
 30
0.0
  0
SPLINE
  5
296
100
AcDbEntity
  8
holes
 62
7
100
AcDbSpline
 70
8
 71
3
 72
8
 73
4
 74
0
 40
0
 40
0
 40
0
 40
0
 40
1
 40
1
 40
1
 40
1
 10
100.042292
 20
591.053872
 30
0.0
 10
101.347578
 20
591.807480
 30
0.0
 10
102.151667
 20
593.200203
 30
0.0
 10
102.151667
 20
594.707417
 30
0.0
  0
LWPOLYLINE
  5
297
100
AcDbEntity
  8
holes
 62
7
100
AcDbPolyline
 90
1
 70
1
 10
91.973073
 20
599.930680
 30
0.0
  0
SPLINE
  5
298
100
AcDbEntity
  8
holes
 62
7
100
AcDbSpline
 70
8
 71
3
 72
8
 73
4
 74
0
 40
0
 40
0
 40
0
 40
0
 40
1
 40
1
 40
1
 40
1
 10
111.660594
 20
588.948503
 30
0.0
 10
111.660594
 20
591.278454
 30
0.0
 10
109.771795
 20
593.167252
 30
0.0
 10
107.441844
 20
593.167252
 30
0.0
  0
SPLINE
  5
299
100
AcDbEntity
  8
holes
 62
7
100
AcDbSpline
 70
8
 71
3
 72
8
 73
4
 74
0
 40
0
 40
0
 40
0
 40
0
 40
1
 40
1
 40
1
 40
1
 10
107.441844
 20
593.167252
 30
0.0
 10
105.111893
 20
593.167252
 30
0.0
 10
103.223094
 20
591.278454
 30
0.0
 10
103.223094
 20
588.948503
 30
0.0
  0
SPLINE
  5
29a
100
AcDbEntity
  8
holes
 62
7
100
AcDbSpline
 70
8
 71
3
 72
8
 73
4
 74
0
 40
0
 40
0
 40
0
 40
0
 40
1
 40
1
 40
1
 40
1
 10
103.223094
 20
588.948503
 30
0.0
 10
103.223094
 20
586.618552
 30
0.0
 10
105.111893
 20
584.729753
 30
0.0
 10
107.441844
 20
584.729753
 30
0.0
  0
SPLINE
  5
29b
100
AcDbEntity
  8
holes
 62
7
100
AcDbSpline
 70
8
 71
3
 72
8
 73
4
 74
0
 40
0
 40
0
 40
0
 40
0
 40
1
 40
1
 40
1
 40
1
 10
107.441844
 20
584.729753
 30
0.0
 10
109.771795
 20
584.729753
 30
0.0
 10
111.660594
 20
586.618552
 30
0.0
 10
111.660594
 20
588.948503
 30
0.0
  0
LWPOLYLINE
  5
29c
100
AcDbEntity
  8
holes
 62
7
100
AcDbPolyline
 90
1
 70
1
 10
102.151667
 20
594.707417
 30
0.0
  0
SPLINE
  5
29d
100
AcDbEntity
  8
holes
 62
7
100
AcDbSpline
 70
8
 71
3
 72
8
 73
4
 74
0
 40
0
 40
0
 40
0
 40
0
 40
1
 40
1
 40
1
 40
1
 10
72.419505
 20
599.930680
 30
0.0
 10
72.419505
 20
602.260631
 30
0.0
 10
70.530707
 20
604.149429
 30
0.0
 10
68.200756
 20
604.149429
 30
0.0
  0
SPLINE
  5
29e
100
AcDbEntity
  8
holes
 62
7
100
AcDbSpline
 70
8
 71
3
 72
8
 73
4
 74
0
 40
0
 40
0
 40
0
 40
0
 40
1
 40
1
 40
1
 40
1
 10
68.200756
 20
604.149429
 30
0.0
 10
65.870804
 20
604.149429
 30
0.0
 10
63.982006
 20
602.260631
 30
0.0
 10
63.982006
 20
599.930680
 30
0.0
  0
SPLINE
  5
29f
100
AcDbEntity
  8
holes
 62
7
100
AcDbSpline
 70
8
 71
3
 72
8
 73
4
 74
0
 40
0
 40
0
 40
0
 40
0
 40
1
 40
1
 40
1
 40
1
 10
63.982006
 20
599.930680
 30
0.0
 10
63.982006
 20
597.600729
 30
0.0
 10
65.870804
 20
595.711930
 30
0.0
 10
68.200756
 20
595.711930
 30
0.0
  0
SPLINE
  5
2a0
100
AcDbEntity
  8
holes
 62
7
100
AcDbSpline
 70
8
 71
3
 72
8
 73
4
 74
0
 40
0
 40
0
 40
0
 40
0
 40
1
 40
1
 40
1
 40
1
 10
68.200756
 20
595.711930
 30
0.0
 10
70.530707
 20
595.711930
 30
0.0
 10
72.419505
 20
597.600729
 30
0.0
 10
72.419505
 20
599.930680
 30
0.0
  0
LWPOLYLINE
  5
2a1
100
AcDbEntity
  8
holes
 62
7
100
AcDbPolyline
 90
1
 70
1
 10
111.660594
 20
588.948503
 30
0.0
  0
SPLINE
  5
2a2
100
AcDbEntity
  8
holes
 62
7
100
AcDbSpline
 70
8
 71
3
 72
8
 73
4
 74
0
 40
0
 40
0
 40
0
 40
0
 40
1
 40
1
 40
1
 40
1
 10
82.196278
 20
594.573503
 30
0.0
 10
82.196278
 20
596.080717
 30
0.0
 10
81.392189
 20
597.473440
 30
0.0
 10
80.086903
 20
598.227047
 30
0.0
  0
SPLINE
  5
2a3
100
AcDbEntity
  8
holes
 62
7
100
AcDbSpline
 70
8
 71
3
 72
8
 73
4
 74
0
 40
0
 40
0
 40
0
 40
0
 40
1
 40
1
 40
1
 40
1
 10
80.086903
 20
598.227047
 30
0.0
 10
78.781617
 20
598.980654
 30
0.0
 10
77.173439
 20
598.980654
 30
0.0
 10
75.868153
 20
598.227047
 30
0.0
  0
SPLINE
  5
2a4
100
AcDbEntity
  8
holes
 62
7
100
AcDbSpline
 70
8
 71
3
 72
8
 73
4
 74
0
 40
0
 40
0
 40
0
 40
0
 40
1
 40
1
 40
1
 40
1
 10
75.868153
 20
598.227047
 30
0.0
 10
74.562867
 20
597.473440
 30
0.0
 10
73.758778
 20
596.080717
 30
0.0
 10
73.758778
 20
594.573503
 30
0.0
  0
SPLINE
  5
2a5
100
AcDbEntity
  8
holes
 62
7
100
AcDbSpline
 70
8
 71
3
 72
8
 73
4
 74
0
 40
0
 40
0
 40
0
 40
0
 40
1
 40
1
 40
1
 40
1
 10
73.758778
 20
594.573503
 30
0.0
 10
73.758778
 20
593.066289
 30
0.0
 10
74.562867
 20
591.673565
 30
0.0
 10
75.868153
 20
590.919958
 30
0.0
  0
SPLINE
  5
2a6
100
AcDbEntity
  8
holes
 62
7
100
AcDbSpline
 70
8
 71
3
 72
8
 73
4
 74
0
 40
0
 40
0
 40
0
 40
0
 40
1
 40
1
 40
1
 40
1
 10
75.868153
 20
590.919958
 30
0.0
 10
77.173439
 20
590.166351
 30
0.0
 10
78.781617
 20
590.166351
 30
0.0
 10
80.086903
 20
590.919958
 30
0.0
  0
SPLINE
  5
2a7
100
AcDbEntity
  8
holes
 62
7
100
AcDbSpline
 70
8
 71
3
 72
8
 73
4
 74
0
 40
0
 40
0
 40
0
 40
0
 40
1
 40
1
 40
1
 40
1
 10
80.086903
 20
590.919958
 30
0.0
 10
81.392189
 20
591.673565
 30
0.0
 10
82.196278
 20
593.066289
 30
0.0
 10
82.196278
 20
594.573503
 30
0.0
  0
LWPOLYLINE
  5
2a8
100
AcDbEntity
  8
holes
 62
7
100
AcDbPolyline
 90
1
 70
1
 10
72.419505
 20
599.930680
 30
0.0
  0
SPLINE
  5
2a9
100
AcDbEntity
  8
holes
 62
7
100
AcDbSpline
 70
8
 71
3
 72
8
 73
4
 74
0
 40
0
 40
0
 40
0
 40
0
 40
1
 40
1
 40
1
 40
1
 10
92.776655
 20
588.412769
 30
0.0
 10
92.776655
 20
590.742720
 30
0.0
 10
90.887856
 20
592.631518
 30
0.0
 10
88.557905
 20
592.631518
 30
0.0
  0
SPLINE
  5
2aa
100
AcDbEntity
  8
holes
 62
7
100
AcDbSpline
 70
8
 71
3
 72
8
 73
4
 74
0
 40
0
 40
0
 40
0
 40
0
 40
1
 40
1
 40
1
 40
1
 10
88.557905
 20
592.631518
 30
0.0
 10
86.227954
 20
592.631518
 30
0.0
 10
84.339155
 20
590.742720
 30
0.0
 10
84.339155
 20
588.412769
 30
0.0
  0
SPLINE
  5
2ab
100
AcDbEntity
  8
holes
 62
7
100
AcDbSpline
 70
8
 71
3
 72
8
 73
4
 74
0
 40
0
 40
0
 40
0
 40
0
 40
1
 40
1
 40
1
 40
1
 10
84.339155
 20
588.412769
 30
0.0
 10
84.339155
 20
586.082818
 30
0.0
 10
86.227954
 20
584.194019
 30
0.0
 10
88.557905
 20
584.194019
 30
0.0
  0
SPLINE
  5
2ac
100
AcDbEntity
  8
holes
 62
7
100
AcDbSpline
 70
8
 71
3
 72
8
 73
4
 74
0
 40
0
 40
0
 40
0
 40
0
 40
1
 40
1
 40
1
 40
1
 10
88.557905
 20
584.194019
 30
0.0
 10
90.887856
 20
584.194019
 30
0.0
 10
92.776655
 20
586.082818
 30
0.0
 10
92.776655
 20
588.412769
 30
0.0
  0
LWPOLYLINE
  5
2ad
100
AcDbEntity
  8
holes
 62
7
100
AcDbPolyline
 90
1
 70
1
 10
82.196278
 20
594.573503
 30
0.0
  0
SPLINE
  5
2ae
100
AcDbEntity
  8
holes
 62
7
100
AcDbSpline
 70
8
 71
3
 72
8
 73
4
 74
0
 40
0
 40
0
 40
0
 40
0
 40
1
 40
1
 40
1
 40
1
 10
102.419513
 20
583.055680
 30
0.0
 10
102.419513
 20
584.562894
 30
0.0
 10
101.615424
 20
585.955617
 30
0.0
 10
100.310138
 20
586.709224
 30
0.0
  0
SPLINE
  5
2af
100
AcDbEntity
  8
holes
 62
7
100
AcDbSpline
 70
8
 71
3
 72
8
 73
4
 74
0
 40
0
 40
0
 40
0
 40
0
 40
1
 40
1
 40
1
 40
1
 10
100.310138
 20
586.709224
 30
0.0
 10
99.004852
 20
587.462831
 30
0.0
 10
97.396674
 20
587.462831
 30
0.0
 10
96.091388
 20
586.709224
 30
0.0
  0
SPLINE
  5
2b0
100
AcDbEntity
  8
holes
 62
7
100
AcDbSpline
 70
8
 71
3
 72
8
 73
4
 74
0
 40
0
 40
0
 40
0
 40
0
 40
1
 40
1
 40
1
 40
1
 10
96.091388
 20
586.709224
 30
0.0
 10
94.786102
 20
585.955617
 30
0.0
 10
93.982013
 20
584.562894
 30
0.0
 10
93.982013
 20
583.055680
 30
0.0
  0
SPLINE
  5
2b1
100
AcDbEntity
  8
holes
 62
7
100
AcDbSpline
 70
8
 71
3
 72
8
 73
4
 74
0
 40
0
 40
0
 40
0
 40
0
 40
1
 40
1
 40
1
 40
1
 10
93.982013
 20
583.055680
 30
0.0
 10
93.982013
 20
581.548466
 30
0.0
 10
94.786102
 20
580.155742
 30
0.0
 10
96.091388
 20
579.402135
 30
0.0
  0
SPLINE
  5
2b2
100
AcDbEntity
  8
holes
 62
7
100
AcDbSpline
 70
8
 71
3
 72
8
 73
4
 74
0
 40
0
 40
0
 40
0
 40
0
 40
1
 40
1
 40
1
 40
1
 10
96.091388
 20
579.402135
 30
0.0
 10
97.396674
 20
578.648528
 30
0.0
 10
99.004852
 20
578.648528
 30
0.0
 10
100.310138
 20
579.402135
 30
0.0
  0
SPLINE
  5
2b3
100
AcDbEntity
  8
holes
 62
7
100
AcDbSpline
 70
8
 71
3
 72
8
 73
4
 74
0
 40
0
 40
0
 40
0
 40
0
 40
1
 40
1
 40
1
 40
1
 10
100.310138
 20
579.402135
 30
0.0
 10
101.615424
 20
580.155742
 30
0.0
 10
102.419513
 20
581.548466
 30
0.0
 10
102.419513
 20
583.055680
 30
0.0
  0
LWPOLYLINE
  5
2b4
100
AcDbEntity
  8
holes
 62
7
100
AcDbPolyline
 90
1
 70
1
 10
92.776655
 20
588.412769
 30
0.0
  0
SPLINE
  5
2b5
100
AcDbEntity
  8
holes
 62
7
100
AcDbSpline
 70
8
 71
3
 72
8
 73
4
 74
0
 40
0
 40
0
 40
0
 40
0
 40
1
 40
1
 40
1
 40
1
 10
215.790017
 20
636.158290
 30
0.0
 10
215.790017
 20
637.665505
 30
0.0
 10
216.594107
 20
639.058228
 30
0.0
 10
217.899392
 20
639.811835
 30
0.0
  0
SPLINE
  5
2b6
100
AcDbEntity
  8
holes
 62
7
100
AcDbSpline
 70
8
 71
3
 72
8
 73
4
 74
0
 40
0
 40
0
 40
0
 40
0
 40
1
 40
1
 40
1
 40
1
 10
217.899392
 20
639.811835
 30
0.0
 10
219.204678
 20
640.565442
 30
0.0
 10
220.812856
 20
640.565442
 30
0.0
 10
222.118142
 20
639.811835
 30
0.0
  0
SPLINE
  5
2b7
100
AcDbEntity
  8
holes
 62
7
100
AcDbSpline
 70
8
 71
3
 72
8
 73
4
 74
0
 40
0
 40
0
 40
0
 40
0
 40
1
 40
1
 40
1
 40
1
 10
222.118142
 20
639.811835
 30
0.0
 10
223.423428
 20
639.058228
 30
0.0
 10
224.227517
 20
637.665505
 30
0.0
 10
224.227517
 20
636.158290
 30
0.0
  0
SPLINE
  5
2b8
100
AcDbEntity
  8
holes
 62
7
100
AcDbSpline
 70
8
 71
3
 72
8
 73
4
 74
0
 40
0
 40
0
 40
0
 40
0
 40
1
 40
1
 40
1
 40
1
 10
224.227517
 20
636.158290
 30
0.0
 10
224.227517
 20
634.651076
 30
0.0
 10
223.423428
 20
633.258353
 30
0.0
 10
222.118142
 20
632.504746
 30
0.0
  0
SPLINE
  5
2b9
100
AcDbEntity
  8
holes
 62
7
100
AcDbSpline
 70
8
 71
3
 72
8
 73
4
 74
0
 40
0
 40
0
 40
0
 40
0
 40
1
 40
1
 40
1
 40
1
 10
222.118142
 20
632.504746
 30
0.0
 10
220.812856
 20
631.751139
 30
0.0
 10
219.204678
 20
631.751139
 30
0.0
 10
217.899392
 20
632.504746
 30
0.0
  0
SPLINE
  5
2ba
100
AcDbEntity
  8
holes
 62
7
100
AcDbSpline
 70
8
 71
3
 72
8
 73
4
 74
0
 40
0
 40
0
 40
0
 40
0
 40
1
 40
1
 40
1
 40
1
 10
217.899392
 20
632.504746
 30
0.0
 10
216.594107
 20
633.258353
 30
0.0
 10
215.790017
 20
634.651076
 30
0.0
 10
215.790017
 20
636.158290
 30
0.0
  0
LWPOLYLINE
  5
2bb
100
AcDbEntity
  8
holes
 62
7
100
AcDbPolyline
 90
1
 70
1
 10
102.419513
 20
583.055680
 30
0.0
  0
SPLINE
  5
2bc
100
AcDbEntity
  8
holes
 62
7
100
AcDbSpline
 70
8
 71
3
 72
8
 73
4
 74
0
 40
0
 40
0
 40
0
 40
0
 40
1
 40
1
 40
1
 40
1
 10
154.383808
 20
601.269888
 30
0.0
 10
154.383808
 20
602.777102
 30
0.0
 10
155.187897
 20
604.169826
 30
0.0
 10
156.493183
 20
604.923433
 30
0.0
  0
SPLINE
  5
2bd
100
AcDbEntity
  8
holes
 62
7
100
AcDbSpline
 70
8
 71
3
 72
8
 73
4
 74
0
 40
0
 40
0
 40
0
 40
0
 40
1
 40
1
 40
1
 40
1
 10
156.493183
 20
604.923433
 30
0.0
 10
157.798469
 20
605.677040
 30
0.0
 10
159.406647
 20
605.677040
 30
0.0
 10
160.711933
 20
604.923433
 30
0.0
  0
SPLINE
  5
2be
100
AcDbEntity
  8
holes
 62
7
100
AcDbSpline
 70
8
 71
3
 72
8
 73
4
 74
0
 40
0
 40
0
 40
0
 40
0
 40
1
 40
1
 40
1
 40
1
 10
160.711933
 20
604.923433
 30
0.0
 10
162.017219
 20
604.169826
 30
0.0
 10
162.821308
 20
602.777102
 30
0.0
 10
162.821308
 20
601.269888
 30
0.0
  0
SPLINE
  5
2bf
100
AcDbEntity
  8
holes
 62
7
100
AcDbSpline
 70
8
 71
3
 72
8
 73
4
 74
0
 40
0
 40
0
 40
0
 40
0
 40
1
 40
1
 40
1
 40
1
 10
162.821308
 20
601.269888
 30
0.0
 10
162.821308
 20
599.762674
 30
0.0
 10
162.017219
 20
598.369951
 30
0.0
 10
160.711933
 20
597.616344
 30
0.0
  0
SPLINE
  5
2c0
100
AcDbEntity
  8
holes
 62
7
100
AcDbSpline
 70
8
 71
3
 72
8
 73
4
 74
0
 40
0
 40
0
 40
0
 40
0
 40
1
 40
1
 40
1
 40
1
 10
160.711933
 20
597.616344
 30
0.0
 10
159.406647
 20
596.862737
 30
0.0
 10
157.798469
 20
596.862737
 30
0.0
 10
156.493183
 20
597.616344
 30
0.0
  0
SPLINE
  5
2c1
100
AcDbEntity
  8
holes
 62
7
100
AcDbSpline
 70
8
 71
3
 72
8
 73
4
 74
0
 40
0
 40
0
 40
0
 40
0
 40
1
 40
1
 40
1
 40
1
 10
156.493183
 20
597.616344
 30
0.0
 10
155.187897
 20
598.369951
 30
0.0
 10
154.383808
 20
599.762674
 30
0.0
 10
154.383808
 20
601.269888
 30
0.0
  0
LWPOLYLINE
  5
2c2
100
AcDbEntity
  8
holes
 62
7
100
AcDbPolyline
 90
1
 70
1
 10
215.790017
 20
636.158290
 30
0.0
  0
SPLINE
  5
2c3
100
AcDbEntity
  8
holes
 62
7
100
AcDbSpline
 70
8
 71
3
 72
8
 73
4
 74
0
 40
0
 40
0
 40
0
 40
0
 40
1
 40
1
 40
1
 40
1
 10
206.080225
 20
630.332337
 30
0.0
 10
206.080225
 20
631.839551
 30
0.0
 10
206.884314
 20
633.232274
 30
0.0
 10
208.189600
 20
633.985881
 30
0.0
  0
SPLINE
  5
2c4
100
AcDbEntity
  8
holes
 62
7
100
AcDbSpline
 70
8
 71
3
 72
8
 73
4
 74
0
 40
0
 40
0
 40
0
 40
0
 40
1
 40
1
 40
1
 40
1
 10
208.189600
 20
633.985881
 30
0.0
 10
209.494886
 20
634.739488
 30
0.0
 10
211.103064
 20
634.739488
 30
0.0
 10
212.408350
 20
633.985881
 30
0.0
  0
SPLINE
  5
2c5
100
AcDbEntity
  8
holes
 62
7
100
AcDbSpline
 70
8
 71
3
 72
8
 73
4
 74
0
 40
0
 40
0
 40
0
 40
0
 40
1
 40
1
 40
1
 40
1
 10
212.408350
 20
633.985881
 30
0.0
 10
213.713635
 20
633.232274
 30
0.0
 10
214.517725
 20
631.839551
 30
0.0
 10
214.517725
 20
630.332337
 30
0.0
  0
SPLINE
  5
2c6
100
AcDbEntity
  8
holes
 62
7
100
AcDbSpline
 70
8
 71
3
 72
8
 73
4
 74
0
 40
0
 40
0
 40
0
 40
0
 40
1
 40
1
 40
1
 40
1
 10
214.517725
 20
630.332337
 30
0.0
 10
214.517725
 20
628.825123
 30
0.0
 10
213.713635
 20
627.432399
 30
0.0
 10
212.408350
 20
626.678792
 30
0.0
  0
SPLINE
  5
2c7
100
AcDbEntity
  8
holes
 62
7
100
AcDbSpline
 70
8
 71
3
 72
8
 73
4
 74
0
 40
0
 40
0
 40
0
 40
0
 40
1
 40
1
 40
1
 40
1
 10
212.408350
 20
626.678792
 30
0.0
 10
211.103064
 20
625.925185
 30
0.0
 10
209.494886
 20
625.925185
 30
0.0
 10
208.189600
 20
626.678792
 30
0.0
  0
SPLINE
  5
2c8
100
AcDbEntity
  8
holes
 62
7
100
AcDbSpline
 70
8
 71
3
 72
8
 73
4
 74
0
 40
0
 40
0
 40
0
 40
0
 40
1
 40
1
 40
1
 40
1
 10
208.189600
 20
626.678792
 30
0.0
 10
206.884314
 20
627.432399
 30
0.0
 10
206.080225
 20
628.825123
 30
0.0
 10
206.080225
 20
630.332337
 30
0.0
  0
LWPOLYLINE
  5
2c9
100
AcDbEntity
  8
holes
 62
7
100
AcDbPolyline
 90
1
 70
1
 10
154.383808
 20
601.269888
 30
0.0
  0
SPLINE
  5
2ca
100
AcDbEntity
  8
holes
 62
7
100
AcDbSpline
 70
8
 71
3
 72
8
 73
4
 74
0
 40
0
 40
0
 40
0
 40
0
 40
1
 40
1
 40
1
 40
1
 10
195.365916
 20
624.305599
 30
0.0
 10
195.365916
 20
625.812814
 30
0.0
 10
196.170005
 20
627.205537
 30
0.0
 10
197.475291
 20
627.959144
 30
0.0
  0
SPLINE
  5
2cb
100
AcDbEntity
  8
holes
 62
7
100
AcDbSpline
 70
8
 71
3
 72
8
 73
4
 74
0
 40
0
 40
0
 40
0
 40
0
 40
1
 40
1
 40
1
 40
1
 10
197.475291
 20
627.959144
 30
0.0
 10
198.780577
 20
628.712751
 30
0.0
 10
200.388755
 20
628.712751
 30
0.0
 10
201.694041
 20
627.959144
 30
0.0
  0
SPLINE
  5
2cc
100
AcDbEntity
  8
holes
 62
7
100
AcDbSpline
 70
8
 71
3
 72
8
 73
4
 74
0
 40
0
 40
0
 40
0
 40
0
 40
1
 40
1
 40
1
 40
1
 10
201.694041
 20
627.959144
 30
0.0
 10
202.999327
 20
627.205537
 30
0.0
 10
203.803416
 20
625.812814
 30
0.0
 10
203.803416
 20
624.305599
 30
0.0
  0
SPLINE
  5
2cd
100
AcDbEntity
  8
holes
 62
7
100
AcDbSpline
 70
8
 71
3
 72
8
 73
4
 74
0
 40
0
 40
0
 40
0
 40
0
 40
1
 40
1
 40
1
 40
1
 10
203.803416
 20
624.305599
 30
0.0
 10
203.803416
 20
622.798385
 30
0.0
 10
202.999327
 20
621.405662
 30
0.0
 10
201.694041
 20
620.652055
 30
0.0
  0
SPLINE
  5
2ce
100
AcDbEntity
  8
holes
 62
7
100
AcDbSpline
 70
8
 71
3
 72
8
 73
4
 74
0
 40
0
 40
0
 40
0
 40
0
 40
1
 40
1
 40
1
 40
1
 10
201.694041
 20
620.652055
 30
0.0
 10
200.388755
 20
619.898448
 30
0.0
 10
198.780577
 20
619.898448
 30
0.0
 10
197.475291
 20
620.652055
 30
0.0
  0
SPLINE
  5
2cf
100
AcDbEntity
  8
holes
 62
7
100
AcDbSpline
 70
8
 71
3
 72
8
 73
4
 74
0
 40
0
 40
0
 40
0
 40
0
 40
1
 40
1
 40
1
 40
1
 10
197.475291
 20
620.652055
 30
0.0
 10
196.170005
 20
621.405662
 30
0.0
 10
195.365916
 20
622.798385
 30
0.0
 10
195.365916
 20
624.305599
 30
0.0
  0
LWPOLYLINE
  5
2d0
100
AcDbEntity
  8
holes
 62
7
100
AcDbPolyline
 90
1
 70
1
 10
206.080225
 20
630.332337
 30
0.0
  0
SPLINE
  5
2d1
100
AcDbEntity
  8
holes
 62
7
100
AcDbSpline
 70
8
 71
3
 72
8
 73
4
 74
0
 40
0
 40
0
 40
0
 40
0
 40
1
 40
1
 40
1
 40
1
 10
184.517716
 20
618.144888
 30
0.0
 10
184.517716
 20
619.652102
 30
0.0
 10
185.321805
 20
621.044826
 30
0.0
 10
186.627091
 20
621.798433
 30
0.0
  0
SPLINE
  5
2d2
100
AcDbEntity
  8
holes
 62
7
100
AcDbSpline
 70
8
 71
3
 72
8
 73
4
 74
0
 40
0
 40
0
 40
0
 40
0
 40
1
 40
1
 40
1
 40
1
 10
186.627091
 20
621.798433
 30
0.0
 10
187.932377
 20
622.552040
 30
0.0
 10
189.540555
 20
622.552040
 30
0.0
 10
190.845841
 20
621.798433
 30
0.0
  0
SPLINE
  5
2d3
100
AcDbEntity
  8
holes
 62
7
100
AcDbSpline
 70
8
 71
3
 72
8
 73
4
 74
0
 40
0
 40
0
 40
0
 40
0
 40
1
 40
1
 40
1
 40
1
 10
190.845841
 20
621.798433
 30
0.0
 10
192.151127
 20
621.044826
 30
0.0
 10
192.955216
 20
619.652102
 30
0.0
 10
192.955216
 20
618.144888
 30
0.0
  0
SPLINE
  5
2d4
100
AcDbEntity
  8
holes
 62
7
100
AcDbSpline
 70
8
 71
3
 72
8
 73
4
 74
0
 40
0
 40
0
 40
0
 40
0
 40
1
 40
1
 40
1
 40
1
 10
192.955216
 20
618.144888
 30
0.0
 10
192.955216
 20
616.637674
 30
0.0
 10
192.151127
 20
615.244951
 30
0.0
 10
190.845841
 20
614.491344
 30
0.0
  0
SPLINE
  5
2d5
100
AcDbEntity
  8
holes
 62
7
100
AcDbSpline
 70
8
 71
3
 72
8
 73
4
 74
0
 40
0
 40
0
 40
0
 40
0
 40
1
 40
1
 40
1
 40
1
 10
190.845841
 20
614.491344
 30
0.0
 10
189.540555
 20
613.737737
 30
0.0
 10
187.932377
 20
613.737737
 30
0.0
 10
186.627091
 20
614.491344
 30
0.0
  0
SPLINE
  5
2d6
100
AcDbEntity
  8
holes
 62
7
100
AcDbSpline
 70
8
 71
3
 72
8
 73
4
 74
0
 40
0
 40
0
 40
0
 40
0
 40
1
 40
1
 40
1
 40
1
 10
186.627091
 20
614.491344
 30
0.0
 10
185.321805
 20
615.244951
 30
0.0
 10
184.517716
 20
616.637674
 30
0.0
 10
184.517716
 20
618.144888
 30
0.0
  0
LWPOLYLINE
  5
2d7
100
AcDbEntity
  8
holes
 62
7
100
AcDbPolyline
 90
1
 70
1
 10
195.365916
 20
624.305599
 30
0.0
  0
SPLINE
  5
2d8
100
AcDbEntity
  8
holes
 62
7
100
AcDbSpline
 70
8
 71
3
 72
8
 73
4
 74
0
 40
0
 40
0
 40
0
 40
0
 40
1
 40
1
 40
1
 40
1
 10
174.740955
 20
612.653800
 30
0.0
 10
174.740955
 20
614.161014
 30
0.0
 10
175.545044
 20
615.553737
 30
0.0
 10
176.850330
 20
616.307344
 30
0.0
  0
SPLINE
  5
2d9
100
AcDbEntity
  8
holes
 62
7
100
AcDbSpline
 70
8
 71
3
 72
8
 73
4
 74
0
 40
0
 40
0
 40
0
 40
0
 40
1
 40
1
 40
1
 40
1
 10
176.850330
 20
616.307344
 30
0.0
 10
178.155616
 20
617.060951
 30
0.0
 10
179.763794
 20
617.060951
 30
0.0
 10
181.069080
 20
616.307344
 30
0.0
  0
SPLINE
  5
2da
100
AcDbEntity
  8
holes
 62
7
100
AcDbSpline
 70
8
 71
3
 72
8
 73
4
 74
0
 40
0
 40
0
 40
0
 40
0
 40
1
 40
1
 40
1
 40
1
 10
181.069080
 20
616.307344
 30
0.0
 10
182.374366
 20
615.553737
 30
0.0
 10
183.178455
 20
614.161014
 30
0.0
 10
183.178455
 20
612.653800
 30
0.0
  0
SPLINE
  5
2db
100
AcDbEntity
  8
holes
 62
7
100
AcDbSpline
 70
8
 71
3
 72
8
 73
4
 74
0
 40
0
 40
0
 40
0
 40
0
 40
1
 40
1
 40
1
 40
1
 10
183.178455
 20
612.653800
 30
0.0
 10
183.178455
 20
611.146586
 30
0.0
 10
182.374366
 20
609.753862
 30
0.0
 10
181.069080
 20
609.000255
 30
0.0
  0
SPLINE
  5
2dc
100
AcDbEntity
  8
holes
 62
7
100
AcDbSpline
 70
8
 71
3
 72
8
 73
4
 74
0
 40
0
 40
0
 40
0
 40
0
 40
1
 40
1
 40
1
 40
1
 10
181.069080
 20
609.000255
 30
0.0
 10
179.763794
 20
608.246648
 30
0.0
 10
178.155616
 20
608.246648
 30
0.0
 10
176.850330
 20
609.000255
 30
0.0
  0
SPLINE
  5
2dd
100
AcDbEntity
  8
holes
 62
7
100
AcDbSpline
 70
8
 71
3
 72
8
 73
4
 74
0
 40
0
 40
0
 40
0
 40
0
 40
1
 40
1
 40
1
 40
1
 10
176.850330
 20
609.000255
 30
0.0
 10
175.545044
 20
609.753862
 30
0.0
 10
174.740955
 20
611.146586
 30
0.0
 10
174.740955
 20
612.653800
 30
0.0
  0
LWPOLYLINE
  5
2de
100
AcDbEntity
  8
holes
 62
7
100
AcDbPolyline
 90
1
 70
1
 10
184.517716
 20
618.144888
 30
0.0
  0
SPLINE
  5
2df
100
AcDbEntity
  8
holes
 62
7
100
AcDbSpline
 70
8
 71
3
 72
8
 73
4
 74
0
 40
0
 40
0
 40
0
 40
0
 40
1
 40
1
 40
1
 40
1
 10
164.696272
 20
606.627062
 30
0.0
 10
164.696272
 20
608.134277
 30
0.0
 10
165.500361
 20
609.527000
 30
0.0
 10
166.805647
 20
610.280607
 30
0.0
  0
SPLINE
  5
2e0
100
AcDbEntity
  8
holes
 62
7
100
AcDbSpline
 70
8
 71
3
 72
8
 73
4
 74
0
 40
0
 40
0
 40
0
 40
0
 40
1
 40
1
 40
1
 40
1
 10
166.805647
 20
610.280607
 30
0.0
 10
168.110933
 20
611.034214
 30
0.0
 10
169.719111
 20
611.034214
 30
0.0
 10
171.024397
 20
610.280607
 30
0.0
  0
SPLINE
  5
2e1
100
AcDbEntity
  8
holes
 62
7
100
AcDbSpline
 70
8
 71
3
 72
8
 73
4
 74
0
 40
0
 40
0
 40
0
 40
0
 40
1
 40
1
 40
1
 40
1
 10
171.024397
 20
610.280607
 30
0.0
 10
172.329682
 20
609.527000
 30
0.0
 10
173.133772
 20
608.134277
 30
0.0
 10
173.133772
 20
606.627062
 30
0.0
  0
SPLINE
  5
2e2
100
AcDbEntity
  8
holes
 62
7
100
AcDbSpline
 70
8
 71
3
 72
8
 73
4
 74
0
 40
0
 40
0
 40
0
 40
0
 40
1
 40
1
 40
1
 40
1
 10
173.133772
 20
606.627062
 30
0.0
 10
173.133772
 20
605.119848
 30
0.0
 10
172.329682
 20
603.727125
 30
0.0
 10
171.024397
 20
602.973518
 30
0.0
  0
SPLINE
  5
2e3
100
AcDbEntity
  8
holes
 62
7
100
AcDbSpline
 70
8
 71
3
 72
8
 73
4
 74
0
 40
0
 40
0
 40
0
 40
0
 40
1
 40
1
 40
1
 40
1
 10
171.024397
 20
602.973518
 30
0.0
 10
169.719111
 20
602.219911
 30
0.0
 10
168.110933
 20
602.219911
 30
0.0
 10
166.805647
 20
602.973518
 30
0.0
  0
SPLINE
  5
2e4
100
AcDbEntity
  8
holes
 62
7
100
AcDbSpline
 70
8
 71
3
 72
8
 73
4
 74
0
 40
0
 40
0
 40
0
 40
0
 40
1
 40
1
 40
1
 40
1
 10
166.805647
 20
602.973518
 30
0.0
 10
165.500361
 20
603.727125
 30
0.0
 10
164.696272
 20
605.119848
 30
0.0
 10
164.696272
 20
606.627062
 30
0.0
  0
LWPOLYLINE
  5
2e5
100
AcDbEntity
  8
holes
 62
7
100
AcDbPolyline
 90
1
 70
1
 10
174.740955
 20
612.653800
 30
0.0
  0
SPLINE
  5
2e6
100
AcDbEntity
  8
holes
 62
7
100
AcDbSpline
 70
8
 71
3
 72
8
 73
4
 74
0
 40
0
 40
0
 40
0
 40
0
 40
1
 40
1
 40
1
 40
1
 10
216.392708
 20
624.171711
 30
0.0
 10
216.392708
 20
625.678925
 30
0.0
 10
217.196798
 20
627.071648
 30
0.0
 10
218.502083
 20
627.825255
 30
0.0
  0
SPLINE
  5
2e7
100
AcDbEntity
  8
holes
 62
7
100
AcDbSpline
 70
8
 71
3
 72
8
 73
4
 74
0
 40
0
 40
0
 40
0
 40
0
 40
1
 40
1
 40
1
 40
1
 10
218.502083
 20
627.825255
 30
0.0
 10
219.807369
 20
628.578862
 30
0.0
 10
221.415547
 20
628.578862
 30
0.0
 10
222.720833
 20
627.825255
 30
0.0
  0
SPLINE
  5
2e8
100
AcDbEntity
  8
holes
 62
7
100
AcDbSpline
 70
8
 71
3
 72
8
 73
4
 74
0
 40
0
 40
0
 40
0
 40
0
 40
1
 40
1
 40
1
 40
1
 10
222.720833
 20
627.825255
 30
0.0
 10
224.026119
 20
627.071648
 30
0.0
 10
224.830208
 20
625.678925
 30
0.0
 10
224.830208
 20
624.171711
 30
0.0
  0
SPLINE
  5
2e9
100
AcDbEntity
  8
holes
 62
7
100
AcDbSpline
 70
8
 71
3
 72
8
 73
4
 74
0
 40
0
 40
0
 40
0
 40
0
 40
1
 40
1
 40
1
 40
1
 10
224.830208
 20
624.171711
 30
0.0
 10
224.830208
 20
622.664496
 30
0.0
 10
224.026119
 20
621.271773
 30
0.0
 10
222.720833
 20
620.518166
 30
0.0
  0
SPLINE
  5
2ea
100
AcDbEntity
  8
holes
 62
7
100
AcDbSpline
 70
8
 71
3
 72
8
 73
4
 74
0
 40
0
 40
0
 40
0
 40
0
 40
1
 40
1
 40
1
 40
1
 10
222.720833
 20
620.518166
 30
0.0
 10
221.415547
 20
619.764559
 30
0.0
 10
219.807369
 20
619.764559
 30
0.0
 10
218.502083
 20
620.518166
 30
0.0
  0
SPLINE
  5
2eb
100
AcDbEntity
  8
holes
 62
7
100
AcDbSpline
 70
8
 71
3
 72
8
 73
4
 74
0
 40
0
 40
0
 40
0
 40
0
 40
1
 40
1
 40
1
 40
1
 10
218.502083
 20
620.518166
 30
0.0
 10
217.196798
 20
621.271773
 30
0.0
 10
216.392708
 20
622.664496
 30
0.0
 10
216.392708
 20
624.171711
 30
0.0
  0
LWPOLYLINE
  5
2ec
100
AcDbEntity
  8
holes
 62
7
100
AcDbPolyline
 90
1
 70
1
 10
164.696272
 20
606.627062
 30
0.0
  0
SPLINE
  5
2ed
100
AcDbEntity
  8
holes
 62
7
100
AcDbSpline
 70
8
 71
3
 72
8
 73
4
 74
0
 40
0
 40
0
 40
0
 40
0
 40
1
 40
1
 40
1
 40
1
 10
205.678445
 20
618.278800
 30
0.0
 10
205.678445
 20
619.786014
 30
0.0
 10
206.482534
 20
621.178737
 30
0.0
 10
207.787820
 20
621.932344
 30
0.0
  0
SPLINE
  5
2ee
100
AcDbEntity
  8
holes
 62
7
100
AcDbSpline
 70
8
 71
3
 72
8
 73
4
 74
0
 40
0
 40
0
 40
0
 40
0
 40
1
 40
1
 40
1
 40
1
 10
207.787820
 20
621.932344
 30
0.0
 10
209.093106
 20
622.685951
 30
0.0
 10
210.701284
 20
622.685951
 30
0.0
 10
212.006570
 20
621.932344
 30
0.0
  0
SPLINE
  5
2ef
100
AcDbEntity
  8
holes
 62
7
100
AcDbSpline
 70
8
 71
3
 72
8
 73
4
 74
0
 40
0
 40
0
 40
0
 40
0
 40
1
 40
1
 40
1
 40
1
 10
212.006570
 20
621.932344
 30
0.0
 10
213.311856
 20
621.178737
 30
0.0
 10
214.115945
 20
619.786014
 30
0.0
 10
214.115945
 20
618.278800
 30
0.0
  0
SPLINE
  5
2f0
100
AcDbEntity
  8
holes
 62
7
100
AcDbSpline
 70
8
 71
3
 72
8
 73
4
 74
0
 40
0
 40
0
 40
0
 40
0
 40
1
 40
1
 40
1
 40
1
 10
214.115945
 20
618.278800
 30
0.0
 10
214.115945
 20
616.771586
 30
0.0
 10
213.311856
 20
615.378862
 30
0.0
 10
212.006570
 20
614.625255
 30
0.0
  0
SPLINE
  5
2f1
100
AcDbEntity
  8
holes
 62
7
100
AcDbSpline
 70
8
 71
3
 72
8
 73
4
 74
0
 40
0
 40
0
 40
0
 40
0
 40
1
 40
1
 40
1
 40
1
 10
212.006570
 20
614.625255
 30
0.0
 10
210.701284
 20
613.871648
 30
0.0
 10
209.093106
 20
613.871648
 30
0.0
 10
207.787820
 20
614.625255
 30
0.0
  0
SPLINE
  5
2f2
100
AcDbEntity
  8
holes
 62
7
100
AcDbSpline
 70
8
 71
3
 72
8
 73
4
 74
0
 40
0
 40
0
 40
0
 40
0
 40
1
 40
1
 40
1
 40
1
 10
207.787820
 20
614.625255
 30
0.0
 10
206.482534
 20
615.378862
 30
0.0
 10
205.678445
 20
616.771586
 30
0.0
 10
205.678445
 20
618.278800
 30
0.0
  0
LWPOLYLINE
  5
2f3
100
AcDbEntity
  8
holes
 62
7
100
AcDbPolyline
 90
1
 70
1
 10
216.392708
 20
624.171711
 30
0.0
  0
SPLINE
  5
2f4
100
AcDbEntity
  8
holes
 62
7
100
AcDbSpline
 70
8
 71
3
 72
8
 73
4
 74
0
 40
0
 40
0
 40
0
 40
0
 40
1
 40
1
 40
1
 40
1
 10
194.294511
 20
612.118151
 30
0.0
 10
194.294511
 20
613.625365
 30
0.0
 10
195.098600
 20
615.018088
 30
0.0
 10
196.403886
 20
615.771695
 30
0.0
  0
SPLINE
  5
2f5
100
AcDbEntity
  8
holes
 62
7
100
AcDbSpline
 70
8
 71
3
 72
8
 73
4
 74
0
 40
0
 40
0
 40
0
 40
0
 40
1
 40
1
 40
1
 40
1
 10
196.403886
 20
615.771695
 30
0.0
 10
197.709172
 20
616.525303
 30
0.0
 10
199.317350
 20
616.525303
 30
0.0
 10
200.622636
 20
615.771695
 30
0.0
  0
SPLINE
  5
2f6
100
AcDbEntity
  8
holes
 62
7
100
AcDbSpline
 70
8
 71
3
 72
8
 73
4
 74
0
 40
0
 40
0
 40
0
 40
0
 40
1
 40
1
 40
1
 40
1
 10
200.622636
 20
615.771695
 30
0.0
 10
201.927921
 20
615.018088
 30
0.0
 10
202.732011
 20
613.625365
 30
0.0
 10
202.732011
 20
612.118151
 30
0.0
  0
SPLINE
  5
2f7
100
AcDbEntity
  8
holes
 62
7
100
AcDbSpline
 70
8
 71
3
 72
8
 73
4
 74
0
 40
0
 40
0
 40
0
 40
0
 40
1
 40
1
 40
1
 40
1
 10
202.732011
 20
612.118151
 30
0.0
 10
202.732011
 20
610.610937
 30
0.0
 10
201.927921
 20
609.218213
 30
0.0
 10
200.622636
 20
608.464606
 30
0.0
  0
SPLINE
  5
2f8
100
AcDbEntity
  8
holes
 62
7
100
AcDbSpline
 70
8
 71
3
 72
8
 73
4
 74
0
 40
0
 40
0
 40
0
 40
0
 40
1
 40
1
 40
1
 40
1
 10
200.622636
 20
608.464606
 30
0.0
 10
199.317350
 20
607.710999
 30
0.0
 10
197.709172
 20
607.710999
 30
0.0
 10
196.403886
 20
608.464606
 30
0.0
  0
SPLINE
  5
2f9
100
AcDbEntity
  8
holes
 62
7
100
AcDbSpline
 70
8
 71
3
 72
8
 73
4
 74
0
 40
0
 40
0
 40
0
 40
0
 40
1
 40
1
 40
1
 40
1
 10
196.403886
 20
608.464606
 30
0.0
 10
195.098600
 20
609.218213
 30
0.0
 10
194.294511
 20
610.610937
 30
0.0
 10
194.294511
 20
612.118151
 30
0.0
  0
LWPOLYLINE
  5
2fa
100
AcDbEntity
  8
holes
 62
7
100
AcDbPolyline
 90
1
 70
1
 10
205.678445
 20
618.278800
 30
0.0
  0
SPLINE
  5
2fb
100
AcDbEntity
  8
holes
 62
7
100
AcDbSpline
 70
8
 71
3
 72
8
 73
4
 74
0
 40
0
 40
0
 40
0
 40
0
 40
1
 40
1
 40
1
 40
1
 10
183.848071
 20
606.091329
 30
0.0
 10
183.848071
 20
607.598543
 30
0.0
 10
184.652160
 20
608.991266
 30
0.0
 10
185.957446
 20
609.744873
 30
0.0
  0
SPLINE
  5
2fc
100
AcDbEntity
  8
holes
 62
7
100
AcDbSpline
 70
8
 71
3
 72
8
 73
4
 74
0
 40
0
 40
0
 40
0
 40
0
 40
1
 40
1
 40
1
 40
1
 10
185.957446
 20
609.744873
 30
0.0
 10
187.262731
 20
610.498480
 30
0.0
 10
188.870910
 20
610.498480
 30
0.0
 10
190.176195
 20
609.744873
 30
0.0
  0
SPLINE
  5
2fd
100
AcDbEntity
  8
holes
 62
7
100
AcDbSpline
 70
8
 71
3
 72
8
 73
4
 74
0
 40
0
 40
0
 40
0
 40
0
 40
1
 40
1
 40
1
 40
1
 10
190.176195
 20
609.744873
 30
0.0
 10
191.481481
 20
608.991266
 30
0.0
 10
192.285570
 20
607.598543
 30
0.0
 10
192.285570
 20
606.091329
 30
0.0
  0
SPLINE
  5
2fe
100
AcDbEntity
  8
holes
 62
7
100
AcDbSpline
 70
8
 71
3
 72
8
 73
4
 74
0
 40
0
 40
0
 40
0
 40
0
 40
1
 40
1
 40
1
 40
1
 10
192.285570
 20
606.091329
 30
0.0
 10
192.285570
 20
604.584114
 30
0.0
 10
191.481481
 20
603.191391
 30
0.0
 10
190.176195
 20
602.437784
 30
0.0
  0
SPLINE
  5
2ff
100
AcDbEntity
  8
holes
 62
7
100
AcDbSpline
 70
8
 71
3
 72
8
 73
4
 74
0
 40
0
 40
0
 40
0
 40
0
 40
1
 40
1
 40
1
 40
1
 10
190.176195
 20
602.437784
 30
0.0
 10
188.870910
 20
601.684177
 30
0.0
 10
187.262731
 20
601.684177
 30
0.0
 10
185.957446
 20
602.437784
 30
0.0
  0
SPLINE
  5
300
100
AcDbEntity
  8
holes
 62
7
100
AcDbSpline
 70
8
 71
3
 72
8
 73
4
 74
0
 40
0
 40
0
 40
0
 40
0
 40
1
 40
1
 40
1
 40
1
 10
185.957446
 20
602.437784
 30
0.0
 10
184.652160
 20
603.191391
 30
0.0
 10
183.848071
 20
604.584114
 30
0.0
 10
183.848071
 20
606.091329
 30
0.0
  0
LWPOLYLINE
  5
301
100
AcDbEntity
  8
holes
 62
7
100
AcDbPolyline
 90
1
 70
1
 10
194.294511
 20
612.118151
 30
0.0
  0
SPLINE
  5
302
100
AcDbEntity
  8
holes
 62
7
100
AcDbSpline
 70
8
 71
3
 72
8
 73
4
 74
0
 40
0
 40
0
 40
0
 40
0
 40
1
 40
1
 40
1
 40
1
 10
173.937375
 20
601.269888
 30
0.0
 10
173.937375
 20
602.777102
 30
0.0
 10
174.741465
 20
604.169826
 30
0.0
 10
176.046750
 20
604.923433
 30
0.0
  0
SPLINE
  5
303
100
AcDbEntity
  8
holes
 62
7
100
AcDbSpline
 70
8
 71
3
 72
8
 73
4
 74
0
 40
0
 40
0
 40
0
 40
0
 40
1
 40
1
 40
1
 40
1
 10
176.046750
 20
604.923433
 30
0.0
 10
177.352036
 20
605.677040
 30
0.0
 10
178.960215
 20
605.677040
 30
0.0
 10
180.265500
 20
604.923433
 30
0.0
  0
SPLINE
  5
304
100
AcDbEntity
  8
holes
 62
7
100
AcDbSpline
 70
8
 71
3
 72
8
 73
4
 74
0
 40
0
 40
0
 40
0
 40
0
 40
1
 40
1
 40
1
 40
1
 10
180.265500
 20
604.923433
 30
0.0
 10
181.570786
 20
604.169826
 30
0.0
 10
182.374875
 20
602.777102
 30
0.0
 10
182.374875
 20
601.269888
 30
0.0
  0
SPLINE
  5
305
100
AcDbEntity
  8
holes
 62
7
100
AcDbSpline
 70
8
 71
3
 72
8
 73
4
 74
0
 40
0
 40
0
 40
0
 40
0
 40
1
 40
1
 40
1
 40
1
 10
182.374875
 20
601.269888
 30
0.0
 10
182.374875
 20
599.762674
 30
0.0
 10
181.570786
 20
598.369951
 30
0.0
 10
180.265500
 20
597.616344
 30
0.0
  0
SPLINE
  5
306
100
AcDbEntity
  8
holes
 62
7
100
AcDbSpline
 70
8
 71
3
 72
8
 73
4
 74
0
 40
0
 40
0
 40
0
 40
0
 40
1
 40
1
 40
1
 40
1
 10
180.265500
 20
597.616344
 30
0.0
 10
178.960215
 20
596.862737
 30
0.0
 10
177.352036
 20
596.862737
 30
0.0
 10
176.046750
 20
597.616344
 30
0.0
  0
SPLINE
  5
307
100
AcDbEntity
  8
holes
 62
7
100
AcDbSpline
 70
8
 71
3
 72
8
 73
4
 74
0
 40
0
 40
0
 40
0
 40
0
 40
1
 40
1
 40
1
 40
1
 10
176.046750
 20
597.616344
 30
0.0
 10
174.741465
 20
598.369951
 30
0.0
 10
173.937375
 20
599.762674
 30
0.0
 10
173.937375
 20
601.269888
 30
0.0
  0
LWPOLYLINE
  5
308
100
AcDbEntity
  8
holes
 62
7
100
AcDbPolyline
 90
1
 70
1
 10
183.848071
 20
606.091329
 30
0.0
  0
SPLINE
  5
309
100
AcDbEntity
  8
holes
 62
7
100
AcDbSpline
 70
8
 71
3
 72
8
 73
4
 74
0
 40
0
 40
0
 40
0
 40
0
 40
1
 40
1
 40
1
 40
1
 10
163.758801
 20
594.975240
 30
0.0
 10
163.758801
 20
596.482454
 30
0.0
 10
164.562890
 20
597.875177
 30
0.0
 10
165.868176
 20
598.628785
 30
0.0
  0
SPLINE
  5
30a
100
AcDbEntity
  8
holes
 62
7
100
AcDbSpline
 70
8
 71
3
 72
8
 73
4
 74
0
 40
0
 40
0
 40
0
 40
0
 40
1
 40
1
 40
1
 40
1
 10
165.868176
 20
598.628785
 30
0.0
 10
167.173461
 20
599.382392
 30
0.0
 10
168.781640
 20
599.382392
 30
0.0
 10
170.086925
 20
598.628785
 30
0.0
  0
SPLINE
  5
30b
100
AcDbEntity
  8
holes
 62
7
100
AcDbSpline
 70
8
 71
3
 72
8
 73
4
 74
0
 40
0
 40
0
 40
0
 40
0
 40
1
 40
1
 40
1
 40
1
 10
170.086925
 20
598.628785
 30
0.0
 10
171.392211
 20
597.875177
 30
0.0
 10
172.196300
 20
596.482454
 30
0.0
 10
172.196300
 20
594.975240
 30
0.0
  0
SPLINE
  5
30c
100
AcDbEntity
  8
holes
 62
7
100
AcDbSpline
 70
8
 71
3
 72
8
 73
4
 74
0
 40
0
 40
0
 40
0
 40
0
 40
1
 40
1
 40
1
 40
1
 10
172.196300
 20
594.975240
 30
0.0
 10
172.196300
 20
593.468026
 30
0.0
 10
171.392211
 20
592.075303
 30
0.0
 10
170.086925
 20
591.321695
 30
0.0
  0
SPLINE
  5
30d
100
AcDbEntity
  8
holes
 62
7
100
AcDbSpline
 70
8
 71
3
 72
8
 73
4
 74
0
 40
0
 40
0
 40
0
 40
0
 40
1
 40
1
 40
1
 40
1
 10
170.086925
 20
591.321695
 30
0.0
 10
168.781640
 20
590.568088
 30
0.0
 10
167.173461
 20
590.568088
 30
0.0
 10
165.868176
 20
591.321695
 30
0.0
  0
SPLINE
  5
30e
100
AcDbEntity
  8
holes
 62
7
100
AcDbSpline
 70
8
 71
3
 72
8
 73
4
 74
0
 40
0
 40
0
 40
0
 40
0
 40
1
 40
1
 40
1
 40
1
 10
165.868176
 20
591.321695
 30
0.0
 10
164.562890
 20
592.075303
 30
0.0
 10
163.758801
 20
593.468026
 30
0.0
 10
163.758801
 20
594.975240
 30
0.0
  0
LWPOLYLINE
  5
30f
100
AcDbEntity
  8
holes
 62
7
100
AcDbPolyline
 90
1
 70
1
 10
173.937375
 20
601.269888
 30
0.0
  0
SPLINE
  5
310
100
AcDbEntity
  8
holes
 62
7
100
AcDbSpline
 70
8
 71
3
 72
8
 73
4
 74
0
 40
0
 40
0
 40
0
 40
0
 40
1
 40
1
 40
1
 40
1
 10
214.919503
 20
611.984152
 30
0.0
 10
214.919503
 20
613.491366
 30
0.0
 10
215.723593
 20
614.884089
 30
0.0
 10
217.028878
 20
615.637696
 30
0.0
  0
SPLINE
  5
311
100
AcDbEntity
  8
holes
 62
7
100
AcDbSpline
 70
8
 71
3
 72
8
 73
4
 74
0
 40
0
 40
0
 40
0
 40
0
 40
1
 40
1
 40
1
 40
1
 10
217.028878
 20
615.637696
 30
0.0
 10
218.334164
 20
616.391303
 30
0.0
 10
219.942342
 20
616.391303
 30
0.0
 10
221.247628
 20
615.637696
 30
0.0
  0
SPLINE
  5
312
100
AcDbEntity
  8
holes
 62
7
100
AcDbSpline
 70
8
 71
3
 72
8
 73
4
 74
0
 40
0
 40
0
 40
0
 40
0
 40
1
 40
1
 40
1
 40
1
 10
221.247628
 20
615.637696
 30
0.0
 10
222.552914
 20
614.884089
 30
0.0
 10
223.357003
 20
613.491366
 30
0.0
 10
223.357003
 20
611.984152
 30
0.0
  0
SPLINE
  5
313
100
AcDbEntity
  8
holes
 62
7
100
AcDbSpline
 70
8
 71
3
 72
8
 73
4
 74
0
 40
0
 40
0
 40
0
 40
0
 40
1
 40
1
 40
1
 40
1
 10
223.357003
 20
611.984152
 30
0.0
 10
223.357003
 20
610.476937
 30
0.0
 10
222.552914
 20
609.084214
 30
0.0
 10
221.247628
 20
608.330607
 30
0.0
  0
SPLINE
  5
314
100
AcDbEntity
  8
holes
 62
7
100
AcDbSpline
 70
8
 71
3
 72
8
 73
4
 74
0
 40
0
 40
0
 40
0
 40
0
 40
1
 40
1
 40
1
 40
1
 10
221.247628
 20
608.330607
 30
0.0
 10
219.942342
 20
607.577000
 30
0.0
 10
218.334164
 20
607.577000
 30
0.0
 10
217.028878
 20
608.330607
 30
0.0
  0
SPLINE
  5
315
100
AcDbEntity
  8
holes
 62
7
100
AcDbSpline
 70
8
 71
3
 72
8
 73
4
 74
0
 40
0
 40
0
 40
0
 40
0
 40
1
 40
1
 40
1
 40
1
 10
217.028878
 20
608.330607
 30
0.0
 10
215.723593
 20
609.084214
 30
0.0
 10
214.919503
 20
610.476937
 30
0.0
 10
214.919503
 20
611.984152
 30
0.0
  0
LWPOLYLINE
  5
316
100
AcDbEntity
  8
holes
 62
7
100
AcDbPolyline
 90
1
 70
1
 10
163.758801
 20
594.975240
 30
0.0
  0
SPLINE
  5
317
100
AcDbEntity
  8
holes
 62
7
100
AcDbSpline
 70
8
 71
3
 72
8
 73
4
 74
0
 40
0
 40
0
 40
0
 40
0
 40
1
 40
1
 40
1
 40
1
 10
204.339129
 20
607.430622
 30
0.0
 10
204.339129
 20
608.937836
 30
0.0
 10
205.143218
 20
610.330560
 30
0.0
 10
206.448504
 20
611.084167
 30
0.0
  0
SPLINE
  5
318
100
AcDbEntity
  8
holes
 62
7
100
AcDbSpline
 70
8
 71
3
 72
8
 73
4
 74
0
 40
0
 40
0
 40
0
 40
0
 40
1
 40
1
 40
1
 40
1
 10
206.448504
 20
611.084167
 30
0.0
 10
207.753790
 20
611.837774
 30
0.0
 10
209.361968
 20
611.837774
 30
0.0
 10
210.667254
 20
611.084167
 30
0.0
  0
SPLINE
  5
319
100
AcDbEntity
  8
holes
 62
7
100
AcDbSpline
 70
8
 71
3
 72
8
 73
4
 74
0
 40
0
 40
0
 40
0
 40
0
 40
1
 40
1
 40
1
 40
1
 10
210.667254
 20
611.084167
 30
0.0
 10
211.972539
 20
610.330560
 30
0.0
 10
212.776629
 20
608.937836
 30
0.0
 10
212.776629
 20
607.430622
 30
0.0
  0
SPLINE
  5
31a
100
AcDbEntity
  8
holes
 62
7
100
AcDbSpline
 70
8
 71
3
 72
8
 73
4
 74
0
 40
0
 40
0
 40
0
 40
0
 40
1
 40
1
 40
1
 40
1
 10
212.776629
 20
607.430622
 30
0.0
 10
212.776629
 20
605.923408
 30
0.0
 10
211.972539
 20
604.530685
 30
0.0
 10
210.667254
 20
603.777078
 30
0.0
  0
SPLINE
  5
31b
100
AcDbEntity
  8
holes
 62
7
100
AcDbSpline
 70
8
 71
3
 72
8
 73
4
 74
0
 40
0
 40
0
 40
0
 40
0
 40
1
 40
1
 40
1
 40
1
 10
210.667254
 20
603.777078
 30
0.0
 10
209.361968
 20
603.023470
 30
0.0
 10
207.753790
 20
603.023470
 30
0.0
 10
206.448504
 20
603.777078
 30
0.0
  0
SPLINE
  5
31c
100
AcDbEntity
  8
holes
 62
7
100
AcDbSpline
 70
8
 71
3
 72
8
 73
4
 74
0
 40
0
 40
0
 40
0
 40
0
 40
1
 40
1
 40
1
 40
1
 10
206.448504
 20
603.777078
 30
0.0
 10
205.143218
 20
604.530685
 30
0.0
 10
204.339129
 20
605.923408
 30
0.0
 10
204.339129
 20
607.430622
 30
0.0
  0
LWPOLYLINE
  5
31d
100
AcDbEntity
  8
holes
 62
7
100
AcDbPolyline
 90
1
 70
1
 10
214.919503
 20
611.984152
 30
0.0
  0
SPLINE
  5
31e
100
AcDbEntity
  8
holes
 62
7
100
AcDbSpline
 70
8
 71
3
 72
8
 73
4
 74
0
 40
0
 40
0
 40
0
 40
0
 40
1
 40
1
 40
1
 40
1
 10
193.223083
 20
601.002062
 30
0.0
 10
193.223083
 20
602.509277
 30
0.0
 10
194.027172
 20
603.902000
 30
0.0
 10
195.332458
 20
604.655607
 30
0.0
  0
SPLINE
  5
31f
100
AcDbEntity
  8
holes
 62
7
100
AcDbSpline
 70
8
 71
3
 72
8
 73
4
 74
0
 40
0
 40
0
 40
0
 40
0
 40
1
 40
1
 40
1
 40
1
 10
195.332458
 20
604.655607
 30
0.0
 10
196.637744
 20
605.409214
 30
0.0
 10
198.245922
 20
605.409214
 30
0.0
 10
199.551208
 20
604.655607
 30
0.0
  0
SPLINE
  5
320
100
AcDbEntity
  8
holes
 62
7
100
AcDbSpline
 70
8
 71
3
 72
8
 73
4
 74
0
 40
0
 40
0
 40
0
 40
0
 40
1
 40
1
 40
1
 40
1
 10
199.551208
 20
604.655607
 30
0.0
 10
200.856493
 20
603.902000
 30
0.0
 10
201.660583
 20
602.509277
 30
0.0
 10
201.660583
 20
601.002062
 30
0.0
  0
SPLINE
  5
321
100
AcDbEntity
  8
holes
 62
7
100
AcDbSpline
 70
8
 71
3
 72
8
 73
4
 74
0
 40
0
 40
0
 40
0
 40
0
 40
1
 40
1
 40
1
 40
1
 10
201.660583
 20
601.002062
 30
0.0
 10
201.660583
 20
599.494848
 30
0.0
 10
200.856493
 20
598.102125
 30
0.0
 10
199.551208
 20
597.348518
 30
0.0
  0
SPLINE
  5
322
100
AcDbEntity
  8
holes
 62
7
100
AcDbSpline
 70
8
 71
3
 72
8
 73
4
 74
0
 40
0
 40
0
 40
0
 40
0
 40
1
 40
1
 40
1
 40
1
 10
199.551208
 20
597.348518
 30
0.0
 10
198.245922
 20
596.594911
 30
0.0
 10
196.637744
 20
596.594911
 30
0.0
 10
195.332458
 20
597.348518
 30
0.0
  0
SPLINE
  5
323
100
AcDbEntity
  8
holes
 62
7
100
AcDbSpline
 70
8
 71
3
 72
8
 73
4
 74
0
 40
0
 40
0
 40
0
 40
0
 40
1
 40
1
 40
1
 40
1
 10
195.332458
 20
597.348518
 30
0.0
 10
194.027172
 20
598.102125
 30
0.0
 10
193.223083
 20
599.494848
 30
0.0
 10
193.223083
 20
601.002062
 30
0.0
  0
LWPOLYLINE
  5
324
100
AcDbEntity
  8
holes
 62
7
100
AcDbPolyline
 90
1
 70
1
 10
204.339129
 20
607.430622
 30
0.0
  0
SPLINE
  5
325
100
AcDbEntity
  8
holes
 62
7
100
AcDbSpline
 70
8
 71
3
 72
8
 73
4
 74
0
 40
0
 40
0
 40
0
 40
0
 40
1
 40
1
 40
1
 40
1
 10
183.044488
 20
595.778800
 30
0.0
 10
183.044488
 20
597.286014
 30
0.0
 10
183.848577
 20
598.678737
 30
0.0
 10
185.153863
 20
599.432344
 30
0.0
  0
SPLINE
  5
326
100
AcDbEntity
  8
holes
 62
7
100
AcDbSpline
 70
8
 71
3
 72
8
 73
4
 74
0
 40
0
 40
0
 40
0
 40
0
 40
1
 40
1
 40
1
 40
1
 10
185.153863
 20
599.432344
 30
0.0
 10
186.459149
 20
600.185951
 30
0.0
 10
188.067327
 20
600.185951
 30
0.0
 10
189.372613
 20
599.432344
 30
0.0
  0
SPLINE
  5
327
100
AcDbEntity
  8
holes
 62
7
100
AcDbSpline
 70
8
 71
3
 72
8
 73
4
 74
0
 40
0
 40
0
 40
0
 40
0
 40
1
 40
1
 40
1
 40
1
 10
189.372613
 20
599.432344
 30
0.0
 10
190.677899
 20
598.678737
 30
0.0
 10
191.481988
 20
597.286014
 30
0.0
 10
191.481988
 20
595.778800
 30
0.0
  0
SPLINE
  5
328
100
AcDbEntity
  8
holes
 62
7
100
AcDbSpline
 70
8
 71
3
 72
8
 73
4
 74
0
 40
0
 40
0
 40
0
 40
0
 40
1
 40
1
 40
1
 40
1
 10
191.481988
 20
595.778800
 30
0.0
 10
191.481988
 20
594.271586
 30
0.0
 10
190.677899
 20
592.878862
 30
0.0
 10
189.372613
 20
592.125255
 30
0.0
  0
SPLINE
  5
329
100
AcDbEntity
  8
holes
 62
7
100
AcDbSpline
 70
8
 71
3
 72
8
 73
4
 74
0
 40
0
 40
0
 40
0
 40
0
 40
1
 40
1
 40
1
 40
1
 10
189.372613
 20
592.125255
 30
0.0
 10
188.067327
 20
591.371648
 30
0.0
 10
186.459149
 20
591.371648
 30
0.0
 10
185.153863
 20
592.125255
 30
0.0
  0
SPLINE
  5
32a
100
AcDbEntity
  8
holes
 62
7
100
AcDbSpline
 70
8
 71
3
 72
8
 73
4
 74
0
 40
0
 40
0
 40
0
 40
0
 40
1
 40
1
 40
1
 40
1
 10
185.153863
 20
592.125255
 30
0.0
 10
183.848577
 20
592.878862
 30
0.0
 10
183.044488
 20
594.271586
 30
0.0
 10
183.044488
 20
595.778800
 30
0.0
  0
LWPOLYLINE
  5
32b
100
AcDbEntity
  8
holes
 62
7
100
AcDbPolyline
 90
1
 70
1
 10
193.223083
 20
601.002062
 30
0.0
  0
SPLINE
  5
32c
100
AcDbEntity
  8
holes
 62
7
100
AcDbSpline
 70
8
 71
3
 72
8
 73
4
 74
0
 40
0
 40
0
 40
0
 40
0
 40
1
 40
1
 40
1
 40
1
 10
173.535573
 20
590.019888
 30
0.0
 10
173.535573
 20
591.527102
 30
0.0
 10
174.339662
 20
592.919826
 30
0.0
 10
175.644948
 20
593.673433
 30
0.0
  0
SPLINE
  5
32d
100
AcDbEntity
  8
holes
 62
7
100
AcDbSpline
 70
8
 71
3
 72
8
 73
4
 74
0
 40
0
 40
0
 40
0
 40
0
 40
1
 40
1
 40
1
 40
1
 10
175.644948
 20
593.673433
 30
0.0
 10
176.950234
 20
594.427040
 30
0.0
 10
178.558412
 20
594.427040
 30
0.0
 10
179.863698
 20
593.673433
 30
0.0
  0
SPLINE
  5
32e
100
AcDbEntity
  8
holes
 62
7
100
AcDbSpline
 70
8
 71
3
 72
8
 73
4
 74
0
 40
0
 40
0
 40
0
 40
0
 40
1
 40
1
 40
1
 40
1
 10
179.863698
 20
593.673433
 30
0.0
 10
181.168984
 20
592.919826
 30
0.0
 10
181.973073
 20
591.527102
 30
0.0
 10
181.973073
 20
590.019888
 30
0.0
  0
SPLINE
  5
32f
100
AcDbEntity
  8
holes
 62
7
100
AcDbSpline
 70
8
 71
3
 72
8
 73
4
 74
0
 40
0
 40
0
 40
0
 40
0
 40
1
 40
1
 40
1
 40
1
 10
181.973073
 20
590.019888
 30
0.0
 10
181.973073
 20
588.512674
 30
0.0
 10
181.168984
 20
587.119951
 30
0.0
 10
179.863698
 20
586.366344
 30
0.0
  0
SPLINE
  5
330
100
AcDbEntity
  8
holes
 62
7
100
AcDbSpline
 70
8
 71
3
 72
8
 73
4
 74
0
 40
0
 40
0
 40
0
 40
0
 40
1
 40
1
 40
1
 40
1
 10
179.863698
 20
586.366344
 30
0.0
 10
178.558412
 20
585.612737
 30
0.0
 10
176.950234
 20
585.612737
 30
0.0
 10
175.644948
 20
586.366344
 30
0.0
  0
SPLINE
  5
331
100
AcDbEntity
  8
holes
 62
7
100
AcDbSpline
 70
8
 71
3
 72
8
 73
4
 74
0
 40
0
 40
0
 40
0
 40
0
 40
1
 40
1
 40
1
 40
1
 10
175.644948
 20
586.366344
 30
0.0
 10
174.339662
 20
587.119951
 30
0.0
 10
173.535573
 20
588.512674
 30
0.0
 10
173.535573
 20
590.019888
 30
0.0
  0
LWPOLYLINE
  5
332
100
AcDbEntity
  8
holes
 62
7
100
AcDbPolyline
 90
1
 70
1
 10
183.044488
 20
595.778800
 30
0.0
  0
SPLINE
  5
333
100
AcDbEntity
  8
holes
 62
7
100
AcDbSpline
 70
8
 71
3
 72
8
 73
4
 74
0
 40
0
 40
0
 40
0
 40
0
 40
1
 40
1
 40
1
 40
1
 10
212.776650
 20
601.002062
 30
0.0
 10
212.776650
 20
602.509277
 30
0.0
 10
213.580739
 20
603.902000
 30
0.0
 10
214.886025
 20
604.655607
 30
0.0
  0
SPLINE
  5
334
100
AcDbEntity
  8
holes
 62
7
100
AcDbSpline
 70
8
 71
3
 72
8
 73
4
 74
0
 40
0
 40
0
 40
0
 40
0
 40
1
 40
1
 40
1
 40
1
 10
214.886025
 20
604.655607
 30
0.0
 10
216.191311
 20
605.409214
 30
0.0
 10
217.799489
 20
605.409214
 30
0.0
 10
219.104775
 20
604.655607
 30
0.0
  0
SPLINE
  5
335
100
AcDbEntity
  8
holes
 62
7
100
AcDbSpline
 70
8
 71
3
 72
8
 73
4
 74
0
 40
0
 40
0
 40
0
 40
0
 40
1
 40
1
 40
1
 40
1
 10
219.104775
 20
604.655607
 30
0.0
 10
220.410061
 20
603.902000
 30
0.0
 10
221.214150
 20
602.509277
 30
0.0
 10
221.214150
 20
601.002062
 30
0.0
  0
SPLINE
  5
336
100
AcDbEntity
  8
holes
 62
7
100
AcDbSpline
 70
8
 71
3
 72
8
 73
4
 74
0
 40
0
 40
0
 40
0
 40
0
 40
1
 40
1
 40
1
 40
1
 10
221.214150
 20
601.002062
 30
0.0
 10
221.214150
 20
599.494848
 30
0.0
 10
220.410061
 20
598.102125
 30
0.0
 10
219.104775
 20
597.348518
 30
0.0
  0
SPLINE
  5
337
100
AcDbEntity
  8
holes
 62
7
100
AcDbSpline
 70
8
 71
3
 72
8
 73
4
 74
0
 40
0
 40
0
 40
0
 40
0
 40
1
 40
1
 40
1
 40
1
 10
219.104775
 20
597.348518
 30
0.0
 10
217.799489
 20
596.594911
 30
0.0
 10
216.191311
 20
596.594911
 30
0.0
 10
214.886025
 20
597.348518
 30
0.0
  0
SPLINE
  5
338
100
AcDbEntity
  8
holes
 62
7
100
AcDbSpline
 70
8
 71
3
 72
8
 73
4
 74
0
 40
0
 40
0
 40
0
 40
0
 40
1
 40
1
 40
1
 40
1
 10
214.886025
 20
597.348518
 30
0.0
 10
213.580739
 20
598.102125
 30
0.0
 10
212.776650
 20
599.494848
 30
0.0
 10
212.776650
 20
601.002062
 30
0.0
  0
LWPOLYLINE
  5
339
100
AcDbEntity
  8
holes
 62
7
100
AcDbPolyline
 90
1
 70
1
 10
173.535573
 20
590.019888
 30
0.0
  0
SPLINE
  5
33a
100
AcDbEntity
  8
holes
 62
7
100
AcDbSpline
 70
8
 71
3
 72
8
 73
4
 74
0
 40
0
 40
0
 40
0
 40
0
 40
1
 40
1
 40
1
 40
1
 10
202.999855
 20
595.644888
 30
0.0
 10
202.999855
 20
597.152102
 30
0.0
 10
203.803944
 20
598.544826
 30
0.0
 10
205.109230
 20
599.298433
 30
0.0
  0
SPLINE
  5
33b
100
AcDbEntity
  8
holes
 62
7
100
AcDbSpline
 70
8
 71
3
 72
8
 73
4
 74
0
 40
0
 40
0
 40
0
 40
0
 40
1
 40
1
 40
1
 40
1
 10
205.109230
 20
599.298433
 30
0.0
 10
206.414516
 20
600.052040
 30
0.0
 10
208.022694
 20
600.052040
 30
0.0
 10
209.327980
 20
599.298433
 30
0.0
  0
SPLINE
  5
33c
100
AcDbEntity
  8
holes
 62
7
100
AcDbSpline
 70
8
 71
3
 72
8
 73
4
 74
0
 40
0
 40
0
 40
0
 40
0
 40
1
 40
1
 40
1
 40
1
 10
209.327980
 20
599.298433
 30
0.0
 10
210.633266
 20
598.544826
 30
0.0
 10
211.437355
 20
597.152102
 30
0.0
 10
211.437355
 20
595.644888
 30
0.0
  0
SPLINE
  5
33d
100
AcDbEntity
  8
holes
 62
7
100
AcDbSpline
 70
8
 71
3
 72
8
 73
4
 74
0
 40
0
 40
0
 40
0
 40
0
 40
1
 40
1
 40
1
 40
1
 10
211.437355
 20
595.644888
 30
0.0
 10
211.437355
 20
594.137674
 30
0.0
 10
210.633266
 20
592.744951
 30
0.0
 10
209.327980
 20
591.991344
 30
0.0
  0
SPLINE
  5
33e
100
AcDbEntity
  8
holes
 62
7
100
AcDbSpline
 70
8
 71
3
 72
8
 73
4
 74
0
 40
0
 40
0
 40
0
 40
0
 40
1
 40
1
 40
1
 40
1
 10
209.327980
 20
591.991344
 30
0.0
 10
208.022694
 20
591.237737
 30
0.0
 10
206.414516
 20
591.237737
 30
0.0
 10
205.109230
 20
591.991344
 30
0.0
  0
SPLINE
  5
33f
100
AcDbEntity
  8
holes
 62
7
100
AcDbSpline
 70
8
 71
3
 72
8
 73
4
 74
0
 40
0
 40
0
 40
0
 40
0
 40
1
 40
1
 40
1
 40
1
 10
205.109230
 20
591.991344
 30
0.0
 10
203.803944
 20
592.744951
 30
0.0
 10
202.999855
 20
594.137674
 30
0.0
 10
202.999855
 20
595.644888
 30
0.0
  0
LWPOLYLINE
  5
340
100
AcDbEntity
  8
holes
 62
7
100
AcDbPolyline
 90
1
 70
1
 10
212.776650
 20
601.002062
 30
0.0
  0
SPLINE
  5
341
100
AcDbEntity
  8
holes
 62
7
100
AcDbSpline
 70
8
 71
3
 72
8
 73
4
 74
0
 40
0
 40
0
 40
0
 40
0
 40
1
 40
1
 40
1
 40
1
 10
192.419503
 20
589.484152
 30
0.0
 10
192.419503
 20
590.991366
 30
0.0
 10
193.223593
 20
592.384089
 30
0.0
 10
194.528878
 20
593.137696
 30
0.0
  0
SPLINE
  5
342
100
AcDbEntity
  8
holes
 62
7
100
AcDbSpline
 70
8
 71
3
 72
8
 73
4
 74
0
 40
0
 40
0
 40
0
 40
0
 40
1
 40
1
 40
1
 40
1
 10
194.528878
 20
593.137696
 30
0.0
 10
195.834164
 20
593.891303
 30
0.0
 10
197.442342
 20
593.891303
 30
0.0
 10
198.747628
 20
593.137696
 30
0.0
  0
SPLINE
  5
343
100
AcDbEntity
  8
holes
 62
7
100
AcDbSpline
 70
8
 71
3
 72
8
 73
4
 74
0
 40
0
 40
0
 40
0
 40
0
 40
1
 40
1
 40
1
 40
1
 10
198.747628
 20
593.137696
 30
0.0
 10
200.052914
 20
592.384089
 30
0.0
 10
200.857003
 20
590.991366
 30
0.0
 10
200.857003
 20
589.484152
 30
0.0
  0
SPLINE
  5
344
100
AcDbEntity
  8
holes
 62
7
100
AcDbSpline
 70
8
 71
3
 72
8
 73
4
 74
0
 40
0
 40
0
 40
0
 40
0
 40
1
 40
1
 40
1
 40
1
 10
200.857003
 20
589.484152
 30
0.0
 10
200.857003
 20
587.976937
 30
0.0
 10
200.052914
 20
586.584214
 30
0.0
 10
198.747628
 20
585.830607
 30
0.0
  0
SPLINE
  5
345
100
AcDbEntity
  8
holes
 62
7
100
AcDbSpline
 70
8
 71
3
 72
8
 73
4
 74
0
 40
0
 40
0
 40
0
 40
0
 40
1
 40
1
 40
1
 40
1
 10
198.747628
 20
585.830607
 30
0.0
 10
197.442342
 20
585.077000
 30
0.0
 10
195.834164
 20
585.077000
 30
0.0
 10
194.528878
 20
585.830607
 30
0.0
  0
SPLINE
  5
346
100
AcDbEntity
  8
holes
 62
7
100
AcDbSpline
 70
8
 71
3
 72
8
 73
4
 74
0
 40
0
 40
0
 40
0
 40
0
 40
1
 40
1
 40
1
 40
1
 10
194.528878
 20
585.830607
 30
0.0
 10
193.223593
 20
586.584214
 30
0.0
 10
192.419503
 20
587.976937
 30
0.0
 10
192.419503
 20
589.484152
 30
0.0
  0
LWPOLYLINE
  5
347
100
AcDbEntity
  8
holes
 62
7
100
AcDbPolyline
 90
1
 70
1
 10
202.999855
 20
595.644888
 30
0.0
  0
SPLINE
  5
348
100
AcDbEntity
  8
holes
 62
7
100
AcDbSpline
 70
8
 71
3
 72
8
 73
4
 74
0
 40
0
 40
0
 40
0
 40
0
 40
1
 40
1
 40
1
 40
1
 10
182.776643
 20
584.127062
 30
0.0
 10
182.776643
 20
585.634277
 30
0.0
 10
183.580732
 20
587.027000
 30
0.0
 10
184.886018
 20
587.780607
 30
0.0
  0
SPLINE
  5
349
100
AcDbEntity
  8
holes
 62
7
100
AcDbSpline
 70
8
 71
3
 72
8
 73
4
 74
0
 40
0
 40
0
 40
0
 40
0
 40
1
 40
1
 40
1
 40
1
 10
184.886018
 20
587.780607
 30
0.0
 10
186.191303
 20
588.534214
 30
0.0
 10
187.799482
 20
588.534214
 30
0.0
 10
189.104767
 20
587.780607
 30
0.0
  0
SPLINE
  5
34a
100
AcDbEntity
  8
holes
 62
7
100
AcDbSpline
 70
8
 71
3
 72
8
 73
4
 74
0
 40
0
 40
0
 40
0
 40
0
 40
1
 40
1
 40
1
 40
1
 10
189.104767
 20
587.780607
 30
0.0
 10
190.410053
 20
587.027000
 30
0.0
 10
191.214142
 20
585.634277
 30
0.0
 10
191.214142
 20
584.127062
 30
0.0
  0
SPLINE
  5
34b
100
AcDbEntity
  8
holes
 62
7
100
AcDbSpline
 70
8
 71
3
 72
8
 73
4
 74
0
 40
0
 40
0
 40
0
 40
0
 40
1
 40
1
 40
1
 40
1
 10
191.214142
 20
584.127062
 30
0.0
 10
191.214142
 20
582.619848
 30
0.0
 10
190.410053
 20
581.227125
 30
0.0
 10
189.104767
 20
580.473518
 30
0.0
  0
SPLINE
  5
34c
100
AcDbEntity
  8
holes
 62
7
100
AcDbSpline
 70
8
 71
3
 72
8
 73
4
 74
0
 40
0
 40
0
 40
0
 40
0
 40
1
 40
1
 40
1
 40
1
 10
189.104767
 20
580.473518
 30
0.0
 10
187.799482
 20
579.719911
 30
0.0
 10
186.191303
 20
579.719911
 30
0.0
 10
184.886018
 20
580.473518
 30
0.0
  0
SPLINE
  5
34d
100
AcDbEntity
  8
holes
 62
7
100
AcDbSpline
 70
8
 71
3
 72
8
 73
4
 74
0
 40
0
 40
0
 40
0
 40
0
 40
1
 40
1
 40
1
 40
1
 10
184.886018
 20
580.473518
 30
0.0
 10
183.580732
 20
581.227125
 30
0.0
 10
182.776643
 20
582.619848
 30
0.0
 10
182.776643
 20
584.127062
 30
0.0
  0
LWPOLYLINE
  5
34e
100
AcDbEntity
  8
holes
 62
7
100
AcDbPolyline
 90
1
 70
1
 10
192.419503
 20
589.484152
 30
0.0
  0
SPLINE
  5
34f
100
AcDbEntity
  8
holes
 62
7
100
AcDbSpline
 70
8
 71
3
 72
8
 73
4
 74
0
 40
0
 40
0
 40
0
 40
0
 40
1
 40
1
 40
1
 40
1
 10
51.967117
 20
665.533310
 30
0.0
 10
51.967117
 20
664.026095
 30
0.0
 10
51.163028
 20
662.633372
 30
0.0
 10
49.857742
 20
661.879765
 30
0.0
  0
SPLINE
  5
350
100
AcDbEntity
  8
holes
 62
7
100
AcDbSpline
 70
8
 71
3
 72
8
 73
4
 74
0
 40
0
 40
0
 40
0
 40
0
 40
1
 40
1
 40
1
 40
1
 10
49.857742
 20
661.879765
 30
0.0
 10
48.552457
 20
661.126158
 30
0.0
 10
46.944278
 20
661.126158
 30
0.0
 10
45.638993
 20
661.879765
 30
0.0
  0
SPLINE
  5
351
100
AcDbEntity
  8
holes
 62
7
100
AcDbSpline
 70
8
 71
3
 72
8
 73
4
 74
0
 40
0
 40
0
 40
0
 40
0
 40
1
 40
1
 40
1
 40
1
 10
45.638993
 20
661.879765
 30
0.0
 10
44.333707
 20
662.633372
 30
0.0
 10
43.529618
 20
664.026095
 30
0.0
 10
43.529618
 20
665.533310
 30
0.0
  0
SPLINE
  5
352
100
AcDbEntity
  8
holes
 62
7
100
AcDbSpline
 70
8
 71
3
 72
8
 73
4
 74
0
 40
0
 40
0
 40
0
 40
0
 40
1
 40
1
 40
1
 40
1
 10
43.529618
 20
665.533310
 30
0.0
 10
43.529618
 20
667.863261
 30
0.0
 10
45.418416
 20
669.752059
 30
0.0
 10
47.748368
 20
669.752059
 30
0.0
  0
SPLINE
  5
353
100
AcDbEntity
  8
holes
 62
7
100
AcDbSpline
 70
8
 71
3
 72
8
 73
4
 74
0
 40
0
 40
0
 40
0
 40
0
 40
1
 40
1
 40
1
 40
1
 10
47.748368
 20
669.752059
 30
0.0
 10
50.078319
 20
669.752059
 30
0.0
 10
51.967117
 20
667.863261
 30
0.0
 10
51.967117
 20
665.533310
 30
0.0
  0
LWPOLYLINE
  5
354
100
AcDbEntity
  8
holes
 62
7
100
AcDbPolyline
 90
1
 70
1
 10
182.776643
 20
584.127062
 30
0.0
  0
SPLINE
  5
355
100
AcDbEntity
  8
holes
 62
7
100
AcDbSpline
 70
8
 71
3
 72
8
 73
4
 74
0
 40
0
 40
0
 40
0
 40
0
 40
1
 40
1
 40
1
 40
1
 10
50.680775
 20
736.787217
 30
0.0
 10
50.680775
 20
735.280003
 30
0.0
 10
49.876686
 20
733.887279
 30
0.0
 10
48.571400
 20
733.133672
 30
0.0
  0
SPLINE
  5
356
100
AcDbEntity
  8
holes
 62
7
100
AcDbSpline
 70
8
 71
3
 72
8
 73
4
 74
0
 40
0
 40
0
 40
0
 40
0
 40
1
 40
1
 40
1
 40
1
 10
48.571400
 20
733.133672
 30
0.0
 10
47.266114
 20
732.380065
 30
0.0
 10
45.657936
 20
732.380065
 30
0.0
 10
44.352650
 20
733.133672
 30
0.0
  0
SPLINE
  5
357
100
AcDbEntity
  8
holes
 62
7
100
AcDbSpline
 70
8
 71
3
 72
8
 73
4
 74
0
 40
0
 40
0
 40
0
 40
0
 40
1
 40
1
 40
1
 40
1
 10
44.352650
 20
733.133672
 30
0.0
 10
43.047365
 20
733.887279
 30
0.0
 10
42.243275
 20
735.280003
 30
0.0
 10
42.243275
 20
736.787217
 30
0.0
  0
SPLINE
  5
358
100
AcDbEntity
  8
holes
 62
7
100
AcDbSpline
 70
8
 71
3
 72
8
 73
4
 74
0
 40
0
 40
0
 40
0
 40
0
 40
1
 40
1
 40
1
 40
1
 10
42.243275
 20
736.787217
 30
0.0
 10
42.243275
 20
738.294431
 30
0.0
 10
43.047365
 20
739.687154
 30
0.0
 10
44.352650
 20
740.440761
 30
0.0
  0
SPLINE
  5
359
100
AcDbEntity
  8
holes
 62
7
100
AcDbSpline
 70
8
 71
3
 72
8
 73
4
 74
0
 40
0
 40
0
 40
0
 40
0
 40
1
 40
1
 40
1
 40
1
 10
44.352650
 20
740.440761
 30
0.0
 10
45.657936
 20
741.194368
 30
0.0
 10
47.266114
 20
741.194368
 30
0.0
 10
48.571400
 20
740.440761
 30
0.0
  0
SPLINE
  5
35a
100
AcDbEntity
  8
holes
 62
7
100
AcDbSpline
 70
8
 71
3
 72
8
 73
4
 74
0
 40
0
 40
0
 40
0
 40
0
 40
1
 40
1
 40
1
 40
1
 10
48.571400
 20
740.440761
 30
0.0
 10
49.876686
 20
739.687154
 30
0.0
 10
50.680775
 20
738.294431
 30
0.0
 10
50.680775
 20
736.787217
 30
0.0
  0
LWPOLYLINE
  5
35b
100
AcDbEntity
  8
holes
 62
7
100
AcDbPolyline
 90
1
 70
1
 10
51.967117
 20
665.533310
 30
0.0
  0
SPLINE
  5
35c
100
AcDbEntity
  8
holes
 62
7
100
AcDbSpline
 70
8
 71
3
 72
8
 73
4
 74
0
 40
0
 40
0
 40
0
 40
0
 40
1
 40
1
 40
1
 40
1
 10
51.827959
 20
677.230852
 30
0.0
 10
51.827959
 20
675.723638
 30
0.0
 10
51.023870
 20
674.330915
 30
0.0
 10
49.718584
 20
673.577307
 30
0.0
  0
SPLINE
  5
35d
100
AcDbEntity
  8
holes
 62
7
100
AcDbSpline
 70
8
 71
3
 72
8
 73
4
 74
0
 40
0
 40
0
 40
0
 40
0
 40
1
 40
1
 40
1
 40
1
 10
49.718584
 20
673.577307
 30
0.0
 10
48.413298
 20
672.823700
 30
0.0
 10
46.805120
 20
672.823700
 30
0.0
 10
45.499834
 20
673.577307
 30
0.0
  0
SPLINE
  5
35e
100
AcDbEntity
  8
holes
 62
7
100
AcDbSpline
 70
8
 71
3
 72
8
 73
4
 74
0
 40
0
 40
0
 40
0
 40
0
 40
1
 40
1
 40
1
 40
1
 10
45.499834
 20
673.577307
 30
0.0
 10
44.194548
 20
674.330915
 30
0.0
 10
43.390459
 20
675.723638
 30
0.0
 10
43.390459
 20
677.230852
 30
0.0
  0
SPLINE
  5
35f
100
AcDbEntity
  8
holes
 62
7
100
AcDbSpline
 70
8
 71
3
 72
8
 73
4
 74
0
 40
0
 40
0
 40
0
 40
0
 40
1
 40
1
 40
1
 40
1
 10
43.390459
 20
677.230852
 30
0.0
 10
43.390459
 20
678.738066
 30
0.0
 10
44.194548
 20
680.130789
 30
0.0
 10
45.499834
 20
680.884397
 30
0.0
  0
SPLINE
  5
360
100
AcDbEntity
  8
holes
 62
7
100
AcDbSpline
 70
8
 71
3
 72
8
 73
4
 74
0
 40
0
 40
0
 40
0
 40
0
 40
1
 40
1
 40
1
 40
1
 10
45.499834
 20
680.884397
 30
0.0
 10
46.805120
 20
681.638004
 30
0.0
 10
48.413298
 20
681.638004
 30
0.0
 10
49.718584
 20
680.884397
 30
0.0
  0
SPLINE
  5
361
100
AcDbEntity
  8
holes
 62
7
100
AcDbSpline
 70
8
 71
3
 72
8
 73
4
 74
0
 40
0
 40
0
 40
0
 40
0
 40
1
 40
1
 40
1
 40
1
 10
49.718584
 20
680.884397
 30
0.0
 10
51.023870
 20
680.130789
 30
0.0
 10
51.827959
 20
678.738066
 30
0.0
 10
51.827959
 20
677.230852
 30
0.0
  0
LWPOLYLINE
  5
362
100
AcDbEntity
  8
holes
 62
7
100
AcDbPolyline
 90
1
 70
1
 10
50.680775
 20
736.787217
 30
0.0
  0
SPLINE
  5
363
100
AcDbEntity
  8
holes
 62
7
100
AcDbSpline
 70
8
 71
3
 72
8
 73
4
 74
0
 40
0
 40
0
 40
0
 40
0
 40
1
 40
1
 40
1
 40
1
 10
51.367431
 20
689.697264
 30
0.0
 10
51.367431
 20
688.190049
 30
0.0
 10
50.563342
 20
686.797326
 30
0.0
 10
49.258056
 20
686.043719
 30
0.0
  0
SPLINE
  5
364
100
AcDbEntity
  8
holes
 62
7
100
AcDbSpline
 70
8
 71
3
 72
8
 73
4
 74
0
 40
0
 40
0
 40
0
 40
0
 40
1
 40
1
 40
1
 40
1
 10
49.258056
 20
686.043719
 30
0.0
 10
47.952770
 20
685.290112
 30
0.0
 10
46.344592
 20
685.290112
 30
0.0
 10
45.039306
 20
686.043719
 30
0.0
  0
SPLINE
  5
365
100
AcDbEntity
  8
holes
 62
7
100
AcDbSpline
 70
8
 71
3
 72
8
 73
4
 74
0
 40
0
 40
0
 40
0
 40
0
 40
1
 40
1
 40
1
 40
1
 10
45.039306
 20
686.043719
 30
0.0
 10
43.734021
 20
686.797326
 30
0.0
 10
42.929931
 20
688.190049
 30
0.0
 10
42.929931
 20
689.697264
 30
0.0
  0
SPLINE
  5
366
100
AcDbEntity
  8
holes
 62
7
100
AcDbSpline
 70
8
 71
3
 72
8
 73
4
 74
0
 40
0
 40
0
 40
0
 40
0
 40
1
 40
1
 40
1
 40
1
 10
42.929931
 20
689.697264
 30
0.0
 10
42.929931
 20
691.204478
 30
0.0
 10
43.734021
 20
692.597201
 30
0.0
 10
45.039306
 20
693.350808
 30
0.0
  0
SPLINE
  5
367
100
AcDbEntity
  8
holes
 62
7
100
AcDbSpline
 70
8
 71
3
 72
8
 73
4
 74
0
 40
0
 40
0
 40
0
 40
0
 40
1
 40
1
 40
1
 40
1
 10
45.039306
 20
693.350808
 30
0.0
 10
46.344592
 20
694.104415
 30
0.0
 10
47.952770
 20
694.104415
 30
0.0
 10
49.258056
 20
693.350808
 30
0.0
  0
SPLINE
  5
368
100
AcDbEntity
  8
holes
 62
7
100
AcDbSpline
 70
8
 71
3
 72
8
 73
4
 74
0
 40
0
 40
0
 40
0
 40
0
 40
1
 40
1
 40
1
 40
1
 10
49.258056
 20
693.350808
 30
0.0
 10
50.563342
 20
692.597201
 30
0.0
 10
51.367431
 20
691.204478
 30
0.0
 10
51.367431
 20
689.697264
 30
0.0
  0
LWPOLYLINE
  5
369
100
AcDbEntity
  8
holes
 62
7
100
AcDbPolyline
 90
1
 70
1
 10
51.827959
 20
677.230852
 30
0.0
  0
SPLINE
  5
36a
100
AcDbEntity
  8
holes
 62
7
100
AcDbSpline
 70
8
 71
3
 72
8
 73
4
 74
0
 40
0
 40
0
 40
0
 40
0
 40
1
 40
1
 40
1
 40
1
 10
51.230231
 20
701.350688
 30
0.0
 10
51.230231
 20
699.843473
 30
0.0
 10
50.426142
 20
698.450750
 30
0.0
 10
49.120857
 20
697.697143
 30
0.0
  0
SPLINE
  5
36b
100
AcDbEntity
  8
holes
 62
7
100
AcDbSpline
 70
8
 71
3
 72
8
 73
4
 74
0
 40
0
 40
0
 40
0
 40
0
 40
1
 40
1
 40
1
 40
1
 10
49.120857
 20
697.697143
 30
0.0
 10
47.815571
 20
696.943536
 30
0.0
 10
46.207392
 20
696.943536
 30
0.0
 10
44.902107
 20
697.697143
 30
0.0
  0
SPLINE
  5
36c
100
AcDbEntity
  8
holes
 62
7
100
AcDbSpline
 70
8
 71
3
 72
8
 73
4
 74
0
 40
0
 40
0
 40
0
 40
0
 40
1
 40
1
 40
1
 40
1
 10
44.902107
 20
697.697143
 30
0.0
 10
43.596821
 20
698.450750
 30
0.0
 10
42.792732
 20
699.843473
 30
0.0
 10
42.792732
 20
701.350688
 30
0.0
  0
SPLINE
  5
36d
100
AcDbEntity
  8
holes
 62
7
100
AcDbSpline
 70
8
 71
3
 72
8
 73
4
 74
0
 40
0
 40
0
 40
0
 40
0
 40
1
 40
1
 40
1
 40
1
 10
42.792732
 20
701.350688
 30
0.0
 10
42.792732
 20
702.857902
 30
0.0
 10
43.596821
 20
704.250625
 30
0.0
 10
44.902107
 20
705.004232
 30
0.0
  0
SPLINE
  5
36e
100
AcDbEntity
  8
holes
 62
7
100
AcDbSpline
 70
8
 71
3
 72
8
 73
4
 74
0
 40
0
 40
0
 40
0
 40
0
 40
1
 40
1
 40
1
 40
1
 10
44.902107
 20
705.004232
 30
0.0
 10
46.207392
 20
705.757839
 30
0.0
 10
47.815571
 20
705.757839
 30
0.0
 10
49.120857
 20
705.004232
 30
0.0
  0
SPLINE
  5
36f
100
AcDbEntity
  8
holes
 62
7
100
AcDbSpline
 70
8
 71
3
 72
8
 73
4
 74
0
 40
0
 40
0
 40
0
 40
0
 40
1
 40
1
 40
1
 40
1
 10
49.120857
 20
705.004232
 30
0.0
 10
50.426142
 20
704.250625
 30
0.0
 10
51.230231
 20
702.857902
 30
0.0
 10
51.230231
 20
701.350688
 30
0.0
  0
LWPOLYLINE
  5
370
100
AcDbEntity
  8
holes
 62
7
100
AcDbPolyline
 90
1
 70
1
 10
51.367431
 20
689.697264
 30
0.0
  0
SPLINE
  5
371
100
AcDbEntity
  8
holes
 62
7
100
AcDbSpline
 70
8
 71
3
 72
8
 73
4
 74
0
 40
0
 40
0
 40
0
 40
0
 40
1
 40
1
 40
1
 40
1
 10
50.968625
 20
713.281450
 30
0.0
 10
50.968625
 20
711.774236
 30
0.0
 10
50.164536
 20
710.381513
 30
0.0
 10
48.859250
 20
709.627906
 30
0.0
  0
SPLINE
  5
372
100
AcDbEntity
  8
holes
 62
7
100
AcDbSpline
 70
8
 71
3
 72
8
 73
4
 74
0
 40
0
 40
0
 40
0
 40
0
 40
1
 40
1
 40
1
 40
1
 10
48.859250
 20
709.627906
 30
0.0
 10
47.553964
 20
708.874299
 30
0.0
 10
45.945786
 20
708.874299
 30
0.0
 10
44.640500
 20
709.627906
 30
0.0
  0
SPLINE
  5
373
100
AcDbEntity
  8
holes
 62
7
100
AcDbSpline
 70
8
 71
3
 72
8
 73
4
 74
0
 40
0
 40
0
 40
0
 40
0
 40
1
 40
1
 40
1
 40
1
 10
44.640500
 20
709.627906
 30
0.0
 10
43.335214
 20
710.381513
 30
0.0
 10
42.531125
 20
711.774236
 30
0.0
 10
42.531125
 20
713.281450
 30
0.0
  0
SPLINE
  5
374
100
AcDbEntity
  8
holes
 62
7
100
AcDbSpline
 70
8
 71
3
 72
8
 73
4
 74
0
 40
0
 40
0
 40
0
 40
0
 40
1
 40
1
 40
1
 40
1
 10
42.531125
 20
713.281450
 30
0.0
 10
42.531125
 20
714.788665
 30
0.0
 10
43.335214
 20
716.181388
 30
0.0
 10
44.640500
 20
716.934995
 30
0.0
  0
SPLINE
  5
375
100
AcDbEntity
  8
holes
 62
7
100
AcDbSpline
 70
8
 71
3
 72
8
 73
4
 74
0
 40
0
 40
0
 40
0
 40
0
 40
1
 40
1
 40
1
 40
1
 10
44.640500
 20
716.934995
 30
0.0
 10
45.945786
 20
717.688602
 30
0.0
 10
47.553964
 20
717.688602
 30
0.0
 10
48.859250
 20
716.934995
 30
0.0
  0
SPLINE
  5
376
100
AcDbEntity
  8
holes
 62
7
100
AcDbSpline
 70
8
 71
3
 72
8
 73
4
 74
0
 40
0
 40
0
 40
0
 40
0
 40
1
 40
1
 40
1
 40
1
 10
48.859250
 20
716.934995
 30
0.0
 10
50.164536
 20
716.181388
 30
0.0
 10
50.968625
 20
714.788665
 30
0.0
 10
50.968625
 20
713.281450
 30
0.0
  0
LWPOLYLINE
  5
377
100
AcDbEntity
  8
holes
 62
7
100
AcDbPolyline
 90
1
 70
1
 10
51.230231
 20
701.350688
 30
0.0
  0
SPLINE
  5
378
100
AcDbEntity
  8
holes
 62
7
100
AcDbSpline
 70
8
 71
3
 72
8
 73
4
 74
0
 40
0
 40
0
 40
0
 40
0
 40
1
 40
1
 40
1
 40
1
 10
50.974898
 20
724.990365
 30
0.0
 10
50.974898
 20
723.483151
 30
0.0
 10
50.170809
 20
722.090428
 30
0.0
 10
48.865523
 20
721.336821
 30
0.0
  0
SPLINE
  5
379
100
AcDbEntity
  8
holes
 62
7
100
AcDbSpline
 70
8
 71
3
 72
8
 73
4
 74
0
 40
0
 40
0
 40
0
 40
0
 40
1
 40
1
 40
1
 40
1
 10
48.865523
 20
721.336821
 30
0.0
 10
47.560237
 20
720.583214
 30
0.0
 10
45.952059
 20
720.583214
 30
0.0
 10
44.646773
 20
721.336821
 30
0.0
  0
SPLINE
  5
37a
100
AcDbEntity
  8
holes
 62
7
100
AcDbSpline
 70
8
 71
3
 72
8
 73
4
 74
0
 40
0
 40
0
 40
0
 40
0
 40
1
 40
1
 40
1
 40
1
 10
44.646773
 20
721.336821
 30
0.0
 10
43.341487
 20
722.090428
 30
0.0
 10
42.537398
 20
723.483151
 30
0.0
 10
42.537398
 20
724.990365
 30
0.0
  0
SPLINE
  5
37b
100
AcDbEntity
  8
holes
 62
7
100
AcDbSpline
 70
8
 71
3
 72
8
 73
4
 74
0
 40
0
 40
0
 40
0
 40
0
 40
1
 40
1
 40
1
 40
1
 10
42.537398
 20
724.990365
 30
0.0
 10
42.537398
 20
726.497580
 30
0.0
 10
43.341487
 20
727.890303
 30
0.0
 10
44.646773
 20
728.643910
 30
0.0
  0
SPLINE
  5
37c
100
AcDbEntity
  8
holes
 62
7
100
AcDbSpline
 70
8
 71
3
 72
8
 73
4
 74
0
 40
0
 40
0
 40
0
 40
0
 40
1
 40
1
 40
1
 40
1
 10
44.646773
 20
728.643910
 30
0.0
 10
45.952059
 20
729.397517
 30
0.0
 10
47.560237
 20
729.397517
 30
0.0
 10
48.865523
 20
728.643910
 30
0.0
  0
SPLINE
  5
37d
100
AcDbEntity
  8
holes
 62
7
100
AcDbSpline
 70
8
 71
3
 72
8
 73
4
 74
0
 40
0
 40
0
 40
0
 40
0
 40
1
 40
1
 40
1
 40
1
 10
48.865523
 20
728.643910
 30
0.0
 10
50.170809
 20
727.890303
 30
0.0
 10
50.974898
 20
726.497580
 30
0.0
 10
50.974898
 20
724.990365
 30
0.0
  0
LWPOLYLINE
  5
37e
100
AcDbEntity
  8
holes
 62
7
100
AcDbPolyline
 90
1
 70
1
 10
50.968625
 20
713.281450
 30
0.0
  0
SPLINE
  5
37f
100
AcDbEntity
  8
holes
 62
7
100
AcDbSpline
 70
8
 71
3
 72
8
 73
4
 74
0
 40
0
 40
0
 40
0
 40
0
 40
1
 40
1
 40
1
 40
1
 10
40.947248
 20
672.595444
 30
0.0
 10
40.947248
 20
671.088230
 30
0.0
 10
40.143159
 20
669.695506
 30
0.0
 10
38.837873
 20
668.941899
 30
0.0
  0
SPLINE
  5
380
100
AcDbEntity
  8
holes
 62
7
100
AcDbSpline
 70
8
 71
3
 72
8
 73
4
 74
0
 40
0
 40
0
 40
0
 40
0
 40
1
 40
1
 40
1
 40
1
 10
38.837873
 20
668.941899
 30
0.0
 10
37.532587
 20
668.188292
 30
0.0
 10
35.924409
 20
668.188292
 30
0.0
 10
34.619123
 20
668.941899
 30
0.0
  0
SPLINE
  5
381
100
AcDbEntity
  8
holes
 62
7
100
AcDbSpline
 70
8
 71
3
 72
8
 73
4
 74
0
 40
0
 40
0
 40
0
 40
0
 40
1
 40
1
 40
1
 40
1
 10
34.619123
 20
668.941899
 30
0.0
 10
33.313838
 20
669.695506
 30
0.0
 10
32.509748
 20
671.088230
 30
0.0
 10
32.509748
 20
672.595444
 30
0.0
  0
SPLINE
  5
382
100
AcDbEntity
  8
holes
 62
7
100
AcDbSpline
 70
8
 71
3
 72
8
 73
4
 74
0
 40
0
 40
0
 40
0
 40
0
 40
1
 40
1
 40
1
 40
1
 10
32.509748
 20
672.595444
 30
0.0
 10
32.509748
 20
674.925395
 30
0.0
 10
34.398547
 20
676.814194
 30
0.0
 10
36.728498
 20
676.814194
 30
0.0
  0
SPLINE
  5
383
100
AcDbEntity
  8
holes
 62
7
100
AcDbSpline
 70
8
 71
3
 72
8
 73
4
 74
0
 40
0
 40
0
 40
0
 40
0
 40
1
 40
1
 40
1
 40
1
 10
36.728498
 20
676.814194
 30
0.0
 10
39.058449
 20
676.814194
 30
0.0
 10
40.947248
 20
674.925395
 30
0.0
 10
40.947248
 20
672.595444
 30
0.0
  0
LWPOLYLINE
  5
384
100
AcDbEntity
  8
holes
 62
7
100
AcDbPolyline
 90
1
 70
1
 10
50.974898
 20
724.990365
 30
0.0
  0
SPLINE
  5
385
100
AcDbEntity
  8
holes
 62
7
100
AcDbSpline
 70
8
 71
3
 72
8
 73
4
 74
0
 40
0
 40
0
 40
0
 40
0
 40
1
 40
1
 40
1
 40
1
 10
41.054936
 20
683.602231
 30
0.0
 10
41.054936
 20
682.095017
 30
0.0
 10
40.250847
 20
680.702294
 30
0.0
 10
38.945561
 20
679.948687
 30
0.0
  0
SPLINE
  5
386
100
AcDbEntity
  8
holes
 62
7
100
AcDbSpline
 70
8
 71
3
 72
8
 73
4
 74
0
 40
0
 40
0
 40
0
 40
0
 40
1
 40
1
 40
1
 40
1
 10
38.945561
 20
679.948687
 30
0.0
 10
37.640276
 20
679.195080
 30
0.0
 10
36.032097
 20
679.195080
 30
0.0
 10
34.726812
 20
679.948687
 30
0.0
  0
SPLINE
  5
387
100
AcDbEntity
  8
holes
 62
7
100
AcDbSpline
 70
8
 71
3
 72
8
 73
4
 74
0
 40
0
 40
0
 40
0
 40
0
 40
1
 40
1
 40
1
 40
1
 10
34.726812
 20
679.948687
 30
0.0
 10
33.421526
 20
680.702294
 30
0.0
 10
32.617437
 20
682.095017
 30
0.0
 10
32.617437
 20
683.602231
 30
0.0
  0
SPLINE
  5
388
100
AcDbEntity
  8
holes
 62
7
100
AcDbSpline
 70
8
 71
3
 72
8
 73
4
 74
0
 40
0
 40
0
 40
0
 40
0
 40
1
 40
1
 40
1
 40
1
 10
32.617437
 20
683.602231
 30
0.0
 10
32.617437
 20
685.932182
 30
0.0
 10
34.506235
 20
687.820981
 30
0.0
 10
36.836186
 20
687.820981
 30
0.0
  0
SPLINE
  5
389
100
AcDbEntity
  8
holes
 62
7
100
AcDbSpline
 70
8
 71
3
 72
8
 73
4
 74
0
 40
0
 40
0
 40
0
 40
0
 40
1
 40
1
 40
1
 40
1
 10
36.836186
 20
687.820981
 30
0.0
 10
39.166138
 20
687.820981
 30
0.0
 10
41.054936
 20
685.932182
 30
0.0
 10
41.054936
 20
683.602231
 30
0.0
  0
LWPOLYLINE
  5
38a
100
AcDbEntity
  8
holes
 62
7
100
AcDbPolyline
 90
1
 70
1
 10
40.947248
 20
672.595444
 30
0.0
  0
SPLINE
  5
38b
100
AcDbEntity
  8
holes
 62
7
100
AcDbSpline
 70
8
 71
3
 72
8
 73
4
 74
0
 40
0
 40
0
 40
0
 40
0
 40
1
 40
1
 40
1
 40
1
 10
41.074640
 20
695.445015
 30
0.0
 10
41.074640
 20
693.937801
 30
0.0
 10
40.270551
 20
692.545078
 30
0.0
 10
38.965265
 20
691.791471
 30
0.0
  0
SPLINE
  5
38c
100
AcDbEntity
  8
holes
 62
7
100
AcDbSpline
 70
8
 71
3
 72
8
 73
4
 74
0
 40
0
 40
0
 40
0
 40
0
 40
1
 40
1
 40
1
 40
1
 10
38.965265
 20
691.791471
 30
0.0
 10
37.659979
 20
691.037864
 30
0.0
 10
36.051801
 20
691.037864
 30
0.0
 10
34.746515
 20
691.791471
 30
0.0
  0
SPLINE
  5
38d
100
AcDbEntity
  8
holes
 62
7
100
AcDbSpline
 70
8
 71
3
 72
8
 73
4
 74
0
 40
0
 40
0
 40
0
 40
0
 40
1
 40
1
 40
1
 40
1
 10
34.746515
 20
691.791471
 30
0.0
 10
33.441229
 20
692.545078
 30
0.0
 10
32.637140
 20
693.937801
 30
0.0
 10
32.637140
 20
695.445015
 30
0.0
  0
SPLINE
  5
38e
100
AcDbEntity
  8
holes
 62
7
100
AcDbSpline
 70
8
 71
3
 72
8
 73
4
 74
0
 40
0
 40
0
 40
0
 40
0
 40
1
 40
1
 40
1
 40
1
 10
32.637140
 20
695.445015
 30
0.0
 10
32.637140
 20
696.952229
 30
0.0
 10
33.441229
 20
698.344953
 30
0.0
 10
34.746515
 20
699.098560
 30
0.0
  0
SPLINE
  5
38f
100
AcDbEntity
  8
holes
 62
7
100
AcDbSpline
 70
8
 71
3
 72
8
 73
4
 74
0
 40
0
 40
0
 40
0
 40
0
 40
1
 40
1
 40
1
 40
1
 10
34.746515
 20
699.098560
 30
0.0
 10
36.051801
 20
699.852167
 30
0.0
 10
37.659979
 20
699.852167
 30
0.0
 10
38.965265
 20
699.098560
 30
0.0
  0
SPLINE
  5
390
100
AcDbEntity
  8
holes
 62
7
100
AcDbSpline
 70
8
 71
3
 72
8
 73
4
 74
0
 40
0
 40
0
 40
0
 40
0
 40
1
 40
1
 40
1
 40
1
 10
38.965265
 20
699.098560
 30
0.0
 10
40.270551
 20
698.344953
 30
0.0
 10
41.074640
 20
696.952229
 30
0.0
 10
41.074640
 20
695.445015
 30
0.0
  0
LWPOLYLINE
  5
391
100
AcDbEntity
  8
holes
 62
7
100
AcDbPolyline
 90
1
 70
1
 10
41.054936
 20
683.602231
 30
0.0
  0
SPLINE
  5
392
100
AcDbEntity
  8
holes
 62
7
100
AcDbSpline
 70
8
 71
3
 72
8
 73
4
 74
0
 40
0
 40
0
 40
0
 40
0
 40
1
 40
1
 40
1
 40
1
 10
40.914463
 20
707.153975
 30
0.0
 10
40.914463
 20
705.646761
 30
0.0
 10
40.110373
 20
704.254038
 30
0.0
 10
38.805088
 20
703.500431
 30
0.0
  0
SPLINE
  5
393
100
AcDbEntity
  8
holes
 62
7
100
AcDbSpline
 70
8
 71
3
 72
8
 73
4
 74
0
 40
0
 40
0
 40
0
 40
0
 40
1
 40
1
 40
1
 40
1
 10
38.805088
 20
703.500431
 30
0.0
 10
37.499802
 20
702.746824
 30
0.0
 10
35.891624
 20
702.746824
 30
0.0
 10
34.586338
 20
703.500431
 30
0.0
  0
SPLINE
  5
394
100
AcDbEntity
  8
holes
 62
7
100
AcDbSpline
 70
8
 71
3
 72
8
 73
4
 74
0
 40
0
 40
0
 40
0
 40
0
 40
1
 40
1
 40
1
 40
1
 10
34.586338
 20
703.500431
 30
0.0
 10
33.281052
 20
704.254038
 30
0.0
 10
32.476963
 20
705.646761
 30
0.0
 10
32.476963
 20
707.153975
 30
0.0
  0
SPLINE
  5
395
100
AcDbEntity
  8
holes
 62
7
100
AcDbSpline
 70
8
 71
3
 72
8
 73
4
 74
0
 40
0
 40
0
 40
0
 40
0
 40
1
 40
1
 40
1
 40
1
 10
32.476963
 20
707.153975
 30
0.0
 10
32.476963
 20
708.661190
 30
0.0
 10
33.281052
 20
710.053913
 30
0.0
 10
34.586338
 20
710.807520
 30
0.0
  0
SPLINE
  5
396
100
AcDbEntity
  8
holes
 62
7
100
AcDbSpline
 70
8
 71
3
 72
8
 73
4
 74
0
 40
0
 40
0
 40
0
 40
0
 40
1
 40
1
 40
1
 40
1
 10
34.586338
 20
710.807520
 30
0.0
 10
35.891624
 20
711.561127
 30
0.0
 10
37.499802
 20
711.561127
 30
0.0
 10
38.805088
 20
710.807520
 30
0.0
  0
SPLINE
  5
397
100
AcDbEntity
  8
holes
 62
7
100
AcDbSpline
 70
8
 71
3
 72
8
 73
4
 74
0
 40
0
 40
0
 40
0
 40
0
 40
1
 40
1
 40
1
 40
1
 10
38.805088
 20
710.807520
 30
0.0
 10
40.110373
 20
710.053913
 30
0.0
 10
40.914463
 20
708.661190
 30
0.0
 10
40.914463
 20
707.153975
 30
0.0
  0
LWPOLYLINE
  5
398
100
AcDbEntity
  8
holes
 62
7
100
AcDbPolyline
 90
1
 70
1
 10
41.074640
 20
695.445015
 30
0.0
  0
SPLINE
  5
399
100
AcDbEntity
  8
holes
 62
7
100
AcDbSpline
 70
8
 71
3
 72
8
 73
4
 74
0
 40
0
 40
0
 40
0
 40
0
 40
1
 40
1
 40
1
 40
1
 10
40.976184
 20
718.604498
 30
0.0
 10
40.976184
 20
717.097284
 30
0.0
 10
40.172095
 20
715.704561
 30
0.0
 10
38.866809
 20
714.950954
 30
0.0
  0
SPLINE
  5
39a
100
AcDbEntity
  8
holes
 62
7
100
AcDbSpline
 70
8
 71
3
 72
8
 73
4
 74
0
 40
0
 40
0
 40
0
 40
0
 40
1
 40
1
 40
1
 40
1
 10
38.866809
 20
714.950954
 30
0.0
 10
37.561524
 20
714.197347
 30
0.0
 10
35.953345
 20
714.197347
 30
0.0
 10
34.648059
 20
714.950954
 30
0.0
  0
SPLINE
  5
39b
100
AcDbEntity
  8
holes
 62
7
100
AcDbSpline
 70
8
 71
3
 72
8
 73
4
 74
0
 40
0
 40
0
 40
0
 40
0
 40
1
 40
1
 40
1
 40
1
 10
34.648059
 20
714.950954
 30
0.0
 10
33.342774
 20
715.704561
 30
0.0
 10
32.538684
 20
717.097284
 30
0.0
 10
32.538684
 20
718.604498
 30
0.0
  0
SPLINE
  5
39c
100
AcDbEntity
  8
holes
 62
7
100
AcDbSpline
 70
8
 71
3
 72
8
 73
4
 74
0
 40
0
 40
0
 40
0
 40
0
 40
1
 40
1
 40
1
 40
1
 10
32.538684
 20
718.604498
 30
0.0
 10
32.538685
 20
720.934449
 30
0.0
 10
34.427483
 20
722.823248
 30
0.0
 10
36.757434
 20
722.823248
 30
0.0
  0
SPLINE
  5
39d
100
AcDbEntity
  8
holes
 62
7
100
AcDbSpline
 70
8
 71
3
 72
8
 73
4
 74
0
 40
0
 40
0
 40
0
 40
0
 40
1
 40
1
 40
1
 40
1
 10
36.757434
 20
722.823248
 30
0.0
 10
39.087385
 20
722.823248
 30
0.0
 10
40.976184
 20
720.934449
 30
0.0
 10
40.976184
 20
718.604498
 30
0.0
  0
LWPOLYLINE
  5
39e
100
AcDbEntity
  8
holes
 62
7
100
AcDbPolyline
 90
1
 70
1
 10
40.914463
 20
707.153975
 30
0.0
  0
SPLINE
  5
39f
100
AcDbEntity
  8
holes
 62
7
100
AcDbSpline
 70
8
 71
3
 72
8
 73
4
 74
0
 40
0
 40
0
 40
0
 40
0
 40
1
 40
1
 40
1
 40
1
 10
41.116380
 20
730.391834
 30
0.0
 10
41.116380
 20
728.884620
 30
0.0
 10
40.312291
 20
727.491896
 30
0.0
 10
39.007005
 20
726.738289
 30
0.0
  0
SPLINE
  5
3a0
100
AcDbEntity
  8
holes
 62
7
100
AcDbSpline
 70
8
 71
3
 72
8
 73
4
 74
0
 40
0
 40
0
 40
0
 40
0
 40
1
 40
1
 40
1
 40
1
 10
39.007005
 20
726.738289
 30
0.0
 10
37.701719
 20
725.984682
 30
0.0
 10
36.093541
 20
725.984682
 30
0.0
 10
34.788255
 20
726.738289
 30
0.0
  0
SPLINE
  5
3a1
100
AcDbEntity
  8
holes
 62
7
100
AcDbSpline
 70
8
 71
3
 72
8
 73
4
 74
0
 40
0
 40
0
 40
0
 40
0
 40
1
 40
1
 40
1
 40
1
 10
34.788255
 20
726.738289
 30
0.0
 10
33.482970
 20
727.491896
 30
0.0
 10
32.678880
 20
728.884620
 30
0.0
 10
32.678880
 20
730.391834
 30
0.0
  0
SPLINE
  5
3a2
100
AcDbEntity
  8
holes
 62
7
100
AcDbSpline
 70
8
 71
3
 72
8
 73
4
 74
0
 40
0
 40
0
 40
0
 40
0
 40
1
 40
1
 40
1
 40
1
 10
32.678880
 20
730.391834
 30
0.0
 10
32.678880
 20
731.899048
 30
0.0
 10
33.482970
 20
733.291771
 30
0.0
 10
34.788255
 20
734.045378
 30
0.0
  0
SPLINE
  5
3a3
100
AcDbEntity
  8
holes
 62
7
100
AcDbSpline
 70
8
 71
3
 72
8
 73
4
 74
0
 40
0
 40
0
 40
0
 40
0
 40
1
 40
1
 40
1
 40
1
 10
34.788255
 20
734.045378
 30
0.0
 10
36.093541
 20
734.798985
 30
0.0
 10
37.701719
 20
734.798985
 30
0.0
 10
39.007005
 20
734.045378
 30
0.0
  0
SPLINE
  5
3a4
100
AcDbEntity
  8
holes
 62
7
100
AcDbSpline
 70
8
 71
3
 72
8
 73
4
 74
0
 40
0
 40
0
 40
0
 40
0
 40
1
 40
1
 40
1
 40
1
 10
39.007005
 20
734.045378
 30
0.0
 10
40.312291
 20
733.291771
 30
0.0
 10
41.116380
 20
731.899048
 30
0.0
 10
41.116380
 20
730.391834
 30
0.0
  0
LWPOLYLINE
  5
3a5
100
AcDbEntity
  8
holes
 62
7
100
AcDbPolyline
 90
1
 70
1
 10
40.976184
 20
718.604498
 30
0.0
  0
SPLINE
  5
3a6
100
AcDbEntity
  8
holes
 62
7
100
AcDbSpline
 70
8
 71
3
 72
8
 73
4
 74
0
 40
0
 40
0
 40
0
 40
0
 40
1
 40
1
 40
1
 40
1
 10
30.817377
 20
676.736099
 30
0.0
 10
30.817377
 20
675.228884
 30
0.0
 10
30.013288
 20
673.836161
 30
0.0
 10
28.708002
 20
673.082554
 30
0.0
  0
SPLINE
  5
3a7
100
AcDbEntity
  8
holes
 62
7
100
AcDbSpline
 70
8
 71
3
 72
8
 73
4
 74
0
 40
0
 40
0
 40
0
 40
0
 40
1
 40
1
 40
1
 40
1
 10
28.708002
 20
673.082554
 30
0.0
 10
27.402717
 20
672.328947
 30
0.0
 10
25.794538
 20
672.328947
 30
0.0
 10
24.489253
 20
673.082554
 30
0.0
  0
SPLINE
  5
3a8
100
AcDbEntity
  8
holes
 62
7
100
AcDbSpline
 70
8
 71
3
 72
8
 73
4
 74
0
 40
0
 40
0
 40
0
 40
0
 40
1
 40
1
 40
1
 40
1
 10
24.489253
 20
673.082554
 30
0.0
 10
23.183967
 20
673.836161
 30
0.0
 10
22.379878
 20
675.228884
 30
0.0
 10
22.379878
 20
676.736099
 30
0.0
  0
SPLINE
  5
3a9
100
AcDbEntity
  8
holes
 62
7
100
AcDbSpline
 70
8
 71
3
 72
8
 73
4
 74
0
 40
0
 40
0
 40
0
 40
0
 40
1
 40
1
 40
1
 40
1
 10
22.379878
 20
676.736099
 30
0.0
 10
22.379878
 20
678.243313
 30
0.0
 10
23.183967
 20
679.636036
 30
0.0
 10
24.489253
 20
680.389643
 30
0.0
  0
SPLINE
  5
3aa
100
AcDbEntity
  8
holes
 62
7
100
AcDbSpline
 70
8
 71
3
 72
8
 73
4
 74
0
 40
0
 40
0
 40
0
 40
0
 40
1
 40
1
 40
1
 40
1
 10
24.489253
 20
680.389643
 30
0.0
 10
25.794538
 20
681.143250
 30
0.0
 10
27.402717
 20
681.143250
 30
0.0
 10
28.708002
 20
680.389643
 30
0.0
  0
SPLINE
  5
3ab
100
AcDbEntity
  8
holes
 62
7
100
AcDbSpline
 70
8
 71
3
 72
8
 73
4
 74
0
 40
0
 40
0
 40
0
 40
0
 40
1
 40
1
 40
1
 40
1
 10
28.708002
 20
680.389643
 30
0.0
 10
30.013288
 20
679.636036
 30
0.0
 10
30.817377
 20
678.243313
 30
0.0
 10
30.817377
 20
676.736099
 30
0.0
  0
LWPOLYLINE
  5
3ac
100
AcDbEntity
  8
holes
 62
7
100
AcDbPolyline
 90
1
 70
1
 10
41.116380
 20
730.391834
 30
0.0
  0
SPLINE
  5
3ad
100
AcDbEntity
  8
holes
 62
7
100
AcDbSpline
 70
8
 71
3
 72
8
 73
4
 74
0
 40
0
 40
0
 40
0
 40
0
 40
1
 40
1
 40
1
 40
1
 10
30.837079
 20
688.578820
 30
0.0
 10
30.837079
 20
687.071606
 30
0.0
 10
30.032990
 20
685.678883
 30
0.0
 10
28.727704
 20
684.925276
 30
0.0
  0
SPLINE
  5
3ae
100
AcDbEntity
  8
holes
 62
7
100
AcDbSpline
 70
8
 71
3
 72
8
 73
4
 74
0
 40
0
 40
0
 40
0
 40
0
 40
1
 40
1
 40
1
 40
1
 10
28.727704
 20
684.925276
 30
0.0
 10
27.422419
 20
684.171669
 30
0.0
 10
25.814240
 20
684.171669
 30
0.0
 10
24.508954
 20
684.925276
 30
0.0
  0
SPLINE
  5
3af
100
AcDbEntity
  8
holes
 62
7
100
AcDbSpline
 70
8
 71
3
 72
8
 73
4
 74
0
 40
0
 40
0
 40
0
 40
0
 40
1
 40
1
 40
1
 40
1
 10
24.508954
 20
684.925276
 30
0.0
 10
23.203669
 20
685.678883
 30
0.0
 10
22.399580
 20
687.071606
 30
0.0
 10
22.399580
 20
688.578820
 30
0.0
  0
SPLINE
  5
3b0
100
AcDbEntity
  8
holes
 62
7
100
AcDbSpline
 70
8
 71
3
 72
8
 73
4
 74
0
 40
0
 40
0
 40
0
 40
0
 40
1
 40
1
 40
1
 40
1
 10
22.399580
 20
688.578820
 30
0.0
 10
22.399580
 20
690.086034
 30
0.0
 10
23.203669
 20
691.478758
 30
0.0
 10
24.508954
 20
692.232365
 30
0.0
  0
SPLINE
  5
3b1
100
AcDbEntity
  8
holes
 62
7
100
AcDbSpline
 70
8
 71
3
 72
8
 73
4
 74
0
 40
0
 40
0
 40
0
 40
0
 40
1
 40
1
 40
1
 40
1
 10
24.508954
 20
692.232365
 30
0.0
 10
25.814240
 20
692.985972
 30
0.0
 10
27.422419
 20
692.985972
 30
0.0
 10
28.727704
 20
692.232365
 30
0.0
  0
SPLINE
  5
3b2
100
AcDbEntity
  8
holes
 62
7
100
AcDbSpline
 70
8
 71
3
 72
8
 73
4
 74
0
 40
0
 40
0
 40
0
 40
0
 40
1
 40
1
 40
1
 40
1
 10
28.727704
 20
692.232365
 30
0.0
 10
30.032990
 20
691.478758
 30
0.0
 10
30.837079
 20
690.086034
 30
0.0
 10
30.837079
 20
688.578820
 30
0.0
  0
LWPOLYLINE
  5
3b3
100
AcDbEntity
  8
holes
 62
7
100
AcDbPolyline
 90
1
 70
1
 10
30.817377
 20
676.736099
 30
0.0
  0
SPLINE
  5
3b4
100
AcDbEntity
  8
holes
 62
7
100
AcDbSpline
 70
8
 71
3
 72
8
 73
4
 74
0
 40
0
 40
0
 40
0
 40
0
 40
1
 40
1
 40
1
 40
1
 10
30.676902
 20
700.287780
 30
0.0
 10
30.676902
 20
698.780566
 30
0.0
 10
29.872812
 20
697.387843
 30
0.0
 10
28.567527
 20
696.634236
 30
0.0
  0
SPLINE
  5
3b5
100
AcDbEntity
  8
holes
 62
7
100
AcDbSpline
 70
8
 71
3
 72
8
 73
4
 74
0
 40
0
 40
0
 40
0
 40
0
 40
1
 40
1
 40
1
 40
1
 10
28.567527
 20
696.634236
 30
0.0
 10
27.262241
 20
695.880629
 30
0.0
 10
25.654063
 20
695.880629
 30
0.0
 10
24.348777
 20
696.634236
 30
0.0
  0
SPLINE
  5
3b6
100
AcDbEntity
  8
holes
 62
7
100
AcDbSpline
 70
8
 71
3
 72
8
 73
4
 74
0
 40
0
 40
0
 40
0
 40
0
 40
1
 40
1
 40
1
 40
1
 10
24.348777
 20
696.634236
 30
0.0
 10
23.043491
 20
697.387843
 30
0.0
 10
22.239402
 20
698.780566
 30
0.0
 10
22.239402
 20
700.287780
 30
0.0
  0
SPLINE
  5
3b7
100
AcDbEntity
  8
holes
 62
7
100
AcDbSpline
 70
8
 71
3
 72
8
 73
4
 74
0
 40
0
 40
0
 40
0
 40
0
 40
1
 40
1
 40
1
 40
1
 10
22.239402
 20
700.287780
 30
0.0
 10
22.239402
 20
701.794995
 30
0.0
 10
23.043491
 20
703.187718
 30
0.0
 10
24.348777
 20
703.941325
 30
0.0
  0
SPLINE
  5
3b8
100
AcDbEntity
  8
holes
 62
7
100
AcDbSpline
 70
8
 71
3
 72
8
 73
4
 74
0
 40
0
 40
0
 40
0
 40
0
 40
1
 40
1
 40
1
 40
1
 10
24.348777
 20
703.941325
 30
0.0
 10
25.654063
 20
704.694932
 30
0.0
 10
27.262241
 20
704.694932
 30
0.0
 10
28.567527
 20
703.941325
 30
0.0
  0
SPLINE
  5
3b9
100
AcDbEntity
  8
holes
 62
7
100
AcDbSpline
 70
8
 71
3
 72
8
 73
4
 74
0
 40
0
 40
0
 40
0
 40
0
 40
1
 40
1
 40
1
 40
1
 10
28.567527
 20
703.941325
 30
0.0
 10
29.872812
 20
703.187718
 30
0.0
 10
30.676902
 20
701.794995
 30
0.0
 10
30.676902
 20
700.287780
 30
0.0
  0
LWPOLYLINE
  5
3ba
100
AcDbEntity
  8
holes
 62
7
100
AcDbPolyline
 90
1
 70
1
 10
30.837079
 20
688.578820
 30
0.0
  0
SPLINE
  5
3bb
100
AcDbEntity
  8
holes
 62
7
100
AcDbSpline
 70
8
 71
3
 72
8
 73
4
 74
0
 40
0
 40
0
 40
0
 40
0
 40
1
 40
1
 40
1
 40
1
 10
30.738624
 20
711.738303
 30
0.0
 10
30.738624
 20
710.231089
 30
0.0
 10
29.934535
 20
708.838366
 30
0.0
 10
28.629249
 20
708.084759
 30
0.0
  0
SPLINE
  5
3bc
100
AcDbEntity
  8
holes
 62
7
100
AcDbSpline
 70
8
 71
3
 72
8
 73
4
 74
0
 40
0
 40
0
 40
0
 40
0
 40
1
 40
1
 40
1
 40
1
 10
28.629249
 20
708.084759
 30
0.0
 10
27.323963
 20
707.331152
 30
0.0
 10
25.715785
 20
707.331152
 30
0.0
 10
24.410499
 20
708.084759
 30
0.0
  0
SPLINE
  5
3bd
100
AcDbEntity
  8
holes
 62
7
100
AcDbSpline
 70
8
 71
3
 72
8
 73
4
 74
0
 40
0
 40
0
 40
0
 40
0
 40
1
 40
1
 40
1
 40
1
 10
24.410499
 20
708.084759
 30
0.0
 10
23.105214
 20
708.838366
 30
0.0
 10
22.301124
 20
710.231089
 30
0.0
 10
22.301124
 20
711.738303
 30
0.0
  0
SPLINE
  5
3be
100
AcDbEntity
  8
holes
 62
7
100
AcDbSpline
 70
8
 71
3
 72
8
 73
4
 74
0
 40
0
 40
0
 40
0
 40
0
 40
1
 40
1
 40
1
 40
1
 10
22.301124
 20
711.738303
 30
0.0
 10
22.301124
 20
713.245517
 30
0.0
 10
23.105214
 20
714.638241
 30
0.0
 10
24.410499
 20
715.391848
 30
0.0
  0
SPLINE
  5
3bf
100
AcDbEntity
  8
holes
 62
7
100
AcDbSpline
 70
8
 71
3
 72
8
 73
4
 74
0
 40
0
 40
0
 40
0
 40
0
 40
1
 40
1
 40
1
 40
1
 10
24.410499
 20
715.391848
 30
0.0
 10
25.715785
 20
716.145455
 30
0.0
 10
27.323963
 20
716.145455
 30
0.0
 10
28.629249
 20
715.391848
 30
0.0
  0
SPLINE
  5
3c0
100
AcDbEntity
  8
holes
 62
7
100
AcDbSpline
 70
8
 71
3
 72
8
 73
4
 74
0
 40
0
 40
0
 40
0
 40
0
 40
1
 40
1
 40
1
 40
1
 10
28.629249
 20
715.391848
 30
0.0
 10
29.934535
 20
714.638241
 30
0.0
 10
30.738624
 20
713.245517
 30
0.0
 10
30.738624
 20
711.738303
 30
0.0
  0
LWPOLYLINE
  5
3c1
100
AcDbEntity
  8
holes
 62
7
100
AcDbPolyline
 90
1
 70
1
 10
30.676902
 20
700.287780
 30
0.0
  0
SPLINE
  5
3c2
100
AcDbEntity
  8
holes
 62
7
100
AcDbSpline
 70
8
 71
3
 72
8
 73
4
 74
0
 40
0
 40
0
 40
0
 40
0
 40
1
 40
1
 40
1
 40
1
 10
30.878808
 20
723.525639
 30
0.0
 10
30.878808
 20
722.018425
 30
0.0
 10
30.074719
 20
720.625701
 30
0.0
 10
28.769433
 20
719.872094
 30
0.0
  0
SPLINE
  5
3c3
100
AcDbEntity
  8
holes
 62
7
100
AcDbSpline
 70
8
 71
3
 72
8
 73
4
 74
0
 40
0
 40
0
 40
0
 40
0
 40
1
 40
1
 40
1
 40
1
 10
28.769433
 20
719.872094
 30
0.0
 10
27.464147
 20
719.118487
 30
0.0
 10
25.855969
 20
719.118487
 30
0.0
 10
24.550683
 20
719.872094
 30
0.0
  0
SPLINE
  5
3c4
100
AcDbEntity
  8
holes
 62
7
100
AcDbSpline
 70
8
 71
3
 72
8
 73
4
 74
0
 40
0
 40
0
 40
0
 40
0
 40
1
 40
1
 40
1
 40
1
 10
24.550683
 20
719.872094
 30
0.0
 10
23.245397
 20
720.625701
 30
0.0
 10
22.441308
 20
722.018425
 30
0.0
 10
22.441308
 20
723.525639
 30
0.0
  0
SPLINE
  5
3c5
100
AcDbEntity
  8
holes
 62
7
100
AcDbSpline
 70
8
 71
3
 72
8
 73
4
 74
0
 40
0
 40
0
 40
0
 40
0
 40
1
 40
1
 40
1
 40
1
 10
22.441308
 20
723.525639
 30
0.0
 10
22.441308
 20
725.032853
 30
0.0
 10
23.245397
 20
726.425576
 30
0.0
 10
24.550683
 20
727.179183
 30
0.0
  0
SPLINE
  5
3c6
100
AcDbEntity
  8
holes
 62
7
100
AcDbSpline
 70
8
 71
3
 72
8
 73
4
 74
0
 40
0
 40
0
 40
0
 40
0
 40
1
 40
1
 40
1
 40
1
 10
24.550683
 20
727.179183
 30
0.0
 10
25.855969
 20
727.932790
 30
0.0
 10
27.464147
 20
727.932790
 30
0.0
 10
28.769433
 20
727.179183
 30
0.0
  0
SPLINE
  5
3c7
100
AcDbEntity
  8
holes
 62
7
100
AcDbSpline
 70
8
 71
3
 72
8
 73
4
 74
0
 40
0
 40
0
 40
0
 40
0
 40
1
 40
1
 40
1
 40
1
 10
28.769433
 20
727.179183
 30
0.0
 10
30.074719
 20
726.425576
 30
0.0
 10
30.878808
 20
725.032853
 30
0.0
 10
30.878808
 20
723.525639
 30
0.0
  0
LWPOLYLINE
  5
3c8
100
AcDbEntity
  8
holes
 62
7
100
AcDbPolyline
 90
1
 70
1
 10
30.738624
 20
711.738303
 30
0.0
  0
SPLINE
  5
3c9
100
AcDbEntity
  8
holes
 62
7
100
AcDbSpline
 70
8
 71
3
 72
8
 73
4
 74
0
 40
0
 40
0
 40
0
 40
0
 40
1
 40
1
 40
1
 40
1
 10
20.230481
 20
682.507230
 30
0.0
 10
20.230481
 20
681.000016
 30
0.0
 10
19.426392
 20
679.607293
 30
0.0
 10
18.121106
 20
678.853686
 30
0.0
  0
SPLINE
  5
3ca
100
AcDbEntity
  8
holes
 62
7
100
AcDbSpline
 70
8
 71
3
 72
8
 73
4
 74
0
 40
0
 40
0
 40
0
 40
0
 40
1
 40
1
 40
1
 40
1
 10
18.121106
 20
678.853686
 30
0.0
 10
16.815820
 20
678.100079
 30
0.0
 10
15.207642
 20
678.100079
 30
0.0
 10
13.902356
 20
678.853686
 30
0.0
  0
SPLINE
  5
3cb
100
AcDbEntity
  8
holes
 62
7
100
AcDbSpline
 70
8
 71
3
 72
8
 73
4
 74
0
 40
0
 40
0
 40
0
 40
0
 40
1
 40
1
 40
1
 40
1
 10
13.902356
 20
678.853686
 30
0.0
 10
12.597070
 20
679.607293
 30
0.0
 10
11.792981
 20
681.000016
 30
0.0
 10
11.792981
 20
682.507230
 30
0.0
  0
SPLINE
  5
3cc
100
AcDbEntity
  8
holes
 62
7
100
AcDbSpline
 70
8
 71
3
 72
8
 73
4
 74
0
 40
0
 40
0
 40
0
 40
0
 40
1
 40
1
 40
1
 40
1
 10
11.792981
 20
682.507230
 30
0.0
 10
11.792981
 20
684.837181
 30
0.0
 10
13.681780
 20
686.725980
 30
0.0
 10
16.011731
 20
686.725980
 30
0.0
  0
SPLINE
  5
3cd
100
AcDbEntity
  8
holes
 62
7
100
AcDbSpline
 70
8
 71
3
 72
8
 73
4
 74
0
 40
0
 40
0
 40
0
 40
0
 40
1
 40
1
 40
1
 40
1
 10
16.011731
 20
686.725980
 30
0.0
 10
18.341682
 20
686.725980
 30
0.0
 10
20.230481
 20
684.837181
 30
0.0
 10
20.230481
 20
682.507230
 30
0.0
  0
LWPOLYLINE
  5
3ce
100
AcDbEntity
  8
holes
 62
7
100
AcDbPolyline
 90
1
 70
1
 10
30.878808
 20
723.525639
 30
0.0
  0
SPLINE
  5
3cf
100
AcDbEntity
  8
holes
 62
7
100
AcDbSpline
 70
8
 71
3
 72
8
 73
4
 74
0
 40
0
 40
0
 40
0
 40
0
 40
1
 40
1
 40
1
 40
1
 10
20.070293
 20
694.216191
 30
0.0
 10
20.070293
 20
692.708976
 30
0.0
 10
19.266203
 20
691.316253
 30
0.0
 10
17.960918
 20
690.562646
 30
0.0
  0
SPLINE
  5
3d0
100
AcDbEntity
  8
holes
 62
7
100
AcDbSpline
 70
8
 71
3
 72
8
 73
4
 74
0
 40
0
 40
0
 40
0
 40
0
 40
1
 40
1
 40
1
 40
1
 10
17.960918
 20
690.562646
 30
0.0
 10
16.655632
 20
689.809039
 30
0.0
 10
15.047453
 20
689.809039
 30
0.0
 10
13.742168
 20
690.562646
 30
0.0
  0
SPLINE
  5
3d1
100
AcDbEntity
  8
holes
 62
7
100
AcDbSpline
 70
8
 71
3
 72
8
 73
4
 74
0
 40
0
 40
0
 40
0
 40
0
 40
1
 40
1
 40
1
 40
1
 10
13.742168
 20
690.562646
 30
0.0
 10
12.436882
 20
691.316253
 30
0.0
 10
11.632793
 20
692.708976
 30
0.0
 10
11.632793
 20
694.216191
 30
0.0
  0
SPLINE
  5
3d2
100
AcDbEntity
  8
holes
 62
7
100
AcDbSpline
 70
8
 71
3
 72
8
 73
4
 74
0
 40
0
 40
0
 40
0
 40
0
 40
1
 40
1
 40
1
 40
1
 10
11.632793
 20
694.216191
 30
0.0
 10
11.632793
 20
696.546142
 30
0.0
 10
13.521592
 20
698.434940
 30
0.0
 10
15.851543
 20
698.434940
 30
0.0
  0
SPLINE
  5
3d3
100
AcDbEntity
  8
holes
 62
7
100
AcDbSpline
 70
8
 71
3
 72
8
 73
4
 74
0
 40
0
 40
0
 40
0
 40
0
 40
1
 40
1
 40
1
 40
1
 10
15.851543
 20
698.434940
 30
0.0
 10
18.181494
 20
698.434940
 30
0.0
 10
20.070292
 20
696.546142
 30
0.0
 10
20.070293
 20
694.216191
 30
0.0
  0
LWPOLYLINE
  5
3d4
100
AcDbEntity
  8
holes
 62
7
100
AcDbPolyline
 90
1
 70
1
 10
20.230481
 20
682.507230
 30
0.0
  0
SPLINE
  5
3d5
100
AcDbEntity
  8
holes
 62
7
100
AcDbSpline
 70
8
 71
3
 72
8
 73
4
 74
0
 40
0
 40
0
 40
0
 40
0
 40
1
 40
1
 40
1
 40
1
 10
20.132026
 20
705.666713
 30
0.0
 10
20.132026
 20
704.159499
 30
0.0
 10
19.327937
 20
702.766776
 30
0.0
 10
18.022651
 20
702.013169
 30
0.0
  0
SPLINE
  5
3d6
100
AcDbEntity
  8
holes
 62
7
100
AcDbSpline
 70
8
 71
3
 72
8
 73
4
 74
0
 40
0
 40
0
 40
0
 40
0
 40
1
 40
1
 40
1
 40
1
 10
18.022651
 20
702.013169
 30
0.0
 10
16.717365
 20
701.259562
 30
0.0
 10
15.109187
 20
701.259562
 30
0.0
 10
13.803901
 20
702.013169
 30
0.0
  0
SPLINE
  5
3d7
100
AcDbEntity
  8
holes
 62
7
100
AcDbSpline
 70
8
 71
3
 72
8
 73
4
 74
0
 40
0
 40
0
 40
0
 40
0
 40
1
 40
1
 40
1
 40
1
 10
13.803901
 20
702.013169
 30
0.0
 10
12.498615
 20
702.766776
 30
0.0
 10
11.694526
 20
704.159499
 30
0.0
 10
11.694526
 20
705.666713
 30
0.0
  0
SPLINE
  5
3d8
100
AcDbEntity
  8
holes
 62
7
100
AcDbSpline
 70
8
 71
3
 72
8
 73
4
 74
0
 40
0
 40
0
 40
0
 40
0
 40
1
 40
1
 40
1
 40
1
 10
11.694526
 20
705.666713
 30
0.0
 10
11.694526
 20
707.996665
 30
0.0
 10
13.583325
 20
709.885463
 30
0.0
 10
15.913276
 20
709.885463
 30
0.0
  0
SPLINE
  5
3d9
100
AcDbEntity
  8
holes
 62
7
100
AcDbSpline
 70
8
 71
3
 72
8
 73
4
 74
0
 40
0
 40
0
 40
0
 40
0
 40
1
 40
1
 40
1
 40
1
 10
15.913276
 20
709.885463
 30
0.0
 10
18.243227
 20
709.885463
 30
0.0
 10
20.132026
 20
707.996665
 30
0.0
 10
20.132026
 20
705.666713
 30
0.0
  0
LWPOLYLINE
  5
3da
100
AcDbEntity
  8
holes
 62
7
100
AcDbPolyline
 90
1
 70
1
 10
20.070293
 20
694.216191
 30
0.0
  0
SPLINE
  5
3db
100
AcDbEntity
  8
holes
 62
7
100
AcDbSpline
 70
8
 71
3
 72
8
 73
4
 74
0
 40
0
 40
0
 40
0
 40
0
 40
1
 40
1
 40
1
 40
1
 10
20.272210
 20
717.454049
 30
0.0
 10
20.272210
 20
715.946835
 30
0.0
 10
19.468121
 20
714.554111
 30
0.0
 10
18.162835
 20
713.800504
 30
0.0
  0
SPLINE
  5
3dc
100
AcDbEntity
  8
holes
 62
7
100
AcDbSpline
 70
8
 71
3
 72
8
 73
4
 74
0
 40
0
 40
0
 40
0
 40
0
 40
1
 40
1
 40
1
 40
1
 10
18.162835
 20
713.800504
 30
0.0
 10
16.857549
 20
713.046897
 30
0.0
 10
15.249371
 20
713.046897
 30
0.0
 10
13.944085
 20
713.800504
 30
0.0
  0
SPLINE
  5
3dd
100
AcDbEntity
  8
holes
 62
7
100
AcDbSpline
 70
8
 71
3
 72
8
 73
4
 74
0
 40
0
 40
0
 40
0
 40
0
 40
1
 40
1
 40
1
 40
1
 10
13.944085
 20
713.800504
 30
0.0
 10
12.638799
 20
714.554111
 30
0.0
 10
11.834710
 20
715.946835
 30
0.0
 10
11.834710
 20
717.454049
 30
0.0
  0
SPLINE
  5
3de
100
AcDbEntity
  8
holes
 62
7
100
AcDbSpline
 70
8
 71
3
 72
8
 73
4
 74
0
 40
0
 40
0
 40
0
 40
0
 40
1
 40
1
 40
1
 40
1
 10
11.834710
 20
717.454049
 30
0.0
 10
11.834710
 20
718.961263
 30
0.0
 10
12.638799
 20
720.353986
 30
0.0
 10
13.944085
 20
721.107593
 30
0.0
  0
SPLINE
  5
3df
100
AcDbEntity
  8
holes
 62
7
100
AcDbSpline
 70
8
 71
3
 72
8
 73
4
 74
0
 40
0
 40
0
 40
0
 40
0
 40
1
 40
1
 40
1
 40
1
 10
13.944085
 20
721.107593
 30
0.0
 10
15.249371
 20
721.861200
 30
0.0
 10
16.857549
 20
721.861200
 30
0.0
 10
18.162835
 20
721.107593
 30
0.0
  0
SPLINE
  5
3e0
100
AcDbEntity
  8
holes
 62
7
100
AcDbSpline
 70
8
 71
3
 72
8
 73
4
 74
0
 40
0
 40
0
 40
0
 40
0
 40
1
 40
1
 40
1
 40
1
 10
18.162835
 20
721.107593
 30
0.0
 10
19.468121
 20
720.353986
 30
0.0
 10
20.272210
 20
718.961263
 30
0.0
 10
20.272210
 20
717.454049
 30
0.0
  0
LWPOLYLINE
  5
3e1
100
AcDbEntity
  8
holes
 62
7
100
AcDbPolyline
 90
1
 70
1
 10
20.132026
 20
705.666713
 30
0.0
  0
SPLINE
  5
3e2
100
AcDbEntity
  8
holes
 62
7
100
AcDbSpline
 70
8
 71
3
 72
8
 73
4
 74
0
 40
0
 40
0
 40
0
 40
0
 40
1
 40
1
 40
1
 40
1
 10
229.888201
 20
664.493134
 30
0.0
 10
229.888201
 20
662.985919
 30
0.0
 10
230.692291
 20
661.593196
 30
0.0
 10
231.997576
 20
660.839589
 30
0.0
  0
SPLINE
  5
3e3
100
AcDbEntity
  8
holes
 62
7
100
AcDbSpline
 70
8
 71
3
 72
8
 73
4
 74
0
 40
0
 40
0
 40
0
 40
0
 40
1
 40
1
 40
1
 40
1
 10
231.997576
 20
660.839589
 30
0.0
 10
233.302862
 20
660.085982
 30
0.0
 10
234.911040
 20
660.085982
 30
0.0
 10
236.216326
 20
660.839589
 30
0.0
  0
SPLINE
  5
3e4
100
AcDbEntity
  8
holes
 62
7
100
AcDbSpline
 70
8
 71
3
 72
8
 73
4
 74
0
 40
0
 40
0
 40
0
 40
0
 40
1
 40
1
 40
1
 40
1
 10
236.216326
 20
660.839589
 30
0.0
 10
237.521612
 20
661.593196
 30
0.0
 10
238.325701
 20
662.985919
 30
0.0
 10
238.325701
 20
664.493134
 30
0.0
  0
SPLINE
  5
3e5
100
AcDbEntity
  8
holes
 62
7
100
AcDbSpline
 70
8
 71
3
 72
8
 73
4
 74
0
 40
0
 40
0
 40
0
 40
0
 40
1
 40
1
 40
1
 40
1
 10
238.325701
 20
664.493134
 30
0.0
 10
238.325701
 20
666.000348
 30
0.0
 10
237.521612
 20
667.393071
 30
0.0
 10
236.216326
 20
668.146678
 30
0.0
  0
SPLINE
  5
3e6
100
AcDbEntity
  8
holes
 62
7
100
AcDbSpline
 70
8
 71
3
 72
8
 73
4
 74
0
 40
0
 40
0
 40
0
 40
0
 40
1
 40
1
 40
1
 40
1
 10
236.216326
 20
668.146678
 30
0.0
 10
234.911040
 20
668.900285
 30
0.0
 10
233.302862
 20
668.900285
 30
0.0
 10
231.997576
 20
668.146678
 30
0.0
  0
SPLINE
  5
3e7
100
AcDbEntity
  8
holes
 62
7
100
AcDbSpline
 70
8
 71
3
 72
8
 73
4
 74
0
 40
0
 40
0
 40
0
 40
0
 40
1
 40
1
 40
1
 40
1
 10
231.997576
 20
668.146678
 30
0.0
 10
230.692291
 20
667.393071
 30
0.0
 10
229.888201
 20
666.000348
 30
0.0
 10
229.888201
 20
664.493134
 30
0.0
  0
LWPOLYLINE
  5
3e8
100
AcDbEntity
  8
holes
 62
7
100
AcDbPolyline
 90
1
 70
1
 10
20.272210
 20
717.454049
 30
0.0
  0
SPLINE
  5
3e9
100
AcDbEntity
  8
holes
 62
7
100
AcDbSpline
 70
8
 71
3
 72
8
 73
4
 74
0
 40
0
 40
0
 40
0
 40
0
 40
1
 40
1
 40
1
 40
1
 10
231.174575
 20
735.747106
 30
0.0
 10
231.174575
 20
734.239892
 30
0.0
 10
231.978664
 20
732.847168
 30
0.0
 10
233.283950
 20
732.093561
 30
0.0
  0
SPLINE
  5
3ea
100
AcDbEntity
  8
holes
 62
7
100
AcDbSpline
 70
8
 71
3
 72
8
 73
4
 74
0
 40
0
 40
0
 40
0
 40
0
 40
1
 40
1
 40
1
 40
1
 10
233.283950
 20
732.093561
 30
0.0
 10
234.589236
 20
731.339954
 30
0.0
 10
236.197414
 20
731.339954
 30
0.0
 10
237.502700
 20
732.093561
 30
0.0
  0
SPLINE
  5
3eb
100
AcDbEntity
  8
holes
 62
7
100
AcDbSpline
 70
8
 71
3
 72
8
 73
4
 74
0
 40
0
 40
0
 40
0
 40
0
 40
1
 40
1
 40
1
 40
1
 10
237.502700
 20
732.093561
 30
0.0
 10
238.807985
 20
732.847168
 30
0.0
 10
239.612075
 20
734.239892
 30
0.0
 10
239.612075
 20
735.747106
 30
0.0
  0
SPLINE
  5
3ec
100
AcDbEntity
  8
holes
 62
7
100
AcDbSpline
 70
8
 71
3
 72
8
 73
4
 74
0
 40
0
 40
0
 40
0
 40
0
 40
1
 40
1
 40
1
 40
1
 10
239.612075
 20
735.747106
 30
0.0
 10
239.612075
 20
737.254320
 30
0.0
 10
238.807985
 20
738.647043
 30
0.0
 10
237.502700
 20
739.400650
 30
0.0
  0
SPLINE
  5
3ed
100
AcDbEntity
  8
holes
 62
7
100
AcDbSpline
 70
8
 71
3
 72
8
 73
4
 74
0
 40
0
 40
0
 40
0
 40
0
 40
1
 40
1
 40
1
 40
1
 10
237.502700
 20
739.400650
 30
0.0
 10
236.197414
 20
740.154257
 30
0.0
 10
234.589236
 20
740.154257
 30
0.0
 10
233.283950
 20
739.400650
 30
0.0
  0
SPLINE
  5
3ee
100
AcDbEntity
  8
holes
 62
7
100
AcDbSpline
 70
8
 71
3
 72
8
 73
4
 74
0
 40
0
 40
0
 40
0
 40
0
 40
1
 40
1
 40
1
 40
1
 10
233.283950
 20
739.400650
 30
0.0
 10
231.978664
 20
738.647043
 30
0.0
 10
231.174575
 20
737.254320
 30
0.0
 10
231.174575
 20
735.747106
 30
0.0
  0
LWPOLYLINE
  5
3ef
100
AcDbEntity
  8
holes
 62
7
100
AcDbPolyline
 90
1
 70
1
 10
229.888201
 20
664.493134
 30
0.0
  0
SPLINE
  5
3f0
100
AcDbEntity
  8
holes
 62
7
100
AcDbSpline
 70
8
 71
3
 72
8
 73
4
 74
0
 40
0
 40
0
 40
0
 40
0
 40
1
 40
1
 40
1
 40
1
 10
230.027414
 20
676.190741
 30
0.0
 10
230.027414
 20
674.683527
 30
0.0
 10
230.831503
 20
673.290804
 30
0.0
 10
232.136789
 20
672.537197
 30
0.0
  0
SPLINE
  5
3f1
100
AcDbEntity
  8
holes
 62
7
100
AcDbSpline
 70
8
 71
3
 72
8
 73
4
 74
0
 40
0
 40
0
 40
0
 40
0
 40
1
 40
1
 40
1
 40
1
 10
232.136789
 20
672.537197
 30
0.0
 10
233.442074
 20
671.783589
 30
0.0
 10
235.050253
 20
671.783589
 30
0.0
 10
236.355538
 20
672.537197
 30
0.0
  0
SPLINE
  5
3f2
100
AcDbEntity
  8
holes
 62
7
100
AcDbSpline
 70
8
 71
3
 72
8
 73
4
 74
0
 40
0
 40
0
 40
0
 40
0
 40
1
 40
1
 40
1
 40
1
 10
236.355538
 20
672.537197
 30
0.0
 10
237.660824
 20
673.290804
 30
0.0
 10
238.464913
 20
674.683527
 30
0.0
 10
238.464913
 20
676.190741
 30
0.0
  0
SPLINE
  5
3f3
100
AcDbEntity
  8
holes
 62
7
100
AcDbSpline
 70
8
 71
3
 72
8
 73
4
 74
0
 40
0
 40
0
 40
0
 40
0
 40
1
 40
1
 40
1
 40
1
 10
238.464913
 20
676.190741
 30
0.0
 10
238.464913
 20
677.697955
 30
0.0
 10
237.660824
 20
679.090679
 30
0.0
 10
236.355538
 20
679.844286
 30
0.0
  0
SPLINE
  5
3f4
100
AcDbEntity
  8
holes
 62
7
100
AcDbSpline
 70
8
 71
3
 72
8
 73
4
 74
0
 40
0
 40
0
 40
0
 40
0
 40
1
 40
1
 40
1
 40
1
 10
236.355538
 20
679.844286
 30
0.0
 10
235.050253
 20
680.597893
 30
0.0
 10
233.442074
 20
680.597893
 30
0.0
 10
232.136789
 20
679.844286
 30
0.0
  0
SPLINE
  5
3f5
100
AcDbEntity
  8
holes
 62
7
100
AcDbSpline
 70
8
 71
3
 72
8
 73
4
 74
0
 40
0
 40
0
 40
0
 40
0
 40
1
 40
1
 40
1
 40
1
 10
232.136789
 20
679.844286
 30
0.0
 10
230.831503
 20
679.090679
 30
0.0
 10
230.027414
 20
677.697955
 30
0.0
 10
230.027414
 20
676.190741
 30
0.0
  0
LWPOLYLINE
  5
3f6
100
AcDbEntity
  8
holes
 62
7
100
AcDbPolyline
 90
1
 70
1
 10
231.174575
 20
735.747106
 30
0.0
  0
SPLINE
  5
3f7
100
AcDbEntity
  8
holes
 62
7
100
AcDbSpline
 70
8
 71
3
 72
8
 73
4
 74
0
 40
0
 40
0
 40
0
 40
0
 40
1
 40
1
 40
1
 40
1
 10
230.487888
 20
688.657107
 30
0.0
 10
230.487888
 20
687.149893
 30
0.0
 10
231.291977
 20
685.757170
 30
0.0
 10
232.597263
 20
685.003563
 30
0.0
  0
SPLINE
  5
3f8
100
AcDbEntity
  8
holes
 62
7
100
AcDbSpline
 70
8
 71
3
 72
8
 73
4
 74
0
 40
0
 40
0
 40
0
 40
0
 40
1
 40
1
 40
1
 40
1
 10
232.597263
 20
685.003563
 30
0.0
 10
233.902548
 20
684.249956
 30
0.0
 10
235.510727
 20
684.249956
 30
0.0
 10
236.816012
 20
685.003563
 30
0.0
  0
SPLINE
  5
3f9
100
AcDbEntity
  8
holes
 62
7
100
AcDbSpline
 70
8
 71
3
 72
8
 73
4
 74
0
 40
0
 40
0
 40
0
 40
0
 40
1
 40
1
 40
1
 40
1
 10
236.816012
 20
685.003563
 30
0.0
 10
238.121298
 20
685.757170
 30
0.0
 10
238.925387
 20
687.149893
 30
0.0
 10
238.925387
 20
688.657107
 30
0.0
  0
SPLINE
  5
3fa
100
AcDbEntity
  8
holes
 62
7
100
AcDbSpline
 70
8
 71
3
 72
8
 73
4
 74
0
 40
0
 40
0
 40
0
 40
0
 40
1
 40
1
 40
1
 40
1
 10
238.925387
 20
688.657107
 30
0.0
 10
238.925387
 20
690.164322
 30
0.0
 10
238.121298
 20
691.557045
 30
0.0
 10
236.816012
 20
692.310652
 30
0.0
  0
SPLINE
  5
3fb
100
AcDbEntity
  8
holes
 62
7
100
AcDbSpline
 70
8
 71
3
 72
8
 73
4
 74
0
 40
0
 40
0
 40
0
 40
0
 40
1
 40
1
 40
1
 40
1
 10
236.816012
 20
692.310652
 30
0.0
 10
235.510727
 20
693.064259
 30
0.0
 10
233.902548
 20
693.064259
 30
0.0
 10
232.597263
 20
692.310652
 30
0.0
  0
SPLINE
  5
3fc
100
AcDbEntity
  8
holes
 62
7
100
AcDbSpline
 70
8
 71
3
 72
8
 73
4
 74
0
 40
0
 40
0
 40
0
 40
0
 40
1
 40
1
 40
1
 40
1
 10
232.597263
 20
692.310652
 30
0.0
 10
231.291977
 20
691.557045
 30
0.0
 10
230.487888
 20
690.164322
 30
0.0
 10
230.487888
 20
688.657107
 30
0.0
  0
LWPOLYLINE
  5
3fd
100
AcDbEntity
  8
holes
 62
7
100
AcDbPolyline
 90
1
 70
1
 10
230.027414
 20
676.190741
 30
0.0
  0
SPLINE
  5
3fe
100
AcDbEntity
  8
holes
 62
7
100
AcDbSpline
 70
8
 71
3
 72
8
 73
4
 74
0
 40
0
 40
0
 40
0
 40
0
 40
1
 40
1
 40
1
 40
1
 10
230.625087
 20
700.310554
 30
0.0
 10
230.625087
 20
698.803340
 30
0.0
 10
231.429176
 20
697.410617
 30
0.0
 10
232.734462
 20
696.657009
 30
0.0
  0
SPLINE
  5
3ff
100
AcDbEntity
  8
holes
 62
7
100
AcDbSpline
 70
8
 71
3
 72
8
 73
4
 74
0
 40
0
 40
0
 40
0
 40
0
 40
1
 40
1
 40
1
 40
1
 10
232.734462
 20
696.657009
 30
0.0
 10
234.039748
 20
695.903402
 30
0.0
 10
235.647926
 20
695.903402
 30
0.0
 10
236.953212
 20
696.657009
 30
0.0
  0
SPLINE
  5
400
100
AcDbEntity
  8
holes
 62
7
100
AcDbSpline
 70
8
 71
3
 72
8
 73
4
 74
0
 40
0
 40
0
 40
0
 40
0
 40
1
 40
1
 40
1
 40
1
 10
236.953212
 20
696.657009
 30
0.0
 10
238.258498
 20
697.410617
 30
0.0
 10
239.062587
 20
698.803340
 30
0.0
 10
239.062587
 20
700.310554
 30
0.0
  0
SPLINE
  5
401
100
AcDbEntity
  8
holes
 62
7
100
AcDbSpline
 70
8
 71
3
 72
8
 73
4
 74
0
 40
0
 40
0
 40
0
 40
0
 40
1
 40
1
 40
1
 40
1
 10
239.062587
 20
700.310554
 30
0.0
 10
239.062587
 20
701.817768
 30
0.0
 10
238.258498
 20
703.210492
 30
0.0
 10
236.953212
 20
703.964099
 30
0.0
  0
SPLINE
  5
402
100
AcDbEntity
  8
holes
 62
7
100
AcDbSpline
 70
8
 71
3
 72
8
 73
4
 74
0
 40
0
 40
0
 40
0
 40
0
 40
1
 40
1
 40
1
 40
1
 10
236.953212
 20
703.964099
 30
0.0
 10
235.647926
 20
704.717706
 30
0.0
 10
234.039748
 20
704.717706
 30
0.0
 10
232.734462
 20
703.964099
 30
0.0
  0
SPLINE
  5
403
100
AcDbEntity
  8
holes
 62
7
100
AcDbSpline
 70
8
 71
3
 72
8
 73
4
 74
0
 40
0
 40
0
 40
0
 40
0
 40
1
 40
1
 40
1
 40
1
 10
232.734462
 20
703.964099
 30
0.0
 10
231.429176
 20
703.210492
 30
0.0
 10
230.625087
 20
701.817768
 30
0.0
 10
230.625087
 20
700.310554
 30
0.0
  0
LWPOLYLINE
  5
404
100
AcDbEntity
  8
holes
 62
7
100
AcDbPolyline
 90
1
 70
1
 10
230.487888
 20
688.657107
 30
0.0
  0
SPLINE
  5
405
100
AcDbEntity
  8
holes
 62
7
100
AcDbSpline
 70
8
 71
3
 72
8
 73
4
 74
0
 40
0
 40
0
 40
0
 40
0
 40
1
 40
1
 40
1
 40
1
 10
230.886725
 20
712.241340
 30
0.0
 10
230.886725
 20
710.734125
 30
0.0
 10
231.690814
 20
709.341402
 30
0.0
 10
232.996100
 20
708.587795
 30
0.0
  0
SPLINE
  5
406
100
AcDbEntity
  8
holes
 62
7
100
AcDbSpline
 70
8
 71
3
 72
8
 73
4
 74
0
 40
0
 40
0
 40
0
 40
0
 40
1
 40
1
 40
1
 40
1
 10
232.996100
 20
708.587795
 30
0.0
 10
234.301386
 20
707.834188
 30
0.0
 10
235.909564
 20
707.834188
 30
0.0
 10
237.214850
 20
708.587795
 30
0.0
  0
SPLINE
  5
407
100
AcDbEntity
  8
holes
 62
7
100
AcDbSpline
 70
8
 71
3
 72
8
 73
4
 74
0
 40
0
 40
0
 40
0
 40
0
 40
1
 40
1
 40
1
 40
1
 10
237.214850
 20
708.587795
 30
0.0
 10
238.520136
 20
709.341402
 30
0.0
 10
239.324225
 20
710.734125
 30
0.0
 10
239.324225
 20
712.241340
 30
0.0
  0
SPLINE
  5
408
100
AcDbEntity
  8
holes
 62
7
100
AcDbSpline
 70
8
 71
3
 72
8
 73
4
 74
0
 40
0
 40
0
 40
0
 40
0
 40
1
 40
1
 40
1
 40
1
 10
239.324225
 20
712.241340
 30
0.0
 10
239.324225
 20
713.748554
 30
0.0
 10
238.520136
 20
715.141277
 30
0.0
 10
237.214850
 20
715.894884
 30
0.0
  0
SPLINE
  5
409
100
AcDbEntity
  8
holes
 62
7
100
AcDbSpline
 70
8
 71
3
 72
8
 73
4
 74
0
 40
0
 40
0
 40
0
 40
0
 40
1
 40
1
 40
1
 40
1
 10
237.214850
 20
715.894884
 30
0.0
 10
235.909564
 20
716.648491
 30
0.0
 10
234.301386
 20
716.648491
 30
0.0
 10
232.996100
 20
715.894884
 30
0.0
  0
SPLINE
  5
40a
100
AcDbEntity
  8
holes
 62
7
100
AcDbSpline
 70
8
 71
3
 72
8
 73
4
 74
0
 40
0
 40
0
 40
0
 40
0
 40
1
 40
1
 40
1
 40
1
 10
232.996100
 20
715.894884
 30
0.0
 10
231.690814
 20
715.141277
 30
0.0
 10
230.886725
 20
713.748554
 30
0.0
 10
230.886725
 20
712.241340
 30
0.0
  0
LWPOLYLINE
  5
40b
100
AcDbEntity
  8
holes
 62
7
100
AcDbPolyline
 90
1
 70
1
 10
230.625087
 20
700.310554
 30
0.0
  0
SPLINE
  5
40c
100
AcDbEntity
  8
holes
 62
7
100
AcDbSpline
 70
8
 71
3
 72
8
 73
4
 74
0
 40
0
 40
0
 40
0
 40
0
 40
1
 40
1
 40
1
 40
1
 10
230.880455
 20
723.950255
 30
0.0
 10
230.880455
 20
722.443040
 30
0.0
 10
231.684544
 20
721.050317
 30
0.0
 10
232.989830
 20
720.296710
 30
0.0
  0
SPLINE
  5
40d
100
AcDbEntity
  8
holes
 62
7
100
AcDbSpline
 70
8
 71
3
 72
8
 73
4
 74
0
 40
0
 40
0
 40
0
 40
0
 40
1
 40
1
 40
1
 40
1
 10
232.989830
 20
720.296710
 30
0.0
 10
234.295116
 20
719.543103
 30
0.0
 10
235.903294
 20
719.543103
 30
0.0
 10
237.208580
 20
720.296710
 30
0.0
  0
SPLINE
  5
40e
100
AcDbEntity
  8
holes
 62
7
100
AcDbSpline
 70
8
 71
3
 72
8
 73
4
 74
0
 40
0
 40
0
 40
0
 40
0
 40
1
 40
1
 40
1
 40
1
 10
237.208580
 20
720.296710
 30
0.0
 10
238.513865
 20
721.050317
 30
0.0
 10
239.317955
 20
722.443040
 30
0.0
 10
239.317955
 20
723.950255
 30
0.0
  0
SPLINE
  5
40f
100
AcDbEntity
  8
holes
 62
7
100
AcDbSpline
 70
8
 71
3
 72
8
 73
4
 74
0
 40
0
 40
0
 40
0
 40
0
 40
1
 40
1
 40
1
 40
1
 10
239.317955
 20
723.950255
 30
0.0
 10
239.317955
 20
725.457469
 30
0.0
 10
238.513865
 20
726.850192
 30
0.0
 10
237.208580
 20
727.603799
 30
0.0
  0
SPLINE
  5
410
100
AcDbEntity
  8
holes
 62
7
100
AcDbSpline
 70
8
 71
3
 72
8
 73
4
 74
0
 40
0
 40
0
 40
0
 40
0
 40
1
 40
1
 40
1
 40
1
 10
237.208580
 20
727.603799
 30
0.0
 10
235.903294
 20
728.357406
 30
0.0
 10
234.295116
 20
728.357406
 30
0.0
 10
232.989830
 20
727.603799
 30
0.0
  0
SPLINE
  5
411
100
AcDbEntity
  8
holes
 62
7
100
AcDbSpline
 70
8
 71
3
 72
8
 73
4
 74
0
 40
0
 40
0
 40
0
 40
0
 40
1
 40
1
 40
1
 40
1
 10
232.989830
 20
727.603799
 30
0.0
 10
231.684544
 20
726.850192
 30
0.0
 10
230.880455
 20
725.457469
 30
0.0
 10
230.880455
 20
723.950255
 30
0.0
  0
LWPOLYLINE
  5
412
100
AcDbEntity
  8
holes
 62
7
100
AcDbPolyline
 90
1
 70
1
 10
230.886725
 20
712.241340
 30
0.0
  0
SPLINE
  5
413
100
AcDbEntity
  8
holes
 62
7
100
AcDbSpline
 70
8
 71
3
 72
8
 73
4
 74
0
 40
0
 40
0
 40
0
 40
0
 40
1
 40
1
 40
1
 40
1
 10
240.908073
 20
671.555288
 30
0.0
 10
240.908073
 20
670.048073
 30
0.0
 10
241.712163
 20
668.655350
 30
0.0
 10
243.017448
 20
667.901743
 30
0.0
  0
SPLINE
  5
414
100
AcDbEntity
  8
holes
 62
7
100
AcDbSpline
 70
8
 71
3
 72
8
 73
4
 74
0
 40
0
 40
0
 40
0
 40
0
 40
1
 40
1
 40
1
 40
1
 10
243.017448
 20
667.901743
 30
0.0
 10
244.322734
 20
667.148136
 30
0.0
 10
245.930912
 20
667.148136
 30
0.0
 10
247.236198
 20
667.901743
 30
0.0
  0
SPLINE
  5
415
100
AcDbEntity
  8
holes
 62
7
100
AcDbSpline
 70
8
 71
3
 72
8
 73
4
 74
0
 40
0
 40
0
 40
0
 40
0
 40
1
 40
1
 40
1
 40
1
 10
247.236198
 20
667.901743
 30
0.0
 10
248.541484
 20
668.655350
 30
0.0
 10
249.345573
 20
670.048073
 30
0.0
 10
249.345573
 20
671.555288
 30
0.0
  0
SPLINE
  5
416
100
AcDbEntity
  8
holes
 62
7
100
AcDbSpline
 70
8
 71
3
 72
8
 73
4
 74
0
 40
0
 40
0
 40
0
 40
0
 40
1
 40
1
 40
1
 40
1
 10
249.345573
 20
671.555288
 30
0.0
 10
249.345573
 20
673.062502
 30
0.0
 10
248.541484
 20
674.455225
 30
0.0
 10
247.236198
 20
675.208832
 30
0.0
  0
SPLINE
  5
417
100
AcDbEntity
  8
holes
 62
7
100
AcDbSpline
 70
8
 71
3
 72
8
 73
4
 74
0
 40
0
 40
0
 40
0
 40
0
 40
1
 40
1
 40
1
 40
1
 10
247.236198
 20
675.208832
 30
0.0
 10
245.930912
 20
675.962439
 30
0.0
 10
244.322734
 20
675.962439
 30
0.0
 10
243.017448
 20
675.208832
 30
0.0
  0
SPLINE
  5
418
100
AcDbEntity
  8
holes
 62
7
100
AcDbSpline
 70
8
 71
3
 72
8
 73
4
 74
0
 40
0
 40
0
 40
0
 40
0
 40
1
 40
1
 40
1
 40
1
 10
243.017448
 20
675.208832
 30
0.0
 10
241.712163
 20
674.455225
 30
0.0
 10
240.908073
 20
673.062502
 30
0.0
 10
240.908073
 20
671.555288
 30
0.0
  0
LWPOLYLINE
  5
419
100
AcDbEntity
  8
holes
 62
7
100
AcDbPolyline
 90
1
 70
1
 10
230.880455
 20
723.950255
 30
0.0
  0
SPLINE
  5
41a
100
AcDbEntity
  8
holes
 62
7
100
AcDbSpline
 70
8
 71
3
 72
8
 73
4
 74
0
 40
0
 40
0
 40
0
 40
0
 40
1
 40
1
 40
1
 40
1
 10
240.800416
 20
682.562117
 30
0.0
 10
240.800416
 20
681.054903
 30
0.0
 10
241.604506
 20
679.662180
 30
0.0
 10
242.909791
 20
678.908573
 30
0.0
  0
SPLINE
  5
41b
100
AcDbEntity
  8
holes
 62
7
100
AcDbSpline
 70
8
 71
3
 72
8
 73
4
 74
0
 40
0
 40
0
 40
0
 40
0
 40
1
 40
1
 40
1
 40
1
 10
242.909791
 20
678.908573
 30
0.0
 10
244.215077
 20
678.154966
 30
0.0
 10
245.823255
 20
678.154966
 30
0.0
 10
247.128541
 20
678.908573
 30
0.0
  0
SPLINE
  5
41c
100
AcDbEntity
  8
holes
 62
7
100
AcDbSpline
 70
8
 71
3
 72
8
 73
4
 74
0
 40
0
 40
0
 40
0
 40
0
 40
1
 40
1
 40
1
 40
1
 10
247.128541
 20
678.908573
 30
0.0
 10
248.433827
 20
679.662180
 30
0.0
 10
249.237916
 20
681.054903
 30
0.0
 10
249.237916
 20
682.562117
 30
0.0
  0
SPLINE
  5
41d
100
AcDbEntity
  8
holes
 62
7
100
AcDbSpline
 70
8
 71
3
 72
8
 73
4
 74
0
 40
0
 40
0
 40
0
 40
0
 40
1
 40
1
 40
1
 40
1
 10
249.237916
 20
682.562117
 30
0.0
 10
249.237916
 20
684.069332
 30
0.0
 10
248.433827
 20
685.462055
 30
0.0
 10
247.128541
 20
686.215662
 30
0.0
  0
SPLINE
  5
41e
100
AcDbEntity
  8
holes
 62
7
100
AcDbSpline
 70
8
 71
3
 72
8
 73
4
 74
0
 40
0
 40
0
 40
0
 40
0
 40
1
 40
1
 40
1
 40
1
 10
247.128541
 20
686.215662
 30
0.0
 10
245.823255
 20
686.969269
 30
0.0
 10
244.215077
 20
686.969269
 30
0.0
 10
242.909791
 20
686.215662
 30
0.0
  0
SPLINE
  5
41f
100
AcDbEntity
  8
holes
 62
7
100
AcDbSpline
 70
8
 71
3
 72
8
 73
4
 74
0
 40
0
 40
0
 40
0
 40
0
 40
1
 40
1
 40
1
 40
1
 10
242.909791
 20
686.215662
 30
0.0
 10
241.604506
 20
685.462055
 30
0.0
 10
240.800416
 20
684.069332
 30
0.0
 10
240.800416
 20
682.562117
 30
0.0
  0
LWPOLYLINE
  5
420
100
AcDbEntity
  8
holes
 62
7
100
AcDbPolyline
 90
1
 70
1
 10
240.908073
 20
671.555288
 30
0.0
  0
SPLINE
  5
421
100
AcDbEntity
  8
holes
 62
7
100
AcDbSpline
 70
8
 71
3
 72
8
 73
4
 74
0
 40
0
 40
0
 40
0
 40
0
 40
1
 40
1
 40
1
 40
1
 10
240.780693
 20
694.404862
 30
0.0
 10
240.780693
 20
692.897648
 30
0.0
 10
241.584782
 20
691.504924
 30
0.0
 10
242.890068
 20
690.751317
 30
0.0
  0
SPLINE
  5
422
100
AcDbEntity
  8
holes
 62
7
100
AcDbSpline
 70
8
 71
3
 72
8
 73
4
 74
0
 40
0
 40
0
 40
0
 40
0
 40
1
 40
1
 40
1
 40
1
 10
242.890068
 20
690.751317
 30
0.0
 10
244.195354
 20
689.997710
 30
0.0
 10
245.803532
 20
689.997710
 30
0.0
 10
247.108818
 20
690.751317
 30
0.0
  0
SPLINE
  5
423
100
AcDbEntity
  8
holes
 62
7
100
AcDbSpline
 70
8
 71
3
 72
8
 73
4
 74
0
 40
0
 40
0
 40
0
 40
0
 40
1
 40
1
 40
1
 40
1
 10
247.108818
 20
690.751317
 30
0.0
 10
248.414104
 20
691.504924
 30
0.0
 10
249.218193
 20
692.897648
 30
0.0
 10
249.218193
 20
694.404862
 30
0.0
  0
SPLINE
  5
424
100
AcDbEntity
  8
holes
 62
7
100
AcDbSpline
 70
8
 71
3
 72
8
 73
4
 74
0
 40
0
 40
0
 40
0
 40
0
 40
1
 40
1
 40
1
 40
1
 10
249.218193
 20
694.404862
 30
0.0
 10
249.218193
 20
695.912076
 30
0.0
 10
248.414104
 20
697.304799
 30
0.0
 10
247.108818
 20
698.058406
 30
0.0
  0
SPLINE
  5
425
100
AcDbEntity
  8
holes
 62
7
100
AcDbSpline
 70
8
 71
3
 72
8
 73
4
 74
0
 40
0
 40
0
 40
0
 40
0
 40
1
 40
1
 40
1
 40
1
 10
247.108818
 20
698.058406
 30
0.0
 10
245.803532
 20
698.812013
 30
0.0
 10
244.195354
 20
698.812013
 30
0.0
 10
242.890068
 20
698.058406
 30
0.0
  0
SPLINE
  5
426
100
AcDbEntity
  8
holes
 62
7
100
AcDbSpline
 70
8
 71
3
 72
8
 73
4
 74
0
 40
0
 40
0
 40
0
 40
0
 40
1
 40
1
 40
1
 40
1
 10
242.890068
 20
698.058406
 30
0.0
 10
241.584782
 20
697.304799
 30
0.0
 10
240.780693
 20
695.912076
 30
0.0
 10
240.780693
 20
694.404862
 30
0.0
  0
LWPOLYLINE
  5
427
100
AcDbEntity
  8
holes
 62
7
100
AcDbPolyline
 90
1
 70
1
 10
240.800416
 20
682.562117
 30
0.0
  0
SPLINE
  5
428
100
AcDbEntity
  8
holes
 62
7
100
AcDbSpline
 70
8
 71
3
 72
8
 73
4
 74
0
 40
0
 40
0
 40
0
 40
0
 40
1
 40
1
 40
1
 40
1
 10
240.940859
 20
706.113865
 30
0.0
 10
240.940859
 20
704.606650
 30
0.0
 10
241.744948
 20
703.213927
 30
0.0
 10
243.050234
 20
702.460320
 30
0.0
  0
SPLINE
  5
429
100
AcDbEntity
  8
holes
 62
7
100
AcDbSpline
 70
8
 71
3
 72
8
 73
4
 74
0
 40
0
 40
0
 40
0
 40
0
 40
1
 40
1
 40
1
 40
1
 10
243.050234
 20
702.460320
 30
0.0
 10
244.355520
 20
701.706713
 30
0.0
 10
245.963698
 20
701.706713
 30
0.0
 10
247.268984
 20
702.460320
 30
0.0
  0
SPLINE
  5
42a
100
AcDbEntity
  8
holes
 62
7
100
AcDbSpline
 70
8
 71
3
 72
8
 73
4
 74
0
 40
0
 40
0
 40
0
 40
0
 40
1
 40
1
 40
1
 40
1
 10
247.268984
 20
702.460320
 30
0.0
 10
248.574270
 20
703.213927
 30
0.0
 10
249.378359
 20
704.606650
 30
0.0
 10
249.378359
 20
706.113865
 30
0.0
  0
SPLINE
  5
42b
100
AcDbEntity
  8
holes
 62
7
100
AcDbSpline
 70
8
 71
3
 72
8
 73
4
 74
0
 40
0
 40
0
 40
0
 40
0
 40
1
 40
1
 40
1
 40
1
 10
249.378359
 20
706.113865
 30
0.0
 10
249.378359
 20
707.621079
 30
0.0
 10
248.574270
 20
709.013802
 30
0.0
 10
247.268984
 20
709.767409
 30
0.0
  0
SPLINE
  5
42c
100
AcDbEntity
  8
holes
 62
7
100
AcDbSpline
 70
8
 71
3
 72
8
 73
4
 74
0
 40
0
 40
0
 40
0
 40
0
 40
1
 40
1
 40
1
 40
1
 10
247.268984
 20
709.767409
 30
0.0
 10
245.963698
 20
710.521016
 30
0.0
 10
244.355520
 20
710.521016
 30
0.0
 10
243.050234
 20
709.767409
 30
0.0
  0
SPLINE
  5
42d
100
AcDbEntity
  8
holes
 62
7
100
AcDbSpline
 70
8
 71
3
 72
8
 73
4
 74
0
 40
0
 40
0
 40
0
 40
0
 40
1
 40
1
 40
1
 40
1
 10
243.050234
 20
709.767409
 30
0.0
 10
241.744948
 20
709.013802
 30
0.0
 10
240.940859
 20
707.621079
 30
0.0
 10
240.940859
 20
706.113865
 30
0.0
  0
LWPOLYLINE
  5
42e
100
AcDbEntity
  8
holes
 62
7
100
AcDbPolyline
 90
1
 70
1
 10
240.780693
 20
694.404862
 30
0.0
  0
SPLINE
  5
42f
100
AcDbEntity
  8
holes
 62
7
100
AcDbSpline
 70
8
 71
3
 72
8
 73
4
 74
0
 40
0
 40
0
 40
0
 40
0
 40
1
 40
1
 40
1
 40
1
 10
240.879180
 20
717.564387
 30
0.0
 10
240.879180
 20
716.057173
 30
0.0
 10
241.683269
 20
714.664450
 30
0.0
 10
242.988555
 20
713.910843
 30
0.0
  0
SPLINE
  5
430
100
AcDbEntity
  8
holes
 62
7
100
AcDbSpline
 70
8
 71
3
 72
8
 73
4
 74
0
 40
0
 40
0
 40
0
 40
0
 40
1
 40
1
 40
1
 40
1
 10
242.988555
 20
713.910843
 30
0.0
 10
244.293841
 20
713.157236
 30
0.0
 10
245.902019
 20
713.157236
 30
0.0
 10
247.207305
 20
713.910843
 30
0.0
  0
SPLINE
  5
431
100
AcDbEntity
  8
holes
 62
7
100
AcDbSpline
 70
8
 71
3
 72
8
 73
4
 74
0
 40
0
 40
0
 40
0
 40
0
 40
1
 40
1
 40
1
 40
1
 10
247.207305
 20
713.910843
 30
0.0
 10
248.512590
 20
714.664450
 30
0.0
 10
249.316680
 20
716.057173
 30
0.0
 10
249.316680
 20
717.564387
 30
0.0
  0
SPLINE
  5
432
100
AcDbEntity
  8
holes
 62
7
100
AcDbSpline
 70
8
 71
3
 72
8
 73
4
 74
0
 40
0
 40
0
 40
0
 40
0
 40
1
 40
1
 40
1
 40
1
 10
249.316680
 20
717.564387
 30
0.0
 10
249.316680
 20
719.071602
 30
0.0
 10
248.512590
 20
720.464325
 30
0.0
 10
247.207305
 20
721.217932
 30
0.0
  0
SPLINE
  5
433
100
AcDbEntity
  8
holes
 62
7
100
AcDbSpline
 70
8
 71
3
 72
8
 73
4
 74
0
 40
0
 40
0
 40
0
 40
0
 40
1
 40
1
 40
1
 40
1
 10
247.207305
 20
721.217932
 30
0.0
 10
245.902019
 20
721.971539
 30
0.0
 10
244.293841
 20
721.971539
 30
0.0
 10
242.988555
 20
721.217932
 30
0.0
  0
SPLINE
  5
434
100
AcDbEntity
  8
holes
 62
7
100
AcDbSpline
 70
8
 71
3
 72
8
 73
4
 74
0
 40
0
 40
0
 40
0
 40
0
 40
1
 40
1
 40
1
 40
1
 10
242.988555
 20
721.217932
 30
0.0
 10
241.683269
 20
720.464325
 30
0.0
 10
240.879180
 20
719.071602
 30
0.0
 10
240.879180
 20
717.564387
 30
0.0
  0
LWPOLYLINE
  5
435
100
AcDbEntity
  8
holes
 62
7
100
AcDbPolyline
 90
1
 70
1
 10
240.940859
 20
706.113865
 30
0.0
  0
SPLINE
  5
436
100
AcDbEntity
  8
holes
 62
7
100
AcDbSpline
 70
8
 71
3
 72
8
 73
4
 74
0
 40
0
 40
0
 40
0
 40
0
 40
1
 40
1
 40
1
 40
1
 10
240.738953
 20
729.351723
 30
0.0
 10
240.738953
 20
727.844509
 30
0.0
 10
241.543042
 20
726.451785
 30
0.0
 10
242.848328
 20
725.698178
 30
0.0
  0
SPLINE
  5
437
100
AcDbEntity
  8
holes
 62
7
100
AcDbSpline
 70
8
 71
3
 72
8
 73
4
 74
0
 40
0
 40
0
 40
0
 40
0
 40
1
 40
1
 40
1
 40
1
 10
242.848328
 20
725.698178
 30
0.0
 10
244.153614
 20
724.944571
 30
0.0
 10
245.761792
 20
724.944571
 30
0.0
 10
247.067078
 20
725.698178
 30
0.0
  0
SPLINE
  5
438
100
AcDbEntity
  8
holes
 62
7
100
AcDbSpline
 70
8
 71
3
 72
8
 73
4
 74
0
 40
0
 40
0
 40
0
 40
0
 40
1
 40
1
 40
1
 40
1
 10
247.067078
 20
725.698178
 30
0.0
 10
248.372363
 20
726.451785
 30
0.0
 10
249.176453
 20
727.844509
 30
0.0
 10
249.176453
 20
729.351723
 30
0.0
  0
SPLINE
  5
439
100
AcDbEntity
  8
holes
 62
7
100
AcDbSpline
 70
8
 71
3
 72
8
 73
4
 74
0
 40
0
 40
0
 40
0
 40
0
 40
1
 40
1
 40
1
 40
1
 10
249.176453
 20
729.351723
 30
0.0
 10
249.176453
 20
730.858937
 30
0.0
 10
248.372363
 20
732.251660
 30
0.0
 10
247.067078
 20
733.005267
 30
0.0
  0
SPLINE
  5
43a
100
AcDbEntity
  8
holes
 62
7
100
AcDbSpline
 70
8
 71
3
 72
8
 73
4
 74
0
 40
0
 40
0
 40
0
 40
0
 40
1
 40
1
 40
1
 40
1
 10
247.067078
 20
733.005267
 30
0.0
 10
245.761792
 20
733.758874
 30
0.0
 10
244.153614
 20
733.758874
 30
0.0
 10
242.848328
 20
733.005267
 30
0.0
  0
SPLINE
  5
43b
100
AcDbEntity
  8
holes
 62
7
100
AcDbSpline
 70
8
 71
3
 72
8
 73
4
 74
0
 40
0
 40
0
 40
0
 40
0
 40
1
 40
1
 40
1
 40
1
 10
242.848328
 20
733.005267
 30
0.0
 10
241.543042
 20
732.251660
 30
0.0
 10
240.738953
 20
730.858937
 30
0.0
 10
240.738953
 20
729.351723
 30
0.0
  0
LWPOLYLINE
  5
43c
100
AcDbEntity
  8
holes
 62
7
100
AcDbPolyline
 90
1
 70
1
 10
240.879180
 20
717.564387
 30
0.0
  0
SPLINE
  5
43d
100
AcDbEntity
  8
holes
 62
7
100
AcDbSpline
 70
8
 71
3
 72
8
 73
4
 74
0
 40
0
 40
0
 40
0
 40
0
 40
1
 40
1
 40
1
 40
1
 10
251.037986
 20
675.695923
 30
0.0
 10
251.037986
 20
674.188708
 30
0.0
 10
251.842075
 20
672.795985
 30
0.0
 10
253.147361
 20
672.042378
 30
0.0
  0
SPLINE
  5
43e
100
AcDbEntity
  8
holes
 62
7
100
AcDbSpline
 70
8
 71
3
 72
8
 73
4
 74
0
 40
0
 40
0
 40
0
 40
0
 40
1
 40
1
 40
1
 40
1
 10
253.147361
 20
672.042378
 30
0.0
 10
254.452647
 20
671.288771
 30
0.0
 10
256.060825
 20
671.288771
 30
0.0
 10
257.366111
 20
672.042378
 30
0.0
  0
SPLINE
  5
43f
100
AcDbEntity
  8
holes
 62
7
100
AcDbSpline
 70
8
 71
3
 72
8
 73
4
 74
0
 40
0
 40
0
 40
0
 40
0
 40
1
 40
1
 40
1
 40
1
 10
257.366111
 20
672.042378
 30
0.0
 10
258.671396
 20
672.795985
 30
0.0
 10
259.475486
 20
674.188708
 30
0.0
 10
259.475486
 20
675.695923
 30
0.0
  0
SPLINE
  5
440
100
AcDbEntity
  8
holes
 62
7
100
AcDbSpline
 70
8
 71
3
 72
8
 73
4
 74
0
 40
0
 40
0
 40
0
 40
0
 40
1
 40
1
 40
1
 40
1
 10
259.475486
 20
675.695923
 30
0.0
 10
259.475486
 20
677.203137
 30
0.0
 10
258.671396
 20
678.595860
 30
0.0
 10
257.366111
 20
679.349467
 30
0.0
  0
SPLINE
  5
441
100
AcDbEntity
  8
holes
 62
7
100
AcDbSpline
 70
8
 71
3
 72
8
 73
4
 74
0
 40
0
 40
0
 40
0
 40
0
 40
1
 40
1
 40
1
 40
1
 10
257.366111
 20
679.349467
 30
0.0
 10
256.060825
 20
680.103074
 30
0.0
 10
254.452647
 20
680.103074
 30
0.0
 10
253.147361
 20
679.349467
 30
0.0
  0
SPLINE
  5
442
100
AcDbEntity
  8
holes
 62
7
100
AcDbSpline
 70
8
 71
3
 72
8
 73
4
 74
0
 40
0
 40
0
 40
0
 40
0
 40
1
 40
1
 40
1
 40
1
 10
253.147361
 20
679.349467
 30
0.0
 10
251.842075
 20
678.595860
 30
0.0
 10
251.037986
 20
677.203137
 30
0.0
 10
251.037986
 20
675.695923
 30
0.0
  0
LWPOLYLINE
  5
443
100
AcDbEntity
  8
holes
 62
7
100
AcDbPolyline
 90
1
 70
1
 10
240.738953
 20
729.351723
 30
0.0
  0
SPLINE
  5
444
100
AcDbEntity
  8
holes
 62
7
100
AcDbSpline
 70
8
 71
3
 72
8
 73
4
 74
0
 40
0
 40
0
 40
0
 40
0
 40
1
 40
1
 40
1
 40
1
 10
251.018262
 20
687.538667
 30
0.0
 10
251.018262
 20
686.031453
 30
0.0
 10
251.822352
 20
684.638729
 30
0.0
 10
253.127637
 20
683.885122
 30
0.0
  0
SPLINE
  5
445
100
AcDbEntity
  8
holes
 62
7
100
AcDbSpline
 70
8
 71
3
 72
8
 73
4
 74
0
 40
0
 40
0
 40
0
 40
0
 40
1
 40
1
 40
1
 40
1
 10
253.127637
 20
683.885122
 30
0.0
 10
254.432923
 20
683.131515
 30
0.0
 10
256.041101
 20
683.131515
 30
0.0
 10
257.346387
 20
683.885122
 30
0.0
  0
SPLINE
  5
446
100
AcDbEntity
  8
holes
 62
7
100
AcDbSpline
 70
8
 71
3
 72
8
 73
4
 74
0
 40
0
 40
0
 40
0
 40
0
 40
1
 40
1
 40
1
 40
1
 10
257.346387
 20
683.885122
 30
0.0
 10
258.651673
 20
684.638729
 30
0.0
 10
259.455762
 20
686.031453
 30
0.0
 10
259.455762
 20
687.538667
 30
0.0
  0
SPLINE
  5
447
100
AcDbEntity
  8
holes
 62
7
100
AcDbSpline
 70
8
 71
3
 72
8
 73
4
 74
0
 40
0
 40
0
 40
0
 40
0
 40
1
 40
1
 40
1
 40
1
 10
259.455762
 20
687.538667
 30
0.0
 10
259.455762
 20
689.045881
 30
0.0
 10
258.651673
 20
690.438604
 30
0.0
 10
257.346387
 20
691.192211
 30
0.0
  0
SPLINE
  5
448
100
AcDbEntity
  8
holes
 62
7
100
AcDbSpline
 70
8
 71
3
 72
8
 73
4
 74
0
 40
0
 40
0
 40
0
 40
0
 40
1
 40
1
 40
1
 40
1
 10
257.346387
 20
691.192211
 30
0.0
 10
256.041101
 20
691.945818
 30
0.0
 10
254.432923
 20
691.945818
 30
0.0
 10
253.127637
 20
691.192211
 30
0.0
  0
SPLINE
  5
449
100
AcDbEntity
  8
holes
 62
7
100
AcDbSpline
 70
8
 71
3
 72
8
 73
4
 74
0
 40
0
 40
0
 40
0
 40
0
 40
1
 40
1
 40
1
 40
1
 10
253.127637
 20
691.192211
 30
0.0
 10
251.822352
 20
690.438604
 30
0.0
 10
251.018262
 20
689.045881
 30
0.0
 10
251.018262
 20
687.538667
 30
0.0
  0
LWPOLYLINE
  5
44a
100
AcDbEntity
  8
holes
 62
7
100
AcDbPolyline
 90
1
 70
1
 10
251.037986
 20
675.695923
 30
0.0
  0
SPLINE
  5
44b
100
AcDbEntity
  8
holes
 62
7
100
AcDbSpline
 70
8
 71
3
 72
8
 73
4
 74
0
 40
0
 40
0
 40
0
 40
0
 40
1
 40
1
 40
1
 40
1
 10
251.178431
 20
699.247647
 30
0.0
 10
251.178431
 20
697.740433
 30
0.0
 10
251.982520
 20
696.347709
 30
0.0
 10
253.287806
 20
695.594102
 30
0.0
  0
SPLINE
  5
44c
100
AcDbEntity
  8
holes
 62
7
100
AcDbSpline
 70
8
 71
3
 72
8
 73
4
 74
0
 40
0
 40
0
 40
0
 40
0
 40
1
 40
1
 40
1
 40
1
 10
253.287806
 20
695.594102
 30
0.0
 10
254.593092
 20
694.840495
 30
0.0
 10
256.201270
 20
694.840495
 30
0.0
 10
257.506556
 20
695.594102
 30
0.0
  0
SPLINE
  5
44d
100
AcDbEntity
  8
holes
 62
7
100
AcDbSpline
 70
8
 71
3
 72
8
 73
4
 74
0
 40
0
 40
0
 40
0
 40
0
 40
1
 40
1
 40
1
 40
1
 10
257.506556
 20
695.594102
 30
0.0
 10
258.811842
 20
696.347709
 30
0.0
 10
259.615931
 20
697.740433
 30
0.0
 10
259.615931
 20
699.247647
 30
0.0
  0
SPLINE
  5
44e
100
AcDbEntity
  8
holes
 62
7
100
AcDbSpline
 70
8
 71
3
 72
8
 73
4
 74
0
 40
0
 40
0
 40
0
 40
0
 40
1
 40
1
 40
1
 40
1
 10
259.615931
 20
699.247647
 30
0.0
 10
259.615931
 20
700.754861
 30
0.0
 10
258.811842
 20
702.147584
 30
0.0
 10
257.506556
 20
702.901191
 30
0.0
  0
SPLINE
  5
44f
100
AcDbEntity
  8
holes
 62
7
100
AcDbSpline
 70
8
 71
3
 72
8
 73
4
 74
0
 40
0
 40
0
 40
0
 40
0
 40
1
 40
1
 40
1
 40
1
 10
257.506556
 20
702.901191
 30
0.0
 10
256.201270
 20
703.654799
 30
0.0
 10
254.593092
 20
703.654799
 30
0.0
 10
253.287806
 20
702.901191
 30
0.0
  0
SPLINE
  5
450
100
AcDbEntity
  8
holes
 62
7
100
AcDbSpline
 70
8
 71
3
 72
8
 73
4
 74
0
 40
0
 40
0
 40
0
 40
0
 40
1
 40
1
 40
1
 40
1
 10
253.287806
 20
702.901191
 30
0.0
 10
251.982520
 20
702.147584
 30
0.0
 10
251.178431
 20
700.754861
 30
0.0
 10
251.178431
 20
699.247647
 30
0.0
  0
LWPOLYLINE
  5
451
100
AcDbEntity
  8
holes
 62
7
100
AcDbPolyline
 90
1
 70
1
 10
251.018262
 20
687.538667
 30
0.0
  0
SPLINE
  5
452
100
AcDbEntity
  8
holes
 62
7
100
AcDbSpline
 70
8
 71
3
 72
8
 73
4
 74
0
 40
0
 40
0
 40
0
 40
0
 40
1
 40
1
 40
1
 40
1
 10
251.116707
 20
710.698192
 30
0.0
 10
251.116707
 20
709.190978
 30
0.0
 10
251.920796
 20
707.798255
 30
0.0
 10
253.226082
 20
707.044648
 30
0.0
  0
SPLINE
  5
453
100
AcDbEntity
  8
holes
 62
7
100
AcDbSpline
 70
8
 71
3
 72
8
 73
4
 74
0
 40
0
 40
0
 40
0
 40
0
 40
1
 40
1
 40
1
 40
1
 10
253.226082
 20
707.044648
 30
0.0
 10
254.531368
 20
706.291041
 30
0.0
 10
256.139546
 20
706.291041
 30
0.0
 10
257.444832
 20
707.044648
 30
0.0
  0
SPLINE
  5
454
100
AcDbEntity
  8
holes
 62
7
100
AcDbSpline
 70
8
 71
3
 72
8
 73
4
 74
0
 40
0
 40
0
 40
0
 40
0
 40
1
 40
1
 40
1
 40
1
 10
257.444832
 20
707.044648
 30
0.0
 10
258.750117
 20
707.798255
 30
0.0
 10
259.554207
 20
709.190978
 30
0.0
 10
259.554207
 20
710.698192
 30
0.0
  0
SPLINE
  5
455
100
AcDbEntity
  8
holes
 62
7
100
AcDbSpline
 70
8
 71
3
 72
8
 73
4
 74
0
 40
0
 40
0
 40
0
 40
0
 40
1
 40
1
 40
1
 40
1
 10
259.554207
 20
710.698192
 30
0.0
 10
259.554207
 20
712.205407
 30
0.0
 10
258.750117
 20
713.598130
 30
0.0
 10
257.444832
 20
714.351737
 30
0.0
  0
SPLINE
  5
456
100
AcDbEntity
  8
holes
 62
7
100
AcDbSpline
 70
8
 71
3
 72
8
 73
4
 74
0
 40
0
 40
0
 40
0
 40
0
 40
1
 40
1
 40
1
 40
1
 10
257.444832
 20
714.351737
 30
0.0
 10
256.139546
 20
715.105344
 30
0.0
 10
254.531368
 20
715.105344
 30
0.0
 10
253.226082
 20
714.351737
 30
0.0
  0
SPLINE
  5
457
100
AcDbEntity
  8
holes
 62
7
100
AcDbSpline
 70
8
 71
3
 72
8
 73
4
 74
0
 40
0
 40
0
 40
0
 40
0
 40
1
 40
1
 40
1
 40
1
 10
253.226082
 20
714.351737
 30
0.0
 10
251.920796
 20
713.598130
 30
0.0
 10
251.116707
 20
712.205407
 30
0.0
 10
251.116707
 20
710.698192
 30
0.0
  0
LWPOLYLINE
  5
458
100
AcDbEntity
  8
holes
 62
7
100
AcDbPolyline
 90
1
 70
1
 10
251.178431
 20
699.247647
 30
0.0
  0
SPLINE
  5
459
100
AcDbEntity
  8
holes
 62
7
100
AcDbSpline
 70
8
 71
3
 72
8
 73
4
 74
0
 40
0
 40
0
 40
0
 40
0
 40
1
 40
1
 40
1
 40
1
 10
250.976525
 20
722.485528
 30
0.0
 10
250.976525
 20
720.978314
 30
0.0
 10
251.780614
 20
719.585590
 30
0.0
 10
253.085900
 20
718.831983
 30
0.0
  0
SPLINE
  5
45a
100
AcDbEntity
  8
holes
 62
7
100
AcDbSpline
 70
8
 71
3
 72
8
 73
4
 74
0
 40
0
 40
0
 40
0
 40
0
 40
1
 40
1
 40
1
 40
1
 10
253.085900
 20
718.831983
 30
0.0
 10
254.391186
 20
718.078376
 30
0.0
 10
255.999364
 20
718.078376
 30
0.0
 10
257.304650
 20
718.831983
 30
0.0
  0
SPLINE
  5
45b
100
AcDbEntity
  8
holes
 62
7
100
AcDbSpline
 70
8
 71
3
 72
8
 73
4
 74
0
 40
0
 40
0
 40
0
 40
0
 40
1
 40
1
 40
1
 40
1
 10
257.304650
 20
718.831983
 30
0.0
 10
258.609936
 20
719.585590
 30
0.0
 10
259.414025
 20
720.978314
 30
0.0
 10
259.414025
 20
722.485528
 30
0.0
  0
SPLINE
  5
45c
100
AcDbEntity
  8
holes
 62
7
100
AcDbSpline
 70
8
 71
3
 72
8
 73
4
 74
0
 40
0
 40
0
 40
0
 40
0
 40
1
 40
1
 40
1
 40
1
 10
259.414025
 20
722.485528
 30
0.0
 10
259.414025
 20
723.992742
 30
0.0
 10
258.609936
 20
725.385465
 30
0.0
 10
257.304650
 20
726.139072
 30
0.0
  0
SPLINE
  5
45d
100
AcDbEntity
  8
holes
 62
7
100
AcDbSpline
 70
8
 71
3
 72
8
 73
4
 74
0
 40
0
 40
0
 40
0
 40
0
 40
1
 40
1
 40
1
 40
1
 10
257.304650
 20
726.139072
 30
0.0
 10
255.999364
 20
726.892680
 30
0.0
 10
254.391186
 20
726.892680
 30
0.0
 10
253.085900
 20
726.139072
 30
0.0
  0
SPLINE
  5
45e
100
AcDbEntity
  8
holes
 62
7
100
AcDbSpline
 70
8
 71
3
 72
8
 73
4
 74
0
 40
0
 40
0
 40
0
 40
0
 40
1
 40
1
 40
1
 40
1
 10
253.085900
 20
726.139072
 30
0.0
 10
251.780614
 20
725.385465
 30
0.0
 10
250.976525
 20
723.992742
 30
0.0
 10
250.976525
 20
722.485528
 30
0.0
  0
LWPOLYLINE
  5
45f
100
AcDbEntity
  8
holes
 62
7
100
AcDbPolyline
 90
1
 70
1
 10
251.116707
 20
710.698192
 30
0.0
  0
SPLINE
  5
460
100
AcDbEntity
  8
holes
 62
7
100
AcDbSpline
 70
8
 71
3
 72
8
 73
4
 74
0
 40
0
 40
0
 40
0
 40
0
 40
1
 40
1
 40
1
 40
1
 10
261.624872
 20
681.467119
 30
0.0
 10
261.624872
 20
679.959905
 30
0.0
 10
262.428961
 20
678.567182
 30
0.0
 10
263.734246
 20
677.813575
 30
0.0
  0
SPLINE
  5
461
100
AcDbEntity
  8
holes
 62
7
100
AcDbSpline
 70
8
 71
3
 72
8
 73
4
 74
0
 40
0
 40
0
 40
0
 40
0
 40
1
 40
1
 40
1
 40
1
 10
263.734246
 20
677.813575
 30
0.0
 10
265.039532
 20
677.059968
 30
0.0
 10
266.647711
 20
677.059968
 30
0.0
 10
267.952996
 20
677.813575
 30
0.0
  0
SPLINE
  5
462
100
AcDbEntity
  8
holes
 62
7
100
AcDbSpline
 70
8
 71
3
 72
8
 73
4
 74
0
 40
0
 40
0
 40
0
 40
0
 40
1
 40
1
 40
1
 40
1
 10
267.952996
 20
677.813575
 30
0.0
 10
269.258282
 20
678.567182
 30
0.0
 10
270.062371
 20
679.959905
 30
0.0
 10
270.062371
 20
681.467119
 30
0.0
  0
SPLINE
  5
463
100
AcDbEntity
  8
holes
 62
7
100
AcDbSpline
 70
8
 71
3
 72
8
 73
4
 74
0
 40
0
 40
0
 40
0
 40
0
 40
1
 40
1
 40
1
 40
1
 10
270.062371
 20
681.467119
 30
0.0
 10
270.062371
 20
682.974334
 30
0.0
 10
269.258282
 20
684.367057
 30
0.0
 10
267.952996
 20
685.120664
 30
0.0
  0
SPLINE
  5
464
100
AcDbEntity
  8
holes
 62
7
100
AcDbSpline
 70
8
 71
3
 72
8
 73
4
 74
0
 40
0
 40
0
 40
0
 40
0
 40
1
 40
1
 40
1
 40
1
 10
267.952996
 20
685.120664
 30
0.0
 10
266.647711
 20
685.874271
 30
0.0
 10
265.039532
 20
685.874271
 30
0.0
 10
263.734246
 20
685.120664
 30
0.0
  0
SPLINE
  5
465
100
AcDbEntity
  8
holes
 62
7
100
AcDbSpline
 70
8
 71
3
 72
8
 73
4
 74
0
 40
0
 40
0
 40
0
 40
0
 40
1
 40
1
 40
1
 40
1
 10
263.734246
 20
685.120664
 30
0.0
 10
262.428961
 20
684.367057
 30
0.0
 10
261.624872
 20
682.974334
 30
0.0
 10
261.624872
 20
681.467119
 30
0.0
  0
LWPOLYLINE
  5
466
100
AcDbEntity
  8
holes
 62
7
100
AcDbPolyline
 90
1
 70
1
 10
250.976525
 20
722.485528
 30
0.0
  0
SPLINE
  5
467
100
AcDbEntity
  8
holes
 62
7
100
AcDbSpline
 70
8
 71
3
 72
8
 73
4
 74
0
 40
0
 40
0
 40
0
 40
0
 40
1
 40
1
 40
1
 40
1
 10
261.785018
 20
693.176037
 30
0.0
 10
261.785018
 20
691.668823
 30
0.0
 10
262.589107
 20
690.276100
 30
0.0
 10
263.894393
 20
689.522493
 30
0.0
  0
SPLINE
  5
468
100
AcDbEntity
  8
holes
 62
7
100
AcDbSpline
 70
8
 71
3
 72
8
 73
4
 74
0
 40
0
 40
0
 40
0
 40
0
 40
1
 40
1
 40
1
 40
1
 10
263.894393
 20
689.522493
 30
0.0
 10
265.199678
 20
688.768886
 30
0.0
 10
266.807857
 20
688.768886
 30
0.0
 10
268.113142
 20
689.522493
 30
0.0
  0
SPLINE
  5
469
100
AcDbEntity
  8
holes
 62
7
100
AcDbSpline
 70
8
 71
3
 72
8
 73
4
 74
0
 40
0
 40
0
 40
0
 40
0
 40
1
 40
1
 40
1
 40
1
 10
268.113142
 20
689.522493
 30
0.0
 10
269.418428
 20
690.276100
 30
0.0
 10
270.222517
 20
691.668823
 30
0.0
 10
270.222517
 20
693.176037
 30
0.0
  0
SPLINE
  5
46a
100
AcDbEntity
  8
holes
 62
7
100
AcDbSpline
 70
8
 71
3
 72
8
 73
4
 74
0
 40
0
 40
0
 40
0
 40
0
 40
1
 40
1
 40
1
 40
1
 10
270.222517
 20
693.176037
 30
0.0
 10
270.222517
 20
694.683251
 30
0.0
 10
269.418428
 20
696.075975
 30
0.0
 10
268.113142
 20
696.829582
 30
0.0
  0
SPLINE
  5
46b
100
AcDbEntity
  8
holes
 62
7
100
AcDbSpline
 70
8
 71
3
 72
8
 73
4
 74
0
 40
0
 40
0
 40
0
 40
0
 40
1
 40
1
 40
1
 40
1
 10
268.113142
 20
696.829582
 30
0.0
 10
266.807857
 20
697.583189
 30
0.0
 10
265.199678
 20
697.583189
 30
0.0
 10
263.894393
 20
696.829582
 30
0.0
  0
SPLINE
  5
46c
100
AcDbEntity
  8
holes
 62
7
100
AcDbSpline
 70
8
 71
3
 72
8
 73
4
 74
0
 40
0
 40
0
 40
0
 40
0
 40
1
 40
1
 40
1
 40
1
 10
263.894393
 20
696.829582
 30
0.0
 10
262.589107
 20
696.075975
 30
0.0
 10
261.785018
 20
694.683251
 30
0.0
 10
261.785018
 20
693.176037
 30
0.0
  0
LWPOLYLINE
  5
46d
100
AcDbEntity
  8
holes
 62
7
100
AcDbPolyline
 90
1
 70
1
 10
261.624872
 20
681.467119
 30
0.0
  0
SPLINE
  5
46e
100
AcDbEntity
  8
holes
 62
7
100
AcDbSpline
 70
8
 71
3
 72
8
 73
4
 74
0
 40
0
 40
0
 40
0
 40
0
 40
1
 40
1
 40
1
 40
1
 10
261.723316
 20
704.626557
 30
0.0
 10
261.723316
 20
703.119343
 30
0.0
 10
262.527405
 20
701.726620
 30
0.0
 10
263.832691
 20
700.973013
 30
0.0
  0
SPLINE
  5
46f
100
AcDbEntity
  8
holes
 62
7
100
AcDbSpline
 70
8
 71
3
 72
8
 73
4
 74
0
 40
0
 40
0
 40
0
 40
0
 40
1
 40
1
 40
1
 40
1
 10
263.832691
 20
700.973013
 30
0.0
 10
265.137977
 20
700.219406
 30
0.0
 10
266.746155
 20
700.219406
 30
0.0
 10
268.051441
 20
700.973013
 30
0.0
  0
SPLINE
  5
470
100
AcDbEntity
  8
holes
 62
7
100
AcDbSpline
 70
8
 71
3
 72
8
 73
4
 74
0
 40
0
 40
0
 40
0
 40
0
 40
1
 40
1
 40
1
 40
1
 10
268.051441
 20
700.973013
 30
0.0
 10
269.356727
 20
701.726620
 30
0.0
 10
270.160816
 20
703.119343
 30
0.0
 10
270.160816
 20
704.626557
 30
0.0
  0
SPLINE
  5
471
100
AcDbEntity
  8
holes
 62
7
100
AcDbSpline
 70
8
 71
3
 72
8
 73
4
 74
0
 40
0
 40
0
 40
0
 40
0
 40
1
 40
1
 40
1
 40
1
 10
270.160816
 20
704.626557
 30
0.0
 10
270.160816
 20
706.133771
 30
0.0
 10
269.356727
 20
707.526495
 30
0.0
 10
268.051441
 20
708.280102
 30
0.0
  0
SPLINE
  5
472
100
AcDbEntity
  8
holes
 62
7
100
AcDbSpline
 70
8
 71
3
 72
8
 73
4
 74
0
 40
0
 40
0
 40
0
 40
0
 40
1
 40
1
 40
1
 40
1
 10
268.051441
 20
708.280102
 30
0.0
 10
266.746155
 20
709.033709
 30
0.0
 10
265.137977
 20
709.033709
 30
0.0
 10
263.832691
 20
708.280102
 30
0.0
  0
SPLINE
  5
473
100
AcDbEntity
  8
holes
 62
7
100
AcDbSpline
 70
8
 71
3
 72
8
 73
4
 74
0
 40
0
 40
0
 40
0
 40
0
 40
1
 40
1
 40
1
 40
1
 10
263.832691
 20
708.280102
 30
0.0
 10
262.527405
 20
707.526495
 30
0.0
 10
261.723316
 20
706.133771
 30
0.0
 10
261.723316
 20
704.626557
 30
0.0
  0
LWPOLYLINE
  5
474
100
AcDbEntity
  8
holes
 62
7
100
AcDbPolyline
 90
1
 70
1
 10
261.785018
 20
693.176037
 30
0.0
  0
SPLINE
  5
475
100
AcDbEntity
  8
holes
 62
7
100
AcDbSpline
 70
8
 71
3
 72
8
 73
4
 74
0
 40
0
 40
0
 40
0
 40
0
 40
1
 40
1
 40
1
 40
1
 10
261.583131
 20
716.413938
 30
0.0
 10
261.583131
 20
714.906724
 30
0.0
 10
262.387221
 20
713.514000
 30
0.0
 10
263.692506
 20
712.760393
 30
0.0
  0
SPLINE
  5
476
100
AcDbEntity
  8
holes
 62
7
100
AcDbSpline
 70
8
 71
3
 72
8
 73
4
 74
0
 40
0
 40
0
 40
0
 40
0
 40
1
 40
1
 40
1
 40
1
 10
263.692506
 20
712.760393
 30
0.0
 10
264.997792
 20
712.006786
 30
0.0
 10
266.605970
 20
712.006786
 30
0.0
 10
267.911256
 20
712.760393
 30
0.0
  0
SPLINE
  5
477
100
AcDbEntity
  8
holes
 62
7
100
AcDbSpline
 70
8
 71
3
 72
8
 73
4
 74
0
 40
0
 40
0
 40
0
 40
0
 40
1
 40
1
 40
1
 40
1
 10
267.911256
 20
712.760393
 30
0.0
 10
269.216542
 20
713.514000
 30
0.0
 10
270.020631
 20
714.906724
 30
0.0
 10
270.020631
 20
716.413938
 30
0.0
  0
SPLINE
  5
478
100
AcDbEntity
  8
holes
 62
7
100
AcDbSpline
 70
8
 71
3
 72
8
 73
4
 74
0
 40
0
 40
0
 40
0
 40
0
 40
1
 40
1
 40
1
 40
1
 10
270.020631
 20
716.413938
 30
0.0
 10
270.020631
 20
717.921152
 30
0.0
 10
269.216542
 20
719.313875
 30
0.0
 10
267.911256
 20
720.067483
 30
0.0
  0
SPLINE
  5
479
100
AcDbEntity
  8
holes
 62
7
100
AcDbSpline
 70
8
 71
3
 72
8
 73
4
 74
0
 40
0
 40
0
 40
0
 40
0
 40
1
 40
1
 40
1
 40
1
 10
267.911256
 20
720.067483
 30
0.0
 10
266.605970
 20
720.821090
 30
0.0
 10
264.997792
 20
720.821090
 30
0.0
 10
263.692506
 20
720.067483
 30
0.0
  0
SPLINE
  5
47a
100
AcDbEntity
  8
holes
 62
7
100
AcDbSpline
 70
8
 71
3
 72
8
 73
4
 74
0
 40
0
 40
0
 40
0
 40
0
 40
1
 40
1
 40
1
 40
1
 10
263.692506
 20
720.067483
 30
0.0
 10
262.387221
 20
719.313875
 30
0.0
 10
261.583131
 20
717.921152
 30
0.0
 10
261.583131
 20
716.413938
 30
0.0
  0
LWPOLYLINE
  5
47b
100
AcDbEntity
  8
holes
 62
7
100
AcDbPolyline
 90
1
 70
1
 10
261.723316
 20
704.626557
 30
0.0
  0
LWPOLYLINE
  5
47c
100
AcDbEntity
  8
holes
 62
7
100
AcDbPolyline
 90
1
 70
1
 10
261.583131
 20
716.413938
 30
0.0
  0
ENDSEC
  0
SECTION
  2
OBJECTS
  0
DICTIONARY
  5
C
330
0
100
AcDbDictionary
  3
ACAD_GROUP
350
D
  3
ACAD_MLINESTYLE
350
17
  0
DICTIONARY
  5
D
330
C
100
AcDbDictionary
  0
DICTIONARY
  5
1A
330
C
100
AcDbDictionary
  0
DICTIONARY
  5
17
330
C
100
AcDbDictionary
  3
STANDARD
350
18
  0
DICTIONARY
  5
19
330
C
100
AcDbDictionary
  0
ENDSEC
  0
EOF
