ISO-10303-21;
HEADER;
/* Generated by software containing ST-Developer
 * from STEP Tools, Inc. (www.steptools.com) 
 */

FILE_DESCRIPTION(
/* description */ (''),
/* implementation_level */ '2;1');

FILE_NAME(
/* name */ '/Users/megumiiwata/Desktop/sphere v1.step',
/* time_stamp */ '2018-03-14T16:15:12+02:00',
/* author */ ('Megumi.Iwata'),
/* organization */ (''),
/* preprocessor_version */ 'ST-DEVELOPER v16.13',
/* originating_system */ 'Autodesk Translation Framework v6.5.0.72',
/* authorisation */ '');

FILE_SCHEMA (('AUTOMOTIVE_DESIGN { 1 0 10303 214 3 1 1 }'));
ENDSEC;

DATA;
#10=MECHANICAL_DESIGN_GEOMETRIC_PRESENTATION_REPRESENTATION('',(#24,#23),
#171);
#11=ITEM_DEFINED_TRANSFORMATION($,$,#99,#111);
#12=ITEM_DEFINED_TRANSFORMATION($,$,#105,#112);
#13=(
REPRESENTATION_RELATIONSHIP($,$,#185,#184)
REPRESENTATION_RELATIONSHIP_WITH_TRANSFORMATION(#11)
SHAPE_REPRESENTATION_RELATIONSHIP()
);
#14=(
REPRESENTATION_RELATIONSHIP($,$,#186,#184)
REPRESENTATION_RELATIONSHIP_WITH_TRANSFORMATION(#12)
SHAPE_REPRESENTATION_RELATIONSHIP()
);
#15=CONTEXT_DEPENDENT_SHAPE_REPRESENTATION(#13,#182);
#16=CONTEXT_DEPENDENT_SHAPE_REPRESENTATION(#14,#183);
#17=NEXT_ASSEMBLY_USAGE_OCCURRENCE('Component1:1','Component1:1',
'Component1:1',#188,#189,'Component1:1');
#18=NEXT_ASSEMBLY_USAGE_OCCURRENCE('Component2:1','Component2:1',
'Component2:1',#188,#190,'Component2:1');
#19=SHAPE_REPRESENTATION_RELATIONSHIP('SRR','None',#185,#21);
#20=SHAPE_REPRESENTATION_RELATIONSHIP('SRR','None',#186,#22);
#21=ADVANCED_BREP_SHAPE_REPRESENTATION('',(#25),#169);
#22=ADVANCED_BREP_SHAPE_REPRESENTATION('',(#26),#170);
#23=STYLED_ITEM('',(#203),#25);
#24=STYLED_ITEM('',(#203),#26);
#25=MANIFOLD_SOLID_BREP('Body1',#73);
#26=MANIFOLD_SOLID_BREP('Body1',#74);
#27=PLANE('',#104);
#28=PLANE('',#106);
#29=FACE_OUTER_BOUND('',#33,.T.);
#30=FACE_OUTER_BOUND('',#34,.T.);
#31=FACE_OUTER_BOUND('',#35,.T.);
#32=FACE_OUTER_BOUND('',#36,.T.);
#33=EDGE_LOOP('',(#55,#56,#57,#58));
#34=EDGE_LOOP('',(#59,#60));
#35=EDGE_LOOP('',(#61,#62));
#36=EDGE_LOOP('',(#63,#64,#65,#66));
#37=CIRCLE('',#101,45.);
#38=CIRCLE('',#102,45.);
#39=CIRCLE('',#103,45.);
#40=CIRCLE('',#107,45.);
#41=CIRCLE('',#108,45.);
#42=CIRCLE('',#110,45.);
#43=VERTEX_POINT('',#146);
#44=VERTEX_POINT('',#147);
#45=VERTEX_POINT('',#150);
#46=VERTEX_POINT('',#155);
#47=VERTEX_POINT('',#156);
#48=VERTEX_POINT('',#160);
#49=EDGE_CURVE('',#43,#44,#37,.T.);
#50=EDGE_CURVE('',#44,#43,#38,.T.);
#51=EDGE_CURVE('',#44,#45,#39,.T.);
#52=EDGE_CURVE('',#46,#47,#40,.T.);
#53=EDGE_CURVE('',#47,#46,#41,.T.);
#54=EDGE_CURVE('',#48,#47,#42,.T.);
#55=ORIENTED_EDGE('',*,*,#49,.F.);
#56=ORIENTED_EDGE('',*,*,#50,.F.);
#57=ORIENTED_EDGE('',*,*,#51,.T.);
#58=ORIENTED_EDGE('',*,*,#51,.F.);
#59=ORIENTED_EDGE('',*,*,#49,.T.);
#60=ORIENTED_EDGE('',*,*,#50,.T.);
#61=ORIENTED_EDGE('',*,*,#52,.F.);
#62=ORIENTED_EDGE('',*,*,#53,.F.);
#63=ORIENTED_EDGE('',*,*,#52,.T.);
#64=ORIENTED_EDGE('',*,*,#54,.F.);
#65=ORIENTED_EDGE('',*,*,#54,.T.);
#66=ORIENTED_EDGE('',*,*,#53,.T.);
#67=SPHERICAL_SURFACE('',#100,45.);
#68=SPHERICAL_SURFACE('',#109,45.);
#69=ADVANCED_FACE('',(#29),#67,.T.);
#70=ADVANCED_FACE('',(#30),#27,.T.);
#71=ADVANCED_FACE('',(#31),#28,.F.);
#72=ADVANCED_FACE('',(#32),#68,.T.);
#73=CLOSED_SHELL('',(#69,#70));
#74=CLOSED_SHELL('',(#71,#72));
#75=DERIVED_UNIT_ELEMENT(#79,1.);
#76=DERIVED_UNIT_ELEMENT(#175,3.);
#77=DERIVED_UNIT_ELEMENT(#79,1.);
#78=DERIVED_UNIT_ELEMENT(#175,3.);
#79=(
MASS_UNIT()
NAMED_UNIT(*)
SI_UNIT(.KILO.,.GRAM.)
);
#80=DERIVED_UNIT((#75,#76));
#81=DERIVED_UNIT((#77,#78));
#82=MEASURE_REPRESENTATION_ITEM('density measure',
POSITIVE_RATIO_MEASURE(7850.),#80);
#83=MEASURE_REPRESENTATION_ITEM('density measure',
POSITIVE_RATIO_MEASURE(7850.),#81);
#84=PROPERTY_DEFINITION_REPRESENTATION(#94,#88);
#85=PROPERTY_DEFINITION_REPRESENTATION(#95,#89);
#86=PROPERTY_DEFINITION_REPRESENTATION(#96,#90);
#87=PROPERTY_DEFINITION_REPRESENTATION(#97,#91);
#88=REPRESENTATION('material name',(#92),#169);
#89=REPRESENTATION('density',(#82),#169);
#90=REPRESENTATION('material name',(#93),#170);
#91=REPRESENTATION('density',(#83),#170);
#92=DESCRIPTIVE_REPRESENTATION_ITEM('Steel','Steel');
#93=DESCRIPTIVE_REPRESENTATION_ITEM('Steel','Steel');
#94=PROPERTY_DEFINITION('material property','material name',#189);
#95=PROPERTY_DEFINITION('material property','density of part',#189);
#96=PROPERTY_DEFINITION('material property','material name',#190);
#97=PROPERTY_DEFINITION('material property','density of part',#190);
#98=AXIS2_PLACEMENT_3D('placement',#143,#113,#114);
#99=AXIS2_PLACEMENT_3D('placement',#144,#115,#116);
#100=AXIS2_PLACEMENT_3D('',#145,#117,#118);
#101=AXIS2_PLACEMENT_3D('',#148,#119,#120);
#102=AXIS2_PLACEMENT_3D('',#149,#121,#122);
#103=AXIS2_PLACEMENT_3D('',#151,#123,#124);
#104=AXIS2_PLACEMENT_3D('',#152,#125,#126);
#105=AXIS2_PLACEMENT_3D('placement',#153,#127,#128);
#106=AXIS2_PLACEMENT_3D('',#154,#129,#130);
#107=AXIS2_PLACEMENT_3D('',#157,#131,#132);
#108=AXIS2_PLACEMENT_3D('',#158,#133,#134);
#109=AXIS2_PLACEMENT_3D('',#159,#135,#136);
#110=AXIS2_PLACEMENT_3D('',#161,#137,#138);
#111=AXIS2_PLACEMENT_3D('',#162,#139,#140);
#112=AXIS2_PLACEMENT_3D('',#163,#141,#142);
#113=DIRECTION('axis',(0.,0.,1.));
#114=DIRECTION('refdir',(1.,0.,0.));
#115=DIRECTION('axis',(0.,0.,1.));
#116=DIRECTION('refdir',(1.,0.,0.));
#117=DIRECTION('center_axis',(0.,-1.57898385724467E-16,-1.));
#118=DIRECTION('ref_axis',(1.,0.,0.));
#119=DIRECTION('center_axis',(0.,-1.22464679914735E-16,-1.));
#120=DIRECTION('ref_axis',(0.,-1.,1.22464679914735E-16));
#121=DIRECTION('center_axis',(0.,-1.22464679914735E-16,-1.));
#122=DIRECTION('ref_axis',(0.,-1.,1.22464679914735E-16));
#123=DIRECTION('center_axis',(9.86864910777917E-17,1.,-1.22464679914735E-16));
#124=DIRECTION('ref_axis',(-1.,9.86864910777917E-17,-1.49975978266186E-32));
#125=DIRECTION('center_axis',(0.,-1.22464679914735E-16,-1.));
#126=DIRECTION('ref_axis',(1.,0.,0.));
#127=DIRECTION('axis',(0.,0.,1.));
#128=DIRECTION('refdir',(1.,0.,0.));
#129=DIRECTION('center_axis',(0.,0.,1.));
#130=DIRECTION('ref_axis',(1.,0.,0.));
#131=DIRECTION('center_axis',(0.,0.,1.));
#132=DIRECTION('ref_axis',(0.,1.,0.));
#133=DIRECTION('center_axis',(0.,0.,1.));
#134=DIRECTION('ref_axis',(0.,1.,0.));
#135=DIRECTION('center_axis',(7.89491928622334E-17,0.,1.));
#136=DIRECTION('ref_axis',(1.,0.,0.));
#137=DIRECTION('center_axis',(9.86864910777917E-17,-1.,0.));
#138=DIRECTION('ref_axis',(-1.,-9.86864910777917E-17,0.));
#139=DIRECTION('',(4.46557438699759E-16,1.89408164341937E-16,1.));
#140=DIRECTION('',(1.,-7.21644966006355E-16,-7.77156117237609E-16));
#141=DIRECTION('',(-8.57548913112628E-16,-4.39857254162468E-15,1.));
#142=DIRECTION('',(0.999999999999997,1.49880108324396E-15,-7.91033905045423E-16));
#143=CARTESIAN_POINT('',(0.,0.,0.));
#144=CARTESIAN_POINT('',(0.,0.,0.));
#145=CARTESIAN_POINT('Origin',(131.416551533456,26.4914123325443,0.));
#146=CARTESIAN_POINT('',(131.416551533456,71.4914123325443,-5.51091059616309E-15));
#147=CARTESIAN_POINT('',(86.4165515334558,26.4914123325443,-5.43852429378756E-31));
#148=CARTESIAN_POINT('Origin',(131.416551533456,26.4914123325443,0.));
#149=CARTESIAN_POINT('Origin',(131.416551533456,26.4914123325443,0.));
#150=CARTESIAN_POINT('',(131.416551533456,26.4914123325443,45.));
#151=CARTESIAN_POINT('Origin',(131.416551533456,26.4914123325443,0.));
#152=CARTESIAN_POINT('Origin',(20.,27.9828246650887,-1.8264533392593E-16));
#153=CARTESIAN_POINT('',(0.,0.,0.));
#154=CARTESIAN_POINT('Origin',(20.,25.,0.));
#155=CARTESIAN_POINT('',(20.,-20.,0.));
#156=CARTESIAN_POINT('',(-25.,25.,0.));
#157=CARTESIAN_POINT('Origin',(20.,25.,0.));
#158=CARTESIAN_POINT('Origin',(20.,25.,0.));
#159=CARTESIAN_POINT('Origin',(20.,25.,0.));
#160=CARTESIAN_POINT('',(20.,25.,45.));
#161=CARTESIAN_POINT('Origin',(20.,25.,0.));
#162=CARTESIAN_POINT('',(22.6857258376148,20.2806939283294,1.10933564796705E-30));
#163=CARTESIAN_POINT('',(31.9432517332706,22.719620766456,-4.93038065763132E-31));
#164=UNCERTAINTY_MEASURE_WITH_UNIT(LENGTH_MEASURE(0.01),#174,
'DISTANCE_ACCURACY_VALUE',
'Maximum model space distance between geometric entities at asserted c
onnectivities');
#165=UNCERTAINTY_MEASURE_WITH_UNIT(LENGTH_MEASURE(0.01),#174,
'DISTANCE_ACCURACY_VALUE',
'Maximum model space distance between geometric entities at asserted c
onnectivities');
#166=UNCERTAINTY_MEASURE_WITH_UNIT(LENGTH_MEASURE(0.01),#174,
'DISTANCE_ACCURACY_VALUE',
'Maximum model space distance between geometric entities at asserted c
onnectivities');
#167=UNCERTAINTY_MEASURE_WITH_UNIT(LENGTH_MEASURE(0.01),#174,
'DISTANCE_ACCURACY_VALUE',
'Maximum model space distance between geometric entities at asserted c
onnectivities');
#168=(
GEOMETRIC_REPRESENTATION_CONTEXT(3)
GLOBAL_UNCERTAINTY_ASSIGNED_CONTEXT((#164))
GLOBAL_UNIT_ASSIGNED_CONTEXT((#174,#173,#172))
REPRESENTATION_CONTEXT('','3D')
);
#169=(
GEOMETRIC_REPRESENTATION_CONTEXT(3)
GLOBAL_UNCERTAINTY_ASSIGNED_CONTEXT((#165))
GLOBAL_UNIT_ASSIGNED_CONTEXT((#174,#173,#172))
REPRESENTATION_CONTEXT('','3D')
);
#170=(
GEOMETRIC_REPRESENTATION_CONTEXT(3)
GLOBAL_UNCERTAINTY_ASSIGNED_CONTEXT((#166))
GLOBAL_UNIT_ASSIGNED_CONTEXT((#174,#173,#172))
REPRESENTATION_CONTEXT('','3D')
);
#171=(
GEOMETRIC_REPRESENTATION_CONTEXT(3)
GLOBAL_UNCERTAINTY_ASSIGNED_CONTEXT((#167))
GLOBAL_UNIT_ASSIGNED_CONTEXT((#174,#173,#172))
REPRESENTATION_CONTEXT('','3D')
);
#172=(
NAMED_UNIT(*)
SI_UNIT($,.STERADIAN.)
SOLID_ANGLE_UNIT()
);
#173=(
NAMED_UNIT(*)
PLANE_ANGLE_UNIT()
SI_UNIT($,.RADIAN.)
);
#174=(
LENGTH_UNIT()
NAMED_UNIT(*)
SI_UNIT(.MILLI.,.METRE.)
);
#175=(
LENGTH_UNIT()
NAMED_UNIT(*)
SI_UNIT($,.METRE.)
);
#176=SHAPE_DEFINITION_REPRESENTATION(#179,#184);
#177=SHAPE_DEFINITION_REPRESENTATION(#180,#185);
#178=SHAPE_DEFINITION_REPRESENTATION(#181,#186);
#179=PRODUCT_DEFINITION_SHAPE('',$,#188);
#180=PRODUCT_DEFINITION_SHAPE('',$,#189);
#181=PRODUCT_DEFINITION_SHAPE('',$,#190);
#182=PRODUCT_DEFINITION_SHAPE($,$,#17);
#183=PRODUCT_DEFINITION_SHAPE($,$,#18);
#184=SHAPE_REPRESENTATION('',(#98,#111,#112),#168);
#185=SHAPE_REPRESENTATION('',(#99),#169);
#186=SHAPE_REPRESENTATION('',(#105),#170);
#187=PRODUCT_DEFINITION_CONTEXT('part definition',#198,'design');
#188=PRODUCT_DEFINITION('sphere','sphere v1',#191,#187);
#189=PRODUCT_DEFINITION('Component1','Component1',#192,#187);
#190=PRODUCT_DEFINITION('Component2','Component2',#193,#187);
#191=PRODUCT_DEFINITION_FORMATION('',$,#200);
#192=PRODUCT_DEFINITION_FORMATION('',$,#201);
#193=PRODUCT_DEFINITION_FORMATION('',$,#202);
#194=PRODUCT_RELATED_PRODUCT_CATEGORY('sphere v1','sphere v1',(#200));
#195=PRODUCT_RELATED_PRODUCT_CATEGORY('Component1','Component1',(#201));
#196=PRODUCT_RELATED_PRODUCT_CATEGORY('Component2','Component2',(#202));
#197=APPLICATION_PROTOCOL_DEFINITION('international standard',
'automotive_design',2009,#198);
#198=APPLICATION_CONTEXT(
'Core Data for Automotive Mechanical Design Process');
#199=PRODUCT_CONTEXT('part definition',#198,'mechanical');
#200=PRODUCT('sphere','sphere v1',$,(#199));
#201=PRODUCT('Component1','Component1',$,(#199));
#202=PRODUCT('Component2','Component2',$,(#199));
#203=PRESENTATION_STYLE_ASSIGNMENT((#204));
#204=SURFACE_STYLE_USAGE(.BOTH.,#205);
#205=SURFACE_SIDE_STYLE('',(#206));
#206=SURFACE_STYLE_FILL_AREA(#207);
#207=FILL_AREA_STYLE('Steel - Satin',(#208));
#208=FILL_AREA_STYLE_COLOUR('Steel - Satin',#209);
#209=COLOUR_RGB('Steel - Satin',0.627450980392157,0.627450980392157,0.627450980392157);
ENDSEC;
END-ISO-10303-21;
