  0
SECTION
  2
HEADER
  9
$ACADVER
  1
AC1009
  9
$DWGCODEPAGE
  3
ansi_1252
  9
$INSBASE
 10
0.0
 20
0.0
 30
0.0
  9
$EXTMIN
 10
0.0
 20
0.0
 30
0.0
  9
$EXTMAX
 10
996.8657475730008
 20
999.8482222618383
 30
0.0
  9
$LIMMIN
 10
0.0
 20
0.0
  9
$LIMMAX
 10
12.0
 20
9.0
  9
$ORTHOMODE
 70
     0
  9
$REGENMODE
 70
     1
  9
$FILLMODE
 70
     1
  9
$QTEXTMODE
 70
     0
  9
$MIRRTEXT
 70
     1
  9
$DRAGMODE
 70
     2
  9
$LTSCALE
 40
1.0
  9
$OSMODE
 70
    37
  9
$ATTMODE
 70
     1
  9
$TEXTSIZE
 40
0.2
  9
$TRACEWID
 40
0.05
  9
$TEXTSTYLE
  7
STANDARD
  9
$CLAYER
  8
0
  9
$CELTYPE
  6
BYLAYER
  9
$CECOLOR
 62
   256
  9
$DIMSCALE
 40
1.0
  9
$DIMASZ
 40
0.18
  9
$DIMEXO
 40
0.0625
  9
$DIMDLI
 40
0.38
  9
$DIMRND
 40
0.0
  9
$DIMDLE
 40
0.0
  9
$DIMEXE
 40
0.18
  9
$DIMTP
 40
0.0
  9
$DIMTM
 40
0.0
  9
$DIMTXT
 40
0.18
  9
$DIMCEN
 40
0.09
  9
$DIMTSZ
 40
0.0
  9
$DIMTOL
 70
     0
  9
$DIMLIM
 70
     0
  9
$DIMTIH
 70
     1
  9
$DIMTOH
 70
     1
  9
$DIMSE1
 70
     0
  9
$DIMSE2
 70
     0
  9
$DIMTAD
 70
     0
  9
$DIMZIN
 70
     0
  9
$DIMBLK
  1

  9
$DIMASO
 70
     1
  9
$DIMSHO
 70
     1
  9
$DIMPOST
  1

  9
$DIMAPOST
  1

  9
$DIMALT
 70
     0
  9
$DIMALTD
 70
     2
  9
$DIMALTF
 40
25.4
  9
$DIMLFAC
 40
1.0
  9
$DIMTOFL
 70
     0
  9
$DIMTVP
 40
0.0
  9
$DIMTIX
 70
     0
  9
$DIMSOXD
 70
     0
  9
$DIMSAH
 70
     0
  9
$DIMBLK1
  1

  9
$DIMBLK2
  1

  9
$DIMSTYLE
  2
STANDARD
  9
$DIMCLRD
 70
     0
  9
$DIMCLRE
 70
     0
  9
$DIMCLRT
 70
     0
  9
$DIMTFAC
 40
1.0
  9
$DIMGAP
 40
0.09
  9
$LUNITS
 70
     2
  9
$LUPREC
 70
     4
  9
$SKETCHINC
 40
0.1
  9
$FILLETRAD
 40
0.5
  9
$AUNITS
 70
     0
  9
$AUPREC
 70
     0
  9
$MENU
  1
.
  9
$ELEVATION
 40
0.0
  9
$PELEVATION
 40
0.0
  9
$THICKNESS
 40
0.0
  9
$LIMCHECK
 70
     0
  9
$CHAMFERA
 40
0.0
  9
$CHAMFERB
 40
0.0
  9
$SKPOLY
 70
     0
  9
$TDCREATE
 40
2454910.5
  9
$TDUPDATE
 40
2458246.447916458
  9
$TDINDWG
 40
0.0000000116
  9
$TDUSRTIMER
 40
0.0000000116
  9
$USRTIMER
 70
     1
  9
$ANGBASE
 50
0.0
  9
$ANGDIR
 70
     0
  9
$PDMODE
 70
     0
  9
$PDSIZE
 40
0.0
  9
$PLINEWID
 40
0.0
  9
$COORDS
 70
     1
  9
$SPLFRAME
 70
     0
  9
$SPLINETYPE
 70
     6
  9
$SPLINESEGS
 70
     8
  9
$ATTDIA
 70
     0
  9
$ATTREQ
 70
     1
  9
$HANDLING
 70
     1
  9
$HANDSEED
  5
E9C
  9
$SURFTAB1
 70
     6
  9
$SURFTAB2
 70
     6
  9
$SURFTYPE
 70
     6
  9
$SURFU
 70
     6
  9
$SURFV
 70
     6
  9
$UCSNAME
  2

  9
$UCSORG
 10
0.0
 20
0.0
 30
0.0
  9
$UCSXDIR
 10
1.0
 20
0.0
 30
0.0
  9
$UCSYDIR
 10
0.0
 20
1.0
 30
0.0
  9
$PUCSNAME
  2

  9
$PUCSORG
 10
0.0
 20
0.0
 30
0.0
  9
$PUCSXDIR
 10
1.0
 20
0.0
 30
0.0
  9
$PUCSYDIR
 10
0.0
 20
1.0
 30
0.0
  9
$USERI1
 70
     0
  9
$USERI2
 70
     0
  9
$USERI3
 70
     0
  9
$USERI4
 70
     0
  9
$USERI5
 70
     0
  9
$USERR1
 40
0.0
  9
$USERR2
 40
0.0
  9
$USERR3
 40
0.0
  9
$USERR4
 40
0.0
  9
$USERR5
 40
0.0
  9
$WORLDVIEW
 70
     1
  9
$SHADEDGE
 70
     3
  9
$SHADEDIF
 70
    70
  9
$TILEMODE
 70
     1
  9
$MAXACTVP
 70
    64
  9
$PLIMCHECK
 70
     0
  9
$PEXTMIN
 10
1.000000000000000E+20
 20
1.000000000000000E+20
 30
1.000000000000000E+20
  9
$PEXTMAX
 10
-1.000000000000000E+20
 20
-1.000000000000000E+20
 30
-1.000000000000000E+20
  9
$PLIMMIN
 10
0.0
 20
0.0
  9
$PLIMMAX
 10
12.0
 20
9.0
  9
$UNITMODE
 70
     0
  9
$VISRETAIN
 70
     1
  9
$PLINEGEN
 70
     0
  9
$PSLTSCALE
 70
     1
  0
ENDSEC
  0
SECTION
  2
TABLES
  0
TABLE
  2
VPORT
 70
     1
  0
VPORT
  2
*ACTIVE
 70
     0
 10
0.0
 20
0.0
 11
1.0
 21
1.0
 12
10.42990654205607
 22
4.5
 13
0.0
 23
0.0
 14
0.5
 24
0.5
 15
0.5
 25
0.5
 16
0.0
 26
0.0
 36
1.0
 17
0.0
 27
0.0
 37
0.0
 40
9.0
 41
1.972972972850329
 42
50.0
 43
0.0
 44
0.0
 50
0.0
 51
0.0
 71
     0
 72
   100
 73
     1
 74
     3
 75
     0
 76
     0
 77
     0
 78
     0
  0
ENDTAB
  0
TABLE
  2
LTYPE
 70
     2
  0
LTYPE
  2
CONTINUOUS
 70
     0
  3
Solid line
 72
    65
 73
     0
 40
0.0
  0
LTYPE
  2
CONTINUOUS2
 70
     0
  3
Solid Line
 72
    65
 73
     0
 40
0.0
  0
ENDTAB
  0
TABLE
  2
LAYER
 70
     1
  0
LAYER
  2
0
 70
     0
 62
     7
  6
CONTINUOUS
  0
ENDTAB
  0
TABLE
  2
STYLE
 70
     1
  0
STYLE
  2
STANDARD
 70
     0
 40
0.0
 41
1.0
 50
0.0
 71
     0
 42
0.2
  3
txt
  4

  0
ENDTAB
  0
TABLE
  2
VIEW
 70
     0
  0
ENDTAB
  0
TABLE
  2
UCS
 70
     0
  0
ENDTAB
  0
TABLE
  2
APPID
 70
     1
  0
APPID
  2
ACAD
 70
     0
  0
ENDTAB
  0
TABLE
  2
DIMSTYLE
 70
     1
  0
DIMSTYLE
  2
STANDARD
 70
     0
  3

  4

  5

  6

  7

 40
1.0
 41
0.18
 42
0.0625
 43
0.38
 44
0.18
 45
0.0
 46
0.0
 47
0.0
 48
0.0
140
0.18
141
0.09
142
0.0
143
25.4
144
1.0
145
0.0
146
1.0
147
0.09
 71
     0
 72
     0
 73
     1
 74
     1
 75
     0
 76
     0
 77
     0
 78
     0
170
     0
171
     2
172
     0
173
     0
174
     0
175
     0
176
     0
177
     0
178
     0
  0
ENDTAB
  0
ENDSEC
  0
SECTION
  2
BLOCKS
  0
BLOCK
  8
0
  2
$MODEL_SPACE
 70
     0
 10
0.0
 20
0.0
 30
0.0
  3
$MODEL_SPACE
  1

  0
ENDBLK
  5
21
  8
0
  0
BLOCK
 67
     1
  8
0
  2
$PAPER_SPACE
 70
     0
 10
0.0
 20
0.0
 30
0.0
  3
$PAPER_SPACE
  1

  0
ENDBLK
  5
1D
 67
     1
  8
0
  0
ENDSEC
  0
SECTION
  2
ENTITIES
  0
POLYLINE
  5
6B
  8
0
 66
     1
 10
0.0
 20
0.0
 30
0.0
 70
     1
  0
VERTEX
  5
3E7
  8
0
 10
257.9999999999997
 20
508.0000000001005
 30
0.0
 42
0.4142135623730951
  0
VERTEX
  5
3E8
  8
0
 10
7.99999999999892
 20
258.0000000000998
 30
0.0
 42
0.4142135623730951
  0
VERTEX
  5
3E9
  8
0
 10
257.9999999999997
 20
8.000000000098908
 30
0.0
 42
0.4142135623730951
  0
VERTEX
  5
3EA
  8
0
 10
508.0000000000005
 20
258.0000000000998
 30
0.0
 42
0.4142135623730951
  0
SEQEND
  5
B27
  8
0
  0
POLYLINE
  5
6C
  8
0
 66
     1
 10
0.0
 20
0.0
 30
0.0
 70
     1
  0
VERTEX
  5
3EB
  8
0
 10
257.9999999999997
 20
515.9999999999995
 30
0.0
 42
0.4142135623730951
  0
VERTEX
  5
3EC
  8
0
 10
-0.0000000000000568
 20
257.9999999999998
 30
0.0
 42
0.4142135623730951
  0
VERTEX
  5
3ED
  8
0
 10
257.9999999999997
 20
0.0
 30
0.0
 42
0.4142135623730951
  0
VERTEX
  5
3EE
  8
0
 10
515.9999999999995
 20
257.9999999999998
 30
0.0
 42
0.4142135623730951
  0
SEQEND
  5
B28
  8
0
  0
POLYLINE
  5
6D
  8
0
 66
     1
 10
0.0
 20
0.0
 30
0.0
 70
     1
  0
VERTEX
  5
3EF
  8
0
 10
862.5088838948593
 20
581.2616603483366
 30
0.0
 42
0.4142135623730951
  0
VERTEX
  5
3F0
  8
0
 10
865.5171052927229
 20
578.26990433866
 30
0.0
 42
0.4142135623730951
  0
VERTEX
  5
3F1
  8
0
 10
868.5088613023994
 20
581.2781257365237
 30
0.0
 42
0.4142135623730951
  0
VERTEX
  5
3F2
  8
0
 10
865.5006399045359
 20
584.2698817462
 30
0.0
 42
0.4142135623730951
  0
SEQEND
  5
B29
  8
0
  0
POLYLINE
  5
6E
  8
0
 66
     1
 10
0.0
 20
0.0
 30
0.0
  0
VERTEX
  5
3F3
  8
0
 10
910.4258273679723
 20
611.5932697384516
 30
0.0
  0
VERTEX
  5
3F4
  8
0
 10
910.3440492733101
 20
641.3931575292339
 30
0.0
  0
SEQEND
  5
B2A
  8
0
  0
POLYLINE
  5
6F
  8
0
 66
     1
 10
0.0
 20
0.0
 30
0.0
  0
VERTEX
  5
3F5
  8
0
 10
916.2258055285944
 20
611.6091862803657
 30
0.0
  0
VERTEX
  5
3F6
  8
0
 10
910.4258273679723
 20
611.5932697384516
 30
0.0
  0
SEQEND
  5
B2B
  8
0
  0
POLYLINE
  5
70
  8
0
 66
     1
 10
0.0
 20
0.0
 30
0.0
  0
VERTEX
  5
3F7
  8
0
 10
916.1440274339323
 20
641.4090740711481
 30
0.0
  0
VERTEX
  5
3F8
  8
0
 10
916.2258055285944
 20
611.6091862803657
 30
0.0
  0
SEQEND
  5
B2C
  8
0
  0
POLYLINE
  5
71
  8
0
 66
     1
 10
0.0
 20
0.0
 30
0.0
  0
VERTEX
  5
3F9
  8
0
 10
910.3440492733101
 20
641.3931575292339
 30
0.0
  0
VERTEX
  5
3FA
  8
0
 10
916.1440274339323
 20
641.4090740711481
 30
0.0
  0
SEQEND
  5
B2D
  8
0
  0
POLYLINE
  5
72
  8
0
 66
     1
 10
0.0
 20
0.0
 30
0.0
  0
VERTEX
  5
3FB
  8
0
 10
985.5243389659806
 20
211.3978505295805
 30
0.0
  0
VERTEX
  5
3FC
  8
0
 10
985.6061170606429
 20
181.5979627387979
 30
0.0
  0
SEQEND
  5
B2E
  8
0
  0
POLYLINE
  5
73
  8
0
 66
     1
 10
0.0
 20
0.0
 30
0.0
  0
VERTEX
  5
3FD
  8
0
 10
979.7243608053585
 20
211.3819339876663
 30
0.0
  0
VERTEX
  5
3FE
  8
0
 10
985.5243389659806
 20
211.3978505295805
 30
0.0
  0
SEQEND
  5
B2F
  8
0
  0
POLYLINE
  5
74
  8
0
 66
     1
 10
0.0
 20
0.0
 30
0.0
  0
VERTEX
  5
3FF
  8
0
 10
979.8061389000208
 20
181.5820461968837
 30
0.0
  0
VERTEX
  5
400
  8
0
 10
979.7243608053585
 20
211.3819339876663
 30
0.0
  0
SEQEND
  5
B30
  8
0
  0
POLYLINE
  5
75
  8
0
 66
     1
 10
0.0
 20
0.0
 30
0.0
  0
VERTEX
  5
401
  8
0
 10
985.6061170606429
 20
181.5979627387979
 30
0.0
  0
VERTEX
  5
402
  8
0
 10
979.8061389000208
 20
181.5820461968837
 30
0.0
  0
SEQEND
  5
B31
  8
0
  0
POLYLINE
  5
76
  8
0
 66
     1
 10
0.0
 20
0.0
 30
0.0
  0
VERTEX
  5
403
  8
0
 10
984.9477759562986
 20
421.4970594169437
 30
0.0
  0
VERTEX
  5
404
  8
0
 10
985.0295540509608
 20
391.6971716261611
 30
0.0
  0
SEQEND
  5
B32
  8
0
  0
POLYLINE
  5
77
  8
0
 66
     1
 10
0.0
 20
0.0
 30
0.0
  0
VERTEX
  5
405
  8
0
 10
979.1477977956765
 20
421.4811428750296
 30
0.0
  0
VERTEX
  5
406
  8
0
 10
984.9477759562986
 20
421.4970594169437
 30
0.0
  0
SEQEND
  5
B33
  8
0
  0
POLYLINE
  5
78
  8
0
 66
     1
 10
0.0
 20
0.0
 30
0.0
  0
VERTEX
  5
407
  8
0
 10
979.2295758903387
 20
391.681255084247
 30
0.0
  0
VERTEX
  5
408
  8
0
 10
979.1477977956765
 20
421.4811428750296
 30
0.0
  0
SEQEND
  5
B34
  8
0
  0
POLYLINE
  5
79
  8
0
 66
     1
 10
0.0
 20
0.0
 30
0.0
  0
VERTEX
  5
409
  8
0
 10
985.0295540509608
 20
391.6971716261611
 30
0.0
  0
VERTEX
  5
40A
  8
0
 10
979.2295758903387
 20
391.681255084247
 30
0.0
  0
SEQEND
  5
B35
  8
0
  0
POLYLINE
  5
7A
  8
0
 66
     1
 10
0.0
 20
0.0
 30
0.0
  0
VERTEX
  5
40B
  8
0
 10
984.3712129466168
 20
631.5962683043068
 30
0.0
  0
VERTEX
  5
40C
  8
0
 10
984.4529910412788
 20
601.7963805135244
 30
0.0
  0
SEQEND
  5
B36
  8
0
  0
POLYLINE
  5
7B
  8
0
 66
     1
 10
0.0
 20
0.0
 30
0.0
  0
VERTEX
  5
40D
  8
0
 10
978.5712347859946
 20
631.5803517623926
 30
0.0
  0
VERTEX
  5
40E
  8
0
 10
984.3712129466168
 20
631.5962683043068
 30
0.0
  0
SEQEND
  5
B37
  8
0
  0
POLYLINE
  5
7C
  8
0
 66
     1
 10
0.0
 20
0.0
 30
0.0
  0
VERTEX
  5
40F
  8
0
 10
978.6530128806567
 20
601.7804639716102
 30
0.0
  0
VERTEX
  5
410
  8
0
 10
978.5712347859946
 20
631.5803517623926
 30
0.0
  0
SEQEND
  5
B38
  8
0
  0
POLYLINE
  5
7D
  8
0
 66
     1
 10
0.0
 20
0.0
 30
0.0
  0
VERTEX
  5
411
  8
0
 10
984.4529910412788
 20
601.7963805135244
 30
0.0
  0
VERTEX
  5
412
  8
0
 10
978.6530128806567
 20
601.7804639716102
 30
0.0
  0
SEQEND
  5
B39
  8
0
  0
POLYLINE
  5
7E
  8
0
 66
     1
 10
0.0
 20
0.0
 30
0.0
  0
VERTEX
  5
413
  8
0
 10
820.3443881602084
 20
641.1461767064286
 30
0.0
  0
VERTEX
  5
414
  8
0
 10
820.4261662548705
 20
611.3462889156463
 30
0.0
  0
SEQEND
  5
B3A
  8
0
  0
POLYLINE
  5
7F
  8
0
 66
     1
 10
0.0
 20
0.0
 30
0.0
  0
VERTEX
  5
415
  8
0
 10
814.5444099995863
 20
641.1302601645145
 30
0.0
  0
VERTEX
  5
416
  8
0
 10
820.3443881602084
 20
641.1461767064286
 30
0.0
  0
SEQEND
  5
B3B
  8
0
  0
POLYLINE
  5
80
  8
0
 66
     1
 10
0.0
 20
0.0
 30
0.0
  0
VERTEX
  5
417
  8
0
 10
814.6261880942486
 20
611.3303723737322
 30
0.0
  0
VERTEX
  5
418
  8
0
 10
814.5444099995863
 20
641.1302601645145
 30
0.0
  0
SEQEND
  5
B3C
  8
0
  0
POLYLINE
  5
81
  8
0
 66
     1
 10
0.0
 20
0.0
 30
0.0
  0
VERTEX
  5
419
  8
0
 10
820.4261662548705
 20
611.3462889156463
 30
0.0
  0
VERTEX
  5
41A
  8
0
 10
814.6261880942486
 20
611.3303723737322
 30
0.0
  0
SEQEND
  5
B3D
  8
0
  0
POLYLINE
  5
82
  8
0
 66
     1
 10
0.0
 20
0.0
 30
0.0
  0
VERTEX
  5
41B
  8
0
 10
820.5090420420785
 20
581.1464026310274
 30
0.0
  0
VERTEX
  5
41C
  8
0
 10
820.5908201367407
 20
551.3465148402448
 30
0.0
  0
SEQEND
  5
B3E
  8
0
  0
POLYLINE
  5
83
  8
0
 66
     1
 10
0.0
 20
0.0
 30
0.0
  0
VERTEX
  5
41D
  8
0
 10
814.7090638814564
 20
581.1304860891134
 30
0.0
  0
VERTEX
  5
41E
  8
0
 10
820.5090420420785
 20
581.1464026310274
 30
0.0
  0
SEQEND
  5
B3F
  8
0
  0
POLYLINE
  5
84
  8
0
 66
     1
 10
0.0
 20
0.0
 30
0.0
  0
VERTEX
  5
41F
  8
0
 10
814.7908419761186
 20
551.3305982983309
 30
0.0
  0
VERTEX
  5
420
  8
0
 10
814.7090638814564
 20
581.1304860891134
 30
0.0
  0
SEQEND
  5
B40
  8
0
  0
POLYLINE
  5
85
  8
0
 66
     1
 10
0.0
 20
0.0
 30
0.0
  0
VERTEX
  5
421
  8
0
 10
820.5908201367407
 20
551.3465148402448
 30
0.0
  0
VERTEX
  5
422
  8
0
 10
814.7908419761186
 20
551.3305982983309
 30
0.0
  0
SEQEND
  5
B41
  8
0
  0
POLYLINE
  5
86
  8
0
 66
     1
 10
0.0
 20
0.0
 30
0.0
  0
VERTEX
  5
423
  8
0
 10
910.5904812498424
 20
551.5934956630501
 30
0.0
  0
VERTEX
  5
424
  8
0
 10
910.5087031551801
 20
581.3933834538327
 30
0.0
  0
SEQEND
  5
B42
  8
0
  0
POLYLINE
  5
87
  8
0
 66
     1
 10
0.0
 20
0.0
 30
0.0
  0
VERTEX
  5
425
  8
0
 10
916.3904594104645
 20
551.6094122049642
 30
0.0
  0
VERTEX
  5
426
  8
0
 10
910.5904812498424
 20
551.5934956630501
 30
0.0
  0
SEQEND
  5
B43
  8
0
  0
POLYLINE
  5
88
  8
0
 66
     1
 10
0.0
 20
0.0
 30
0.0
  0
VERTEX
  5
427
  8
0
 10
916.3086813158022
 20
581.4092999957468
 30
0.0
  0
VERTEX
  5
428
  8
0
 10
916.3904594104645
 20
551.6094122049642
 30
0.0
  0
SEQEND
  5
B44
  8
0
  0
POLYLINE
  5
89
  8
0
 66
     1
 10
0.0
 20
0.0
 30
0.0
  0
VERTEX
  5
429
  8
0
 10
910.5087031551801
 20
581.3933834538327
 30
0.0
  0
VERTEX
  5
42A
  8
0
 10
916.3086813158022
 20
581.4092999957468
 30
0.0
  0
SEQEND
  5
B45
  8
0
  0
POLYLINE
  5
8A
  8
0
 66
     1
 10
0.0
 20
0.0
 30
0.0
  0
VERTEX
  5
42B
  8
0
 10
753.1191215187039
 20
285.8603572244535
 30
0.0
  0
VERTEX
  5
42C
  8
0
 10
747.3191433580818
 20
285.8444406825394
 30
0.0
  0
SEQEND
  5
B46
  8
0
  0
POLYLINE
  5
8B
  8
0
 66
     1
 10
0.0
 20
0.0
 30
0.0
  0
VERTEX
  5
42D
  8
0
 10
753.0373434240416
 20
315.6602450152361
 30
0.0
  0
VERTEX
  5
42E
  8
0
 10
753.1191215187039
 20
285.8603572244535
 30
0.0
  0
SEQEND
  5
B47
  8
0
  0
POLYLINE
  5
8C
  8
0
 66
     1
 10
0.0
 20
0.0
 30
0.0
  0
VERTEX
  5
42F
  8
0
 10
747.2373652634196
 20
315.644328473322
 30
0.0
  0
VERTEX
  5
430
  8
0
 10
753.0373434240416
 20
315.6602450152361
 30
0.0
  0
SEQEND
  5
B48
  8
0
  0
POLYLINE
  5
8D
  8
0
 66
     1
 10
0.0
 20
0.0
 30
0.0
  0
VERTEX
  5
431
  8
0
 10
752.2538653694761
 20
601.1591699906869
 30
0.0
  0
VERTEX
  5
432
  8
0
 10
746.453887208854
 20
601.1432534487727
 30
0.0
  0
SEQEND
  5
B49
  8
0
  0
POLYLINE
  5
8E
  8
0
 66
     1
 10
0.0
 20
0.0
 30
0.0
  0
VERTEX
  5
433
  8
0
 10
752.1720872748141
 20
630.9590577814695
 30
0.0
  0
VERTEX
  5
434
  8
0
 10
752.2538653694761
 20
601.1591699906869
 30
0.0
  0
SEQEND
  5
B4A
  8
0
  0
POLYLINE
  5
8F
  8
0
 66
     1
 10
0.0
 20
0.0
 30
0.0
  0
VERTEX
  5
435
  8
0
 10
746.372109114192
 20
630.9431412395553
 30
0.0
  0
VERTEX
  5
436
  8
0
 10
752.1720872748141
 20
630.9590577814695
 30
0.0
  0
SEQEND
  5
B4B
  8
0
  0
POLYLINE
  5
90
  8
0
 66
     1
 10
0.0
 20
0.0
 30
0.0
  0
VERTEX
  5
437
  8
0
 10
746.453887208854
 20
601.1432534487727
 30
0.0
  0
VERTEX
  5
438
  8
0
 10
746.372109114192
 20
630.9431412395553
 30
0.0
  0
SEQEND
  5
B4C
  8
0
  0
POLYLINE
  5
91
  8
0
 66
     1
 10
0.0
 20
0.0
 30
0.0
  0
VERTEX
  5
439
  8
0
 10
752.8304283791581
 20
391.0599611033236
 30
0.0
  0
VERTEX
  5
43A
  8
0
 10
747.030450218536
 20
391.0440445614095
 30
0.0
  0
SEQEND
  5
B4D
  8
0
  0
POLYLINE
  5
92
  8
0
 66
     1
 10
0.0
 20
0.0
 30
0.0
  0
VERTEX
  5
43B
  8
0
 10
752.7486502844959
 20
420.8598488941062
 30
0.0
  0
VERTEX
  5
43C
  8
0
 10
752.8304283791581
 20
391.0599611033236
 30
0.0
  0
SEQEND
  5
B4E
  8
0
  0
POLYLINE
  5
93
  8
0
 66
     1
 10
0.0
 20
0.0
 30
0.0
  0
VERTEX
  5
43D
  8
0
 10
746.9486721238737
 20
420.8439323521921
 30
0.0
  0
VERTEX
  5
43E
  8
0
 10
752.7486502844959
 20
420.8598488941062
 30
0.0
  0
SEQEND
  5
B4F
  8
0
  0
POLYLINE
  5
94
  8
0
 66
     1
 10
0.0
 20
0.0
 30
0.0
  0
VERTEX
  5
43F
  8
0
 10
747.030450218536
 20
391.0440445614095
 30
0.0
  0
VERTEX
  5
440
  8
0
 10
746.9486721238737
 20
420.8439323521921
 30
0.0
  0
SEQEND
  5
B50
  8
0
  0
POLYLINE
  5
95
  8
0
 66
     1
 10
0.0
 20
0.0
 30
0.0
  0
VERTEX
  5
441
  8
0
 10
753.4069913888401
 20
180.9607522159605
 30
0.0
  0
VERTEX
  5
442
  8
0
 10
747.6070132282181
 20
180.9448356740463
 30
0.0
  0
SEQEND
  5
B51
  8
0
  0
POLYLINE
  5
96
  8
0
 66
     1
 10
0.0
 20
0.0
 30
0.0
  0
VERTEX
  5
443
  8
0
 10
753.325213294178
 20
210.7606400067431
 30
0.0
  0
VERTEX
  5
444
  8
0
 10
753.4069913888401
 20
180.9607522159605
 30
0.0
  0
SEQEND
  5
B52
  8
0
  0
POLYLINE
  5
97
  8
0
 66
     1
 10
0.0
 20
0.0
 30
0.0
  0
VERTEX
  5
445
  8
0
 10
747.5252351335558
 20
210.7447234648289
 30
0.0
  0
VERTEX
  5
446
  8
0
 10
753.325213294178
 20
210.7606400067431
 30
0.0
  0
SEQEND
  5
B53
  8
0
  0
POLYLINE
  5
98
  8
0
 66
     1
 10
0.0
 20
0.0
 30
0.0
  0
VERTEX
  5
447
  8
0
 10
747.6070132282181
 20
180.9448356740463
 30
0.0
  0
VERTEX
  5
448
  8
0
 10
747.5252351335558
 20
210.7447234648289
 30
0.0
  0
SEQEND
  5
B54
  8
0
  0
POLYLINE
  5
99
  8
0
 66
     1
 10
0.0
 20
0.0
 30
0.0
  0
VERTEX
  5
449
  8
0
 10
752.5425585090218
 20
495.9595661118167
 30
0.0
  0
VERTEX
  5
44A
  8
0
 10
746.7425803483997
 20
495.9436495699026
 30
0.0
  0
SEQEND
  5
B55
  8
0
  0
POLYLINE
  5
9A
  8
0
 66
     1
 10
0.0
 20
0.0
 30
0.0
  0
VERTEX
  5
44B
  8
0
 10
752.4607804143596
 20
525.7594539025993
 30
0.0
  0
VERTEX
  5
44C
  8
0
 10
752.5425585090218
 20
495.9595661118167
 30
0.0
  0
SEQEND
  5
B56
  8
0
  0
POLYLINE
  5
9B
  8
0
 66
     1
 10
0.0
 20
0.0
 30
0.0
  0
VERTEX
  5
44D
  8
0
 10
746.6608022537375
 20
525.7435373606851
 30
0.0
  0
VERTEX
  5
44E
  8
0
 10
752.4607804143596
 20
525.7594539025993
 30
0.0
  0
SEQEND
  5
B57
  8
0
  0
POLYLINE
  5
9C
  8
0
 66
     1
 10
0.0
 20
0.0
 30
0.0
  0
VERTEX
  5
44F
  8
0
 10
746.7425803483997
 20
495.9436495699026
 30
0.0
  0
VERTEX
  5
450
  8
0
 10
746.6608022537375
 20
525.7435373606851
 30
0.0
  0
SEQEND
  5
B58
  8
0
  0
POLYLINE
  5
9D
  8
0
 66
     1
 10
0.0
 20
0.0
 30
0.0
  0
VERTEX
  5
451
  8
0
 10
984.6599060861623
 20
526.3966644254368
 30
0.0
  0
VERTEX
  5
452
  8
0
 10
984.7416841808244
 20
496.5967766346542
 30
0.0
  0
SEQEND
  5
B59
  8
0
  0
POLYLINE
  5
9E
  8
0
 66
     1
 10
0.0
 20
0.0
 30
0.0
  0
VERTEX
  5
453
  8
0
 10
978.8599279255402
 20
526.3807478835226
 30
0.0
  0
VERTEX
  5
454
  8
0
 10
984.6599060861623
 20
526.3966644254368
 30
0.0
  0
SEQEND
  5
B5A
  8
0
  0
POLYLINE
  5
9F
  8
0
 66
     1
 10
0.0
 20
0.0
 30
0.0
  0
VERTEX
  5
455
  8
0
 10
978.9417060202023
 20
496.5808600927401
 30
0.0
  0
VERTEX
  5
456
  8
0
 10
978.8599279255402
 20
526.3807478835226
 30
0.0
  0
SEQEND
  5
B5B
  8
0
  0
POLYLINE
  5
A0
  8
0
 66
     1
 10
0.0
 20
0.0
 30
0.0
  0
VERTEX
  5
457
  8
0
 10
984.7416841808244
 20
496.5967766346542
 30
0.0
  0
VERTEX
  5
458
  8
0
 10
978.9417060202023
 20
496.5808600927401
 30
0.0
  0
SEQEND
  5
B5C
  8
0
  0
POLYLINE
  5
A1
  8
0
 66
     1
 10
0.0
 20
0.0
 30
0.0
  0
VERTEX
  5
459
  8
0
 10
985.2364690958443
 20
316.2974555380736
 30
0.0
  0
VERTEX
  5
45A
  8
0
 10
985.3182471905066
 20
286.497567747291
 30
0.0
  0
SEQEND
  5
B5D
  8
0
  0
POLYLINE
  5
A2
  8
0
 66
     1
 10
0.0
 20
0.0
 30
0.0
  0
VERTEX
  5
45B
  8
0
 10
979.4364909352222
 20
316.2815389961595
 30
0.0
  0
VERTEX
  5
45C
  8
0
 10
985.2364690958443
 20
316.2974555380736
 30
0.0
  0
SEQEND
  5
B5E
  8
0
  0
POLYLINE
  5
A3
  8
0
 66
     1
 10
0.0
 20
0.0
 30
0.0
  0
VERTEX
  5
45D
  8
0
 10
979.5182690298844
 20
286.4816512053769
 30
0.0
  0
VERTEX
  5
45E
  8
0
 10
979.4364909352222
 20
316.2815389961595
 30
0.0
  0
SEQEND
  5
B5F
  8
0
  0
POLYLINE
  5
A4
  8
0
 66
     1
 10
0.0
 20
0.0
 30
0.0
  0
VERTEX
  5
45F
  8
0
 10
985.3182471905066
 20
286.497567747291
 30
0.0
  0
VERTEX
  5
460
  8
0
 10
979.5182690298844
 20
286.4816512053769
 30
0.0
  0
SEQEND
  5
B60
  8
0
  0
POLYLINE
  5
A5
  8
0
 66
     1
 10
0.0
 20
0.0
 30
0.0
  0
VERTEX
  5
461
  8
0
 10
747.3191433580818
 20
285.8444406825394
 30
0.0
  0
VERTEX
  5
462
  8
0
 10
747.2373652634196
 20
315.644328473322
 30
0.0
  0
SEQEND
  5
B61
  8
0
  0
POLYLINE
  5
A6
  8
0
 66
     1
 10
0.0
 20
0.0
 30
0.0
  0
VERTEX
  5
463
  8
0
 10
741.689362761613
 20
150.9284832481588
 30
0.0
  0
VERTEX
  5
464
  8
0
 10
740.2898047657168
 20
660.926562889069
 30
0.0
  0
SEQEND
  5
B62
  8
0
  0
POLYLINE
  5
A7
  8
0
 66
     1
 10
0.0
 20
0.0
 30
0.0
  0
VERTEX
  5
465
  8
0
 10
991.6884214091181
 20
151.6145410892842
 30
0.0
  0
VERTEX
  5
466
  8
0
 10
741.689362761613
 20
150.9284832481588
 30
0.0
  0
SEQEND
  5
B63
  8
0
  0
POLYLINE
  5
A8
  8
0
 66
     1
 10
0.0
 20
0.0
 30
0.0
  0
VERTEX
  5
467
  8
0
 10
990.2888634132217
 20
661.6126207301946
 30
0.0
  0
VERTEX
  5
468
  8
0
 10
991.6884214091181
 20
151.6145410892842
 30
0.0
  0
SEQEND
  5
B64
  8
0
  0
POLYLINE
  5
A9
  8
0
 66
     1
 10
0.0
 20
0.0
 30
0.0
  0
VERTEX
  5
469
  8
0
 10
740.2898047657168
 20
660.926562889069
 30
0.0
  0
VERTEX
  5
46A
  8
0
 10
990.2888634132217
 20
661.6126207301946
 30
0.0
  0
SEQEND
  5
B65
  8
0
  0
POLYLINE
  5
AA
  8
0
 66
     1
 10
0.0
 20
0.0
 30
0.0
 70
     1
  0
VERTEX
  5
46B
  8
0
 10
397.321363380748
 20
337.7159625453166
 30
0.0
 42
0.4142135623730951
  0
VERTEX
  5
46C
  8
0
 10
394.821363380748
 20
335.2159625453166
 30
0.0
 42
0.4142135623730951
  0
VERTEX
  5
46D
  8
0
 10
397.321363380748
 20
332.7159625453166
 30
0.0
 42
0.4142135623730951
  0
VERTEX
  5
46E
  8
0
 10
399.821363380748
 20
335.2159625453166
 30
0.0
 42
0.4142135623730951
  0
SEQEND
  5
B66
  8
0
  0
POLYLINE
  5
AB
  8
0
 66
     1
 10
0.0
 20
0.0
 30
0.0
  0
VERTEX
  5
46F
  8
0
 10
359.4529752600998
 20
342.1611177734532
 30
0.0
 42
0.0121541043205547
  0
VERTEX
  5
470
  8
0
 10
359.1602151029454
 20
340.3127028877826
 30
0.0
  0
SEQEND
  5
B67
  8
0
  0
POLYLINE
  5
AC
  8
0
 66
     1
 10
0.0
 20
0.0
 30
0.0
  0
VERTEX
  5
471
  8
0
 10
367.7092674704009
 20
343.0232124962095
 30
0.0
 42
0.1516441464539002
  0
VERTEX
  5
472
  8
0
 10
359.4529752601023
 20
342.1611177734758
 30
0.0
  0
SEQEND
  5
B68
  8
0
  0
POLYLINE
  5
AD
  8
0
 66
     1
 10
0.0
 20
0.0
 30
0.0
  0
VERTEX
  5
473
  8
0
 10
368.7756881681112
 20
346.3053179213201
 30
0.0
 42
0.0281948246830049
  0
VERTEX
  5
474
  8
0
 10
367.709267470372
 20
343.0232124961853
 30
0.0
  0
SEQEND
  5
B69
  8
0
  0
POLYLINE
  5
AE
  8
0
 66
     1
 10
0.0
 20
0.0
 30
0.0
  0
VERTEX
  5
475
  8
0
 10
362.6029340236028
 20
351.8556940026528
 30
0.0
 42
0.1516441464538993
  0
VERTEX
  5
476
  8
0
 10
368.7756881681578
 20
346.3053179213695
 30
0.0
  0
SEQEND
  5
B6A
  8
0
  0
POLYLINE
  5
AF
  8
0
 66
     1
 10
0.0
 20
0.0
 30
0.0
  0
VERTEX
  5
477
  8
0
 10
363.4525570910735
 20
353.5231731605863
 30
0.0
 42
0.0121541043205594
  0
VERTEX
  5
478
  8
0
 10
362.6029340235721
 20
351.8556940025887
 30
0.0
  0
SEQEND
  5
B6B
  8
0
  0
POLYLINE
  5
B0
  8
0
 66
     1
 10
0.0
 20
0.0
 30
0.0
  0
VERTEX
  5
479
  8
0
 10
371.5711595181661
 20
351.7917393607902
 30
0.0
 42
0.1516441464539012
  0
VERTEX
  5
47A
  8
0
 10
363.4525570910392
 20
353.5231731605784
 30
0.0
  0
SEQEND
  5
B6C
  8
0
  0
POLYLINE
  5
B1
  8
0
 66
     1
 10
0.0
 20
0.0
 30
0.0
  0
VERTEX
  5
47B
  8
0
 10
373.5996122255743
 20
354.5836649937888
 30
0.0
 42
0.0281948246830068
  0
VERTEX
  5
47C
  8
0
 10
371.5711595181807
 20
351.7917393608014
 30
0.0
  0
SEQEND
  5
B6D
  8
0
  0
POLYLINE
  5
B2
  8
0
 66
     1
 10
0.0
 20
0.0
 30
0.0
  0
VERTEX
  5
47D
  8
0
 10
369.4441347071768
 20
361.7698722665896
 30
0.0
 42
0.1516441464539002
  0
VERTEX
  5
47E
  8
0
 10
373.5996122255549
 20
354.5836649938305
 30
0.0
  0
SEQEND
  5
B6E
  8
0
  0
POLYLINE
  5
B3
  8
0
 66
     1
 10
0.0
 20
0.0
 30
0.0
  0
VERTEX
  5
47F
  8
0
 10
370.7674536595326
 20
363.0931912188611
 30
0.0
 42
0.0121541043205606
  0
VERTEX
  5
480
  8
0
 10
369.4441347072034
 20
361.7698722665319
 30
0.0
  0
SEQEND
  5
B6F
  8
0
  0
POLYLINE
  5
B4
  8
0
 66
     1
 10
0.0
 20
0.0
 30
0.0
  0
VERTEX
  5
481
  8
0
 10
377.9536609322341
 20
358.9377137005095
 30
0.0
 42
0.1516441464539005
  0
VERTEX
  5
482
  8
0
 10
370.7674536594748
 20
363.0931912188877
 30
0.0
  0
SEQEND
  5
B70
  8
0
  0
POLYLINE
  5
B5
  8
0
 66
     1
 10
0.0
 20
0.0
 30
0.0
  0
VERTEX
  5
483
  8
0
 10
380.7455865652644
 20
360.9661664078819
 30
0.0
 42
0.0281948246830043
  0
VERTEX
  5
484
  8
0
 10
377.9536609322773
 20
358.9377137004885
 30
0.0
  0
SEQEND
  5
B71
  8
0
  0
POLYLINE
  5
B6
  8
0
 66
     1
 10
0.0
 20
0.0
 30
0.0
  0
VERTEX
  5
485
  8
0
 10
379.014152765486
 20
369.0847688350254
 30
0.0
 42
0.1516441464539007
  0
VERTEX
  5
486
  8
0
 10
380.7455865652744
 20
360.9661664078984
 30
0.0
  0
SEQEND
  5
B72
  8
0
  0
POLYLINE
  5
B7
  8
0
 66
     1
 10
0.0
 20
0.0
 30
0.0
  0
VERTEX
  5
487
  8
0
 10
380.6816319234752
 20
369.9343919024938
 30
0.0
 42
0.0121541043205634
  0
VERTEX
  5
488
  8
0
 10
379.0141527654776
 20
369.0847688349924
 30
0.0
  0
SEQEND
  5
B73
  8
0
  0
POLYLINE
  5
B8
  8
0
 66
     1
 10
0.0
 20
0.0
 30
0.0
  0
VERTEX
  5
489
  8
0
 10
386.232008004695
 20
363.7616377579066
 30
0.0
 42
0.1516441464539002
  0
VERTEX
  5
48A
  8
0
 10
380.6816319234118
 20
369.9343919024616
 30
0.0
  0
SEQEND
  5
B74
  8
0
  0
POLYLINE
  5
B9
  8
0
 66
     1
 10
0.0
 20
0.0
 30
0.0
  0
VERTEX
  5
48B
  8
0
 10
389.5141134298797
 20
364.8280584556907
 30
0.0
 42
0.0281948246830053
  0
VERTEX
  5
48C
  8
0
 10
386.2320080047451
 20
363.7616377579516
 30
0.0
  0
SEQEND
  5
B75
  8
0
  0
POLYLINE
  5
BA
  8
0
 66
     1
 10
0.0
 20
0.0
 30
0.0
  0
VERTEX
  5
48D
  8
0
 10
390.3762081525888
 20
373.0843506659623
 30
0.0
 42
0.1516441464539003
  0
VERTEX
  5
48E
  8
0
 10
389.5141134298552
 20
364.8280584556637
 30
0.0
  0
SEQEND
  5
B76
  8
0
  0
POLYLINE
  5
BB
  8
0
 66
     1
 10
0.0
 20
0.0
 30
0.0
  0
VERTEX
  5
48F
  8
0
 10
392.2246230382821
 20
373.3771108231182
 30
0.0
 42
0.0121541043205665
  0
VERTEX
  5
490
  8
0
 10
390.3762081526116
 20
373.0843506659638
 30
0.0
  0
SEQEND
  5
B77
  8
0
  0
POLYLINE
  5
BC
  8
0
 66
     1
 10
0.0
 20
0.0
 30
0.0
  0
VERTEX
  5
491
  8
0
 10
395.5958584454646
 20
365.7913122361454
 30
0.0
 42
0.1516441464539002
  0
VERTEX
  5
492
  8
0
 10
392.2246230382373
 20
373.3771108231012
 30
0.0
  0
SEQEND
  5
B78
  8
0
  0
POLYLINE
  5
BD
  8
0
 66
     1
 10
0.0
 20
0.0
 30
0.0
  0
VERTEX
  5
493
  8
0
 10
399.0468683159962
 20
365.791312236184
 30
0.0
 42
0.0281948246830053
  0
VERTEX
  5
494
  8
0
 10
395.5958584454998
 20
365.791312236184
 30
0.0
  0
SEQEND
  5
B79
  8
0
  0
POLYLINE
  5
BE
  8
0
 66
     1
 10
0.0
 20
0.0
 30
0.0
  0
VERTEX
  5
495
  8
0
 10
402.4181037232586
 20
373.3771108231012
 30
0.0
 42
0.1516441464539005
  0
VERTEX
  5
496
  8
0
 10
399.0468683160314
 20
365.7913122361454
 30
0.0
  0
SEQEND
  5
B7A
  8
0
  0
POLYLINE
  5
BF
  8
0
 66
     1
 10
0.0
 20
0.0
 30
0.0
  0
VERTEX
  5
497
  8
0
 10
404.2665186088848
 20
373.084350665966
 30
0.0
 42
0.0121541043205582
  0
VERTEX
  5
498
  8
0
 10
402.4181037232141
 20
373.3771108231205
 30
0.0
  0
SEQEND
  5
B7B
  8
0
  0
POLYLINE
  5
C0
  8
0
 66
     1
 10
0.0
 20
0.0
 30
0.0
  0
VERTEX
  5
499
  8
0
 10
405.1286133316408
 20
364.8280584556637
 30
0.0
 42
0.1516441464539005
  0
VERTEX
  5
49A
  8
0
 10
404.2665186089071
 20
373.0843506659623
 30
0.0
  0
SEQEND
  5
B7C
  8
0
  0
POLYLINE
  5
C1
  8
0
 66
     1
 10
0.0
 20
0.0
 30
0.0
  0
VERTEX
  5
49B
  8
0
 10
408.4107187567504
 20
363.7616377579507
 30
0.0
 42
0.0281948246830062
  0
VERTEX
  5
49C
  8
0
 10
405.128613331616
 20
364.8280584556898
 30
0.0
  0
SEQEND
  5
B7D
  8
0
  0
POLYLINE
  5
C2
  8
0
 66
     1
 10
0.0
 20
0.0
 30
0.0
  0
VERTEX
  5
49D
  8
0
 10
413.9610948380842
 20
369.9343919024618
 30
0.0
 42
0.1516441464539005
  0
VERTEX
  5
49E
  8
0
 10
408.4107187568009
 20
363.7616377579067
 30
0.0
  0
SEQEND
  5
B7E
  8
0
  0
POLYLINE
  5
C3
  8
0
 66
     1
 10
0.0
 20
0.0
 30
0.0
  0
VERTEX
  5
49F
  8
0
 10
415.6285739960222
 20
369.0847688349997
 30
0.0
 42
0.0121541043205498
  0
VERTEX
  5
4A0
  8
0
 10
413.9610948380244
 20
369.9343919025013
 30
0.0
  0
SEQEND
  5
B7F
  8
0
  0
POLYLINE
  5
C4
  8
0
 66
     1
 10
0.0
 20
0.0
 30
0.0
  0
VERTEX
  5
4A1
  8
0
 10
413.8971401962215
 20
360.9661664078984
 30
0.0
 42
0.1516441464539003
  0
VERTEX
  5
4A2
  8
0
 10
415.6285739960097
 20
369.0847688350254
 30
0.0
  0
SEQEND
  5
B80
  8
0
  0
POLYLINE
  5
C5
  8
0
 66
     1
 10
0.0
 20
0.0
 30
0.0
  0
VERTEX
  5
4A3
  8
0
 10
416.6890658292189
 20
358.9377137004887
 30
0.0
 42
0.0281948246830063
  0
VERTEX
  5
4A4
  8
0
 10
413.8971401962318
 20
360.9661664078822
 30
0.0
  0
SEQEND
  5
B81
  8
0
  0
POLYLINE
  5
C6
  8
0
 66
     1
 10
0.0
 20
0.0
 30
0.0
  0
VERTEX
  5
4A5
  8
0
 10
423.8752731020211
 20
363.0931912188879
 30
0.0
 42
0.1516441464539
  0
VERTEX
  5
4A6
  8
0
 10
416.6890658292619
 20
358.9377137005096
 30
0.0
  0
SEQEND
  5
B82
  8
0
  0
POLYLINE
  5
C7
  8
0
 66
     1
 10
0.0
 20
0.0
 30
0.0
  0
VERTEX
  5
4A7
  8
0
 10
425.1985920542973
 20
361.7698722665365
 30
0.0
 42
0.0121541043205627
  0
VERTEX
  5
4A8
  8
0
 10
423.8752731019679
 20
363.093191218866
 30
0.0
  0
SEQEND
  5
B83
  8
0
  0
POLYLINE
  5
C8
  8
0
 66
     1
 10
0.0
 20
0.0
 30
0.0
  0
VERTEX
  5
4A9
  8
0
 10
421.043114535941
 20
354.5836649938305
 30
0.0
 42
0.1516441464538998
  0
VERTEX
  5
4AA
  8
0
 10
425.1985920543191
 20
361.7698722665896
 30
0.0
  0
SEQEND
  5
B84
  8
0
  0
POLYLINE
  5
C9
  8
0
 66
     1
 10
0.0
 20
0.0
 30
0.0
  0
VERTEX
  5
4AB
  8
0
 10
423.0715672433144
 20
351.7917393608008
 30
0.0
 42
0.028194824683006
  0
VERTEX
  5
4AC
  8
0
 10
421.043114535921
 20
354.5836649937882
 30
0.0
  0
SEQEND
  5
B85
  8
0
  0
POLYLINE
  5
CA
  8
0
 66
     1
 10
0.0
 20
0.0
 30
0.0
  0
VERTEX
  5
4AD
  8
0
 10
431.1901696704568
 20
353.5231731605787
 30
0.0
 42
0.1516441464539007
  0
VERTEX
  5
4AE
  8
0
 10
423.0715672433296
 20
351.7917393607904
 30
0.0
  0
SEQEND
  5
B86
  8
0
  0
POLYLINE
  5
CB
  8
0
 66
     1
 10
0.0
 20
0.0
 30
0.0
  0
VERTEX
  5
4AF
  8
0
 10
432.0397927379348
 20
351.8556940025939
 30
0.0
 42
0.0121541043205625
  0
VERTEX
  5
4B0
  8
0
 10
431.1901696704331
 20
353.523173160592
 30
0.0
  0
SEQEND
  5
B87
  8
0
  0
POLYLINE
  5
CC
  8
0
 66
     1
 10
0.0
 20
0.0
 30
0.0
  0
VERTEX
  5
4B1
  8
0
 10
425.8670385933381
 20
346.3053179213695
 30
0.0
 42
0.1516441464539003
  0
VERTEX
  5
4B2
  8
0
 10
432.0397927378932
 20
351.8556940026528
 30
0.0
  0
SEQEND
  5
B88
  8
0
  0
POLYLINE
  5
CD
  8
0
 66
     1
 10
0.0
 20
0.0
 30
0.0
  0
VERTEX
  5
4B3
  8
0
 10
426.9334592911219
 20
343.0232124961847
 30
0.0
 42
0.0281948246830038
  0
VERTEX
  5
4B4
  8
0
 10
425.8670385933829
 20
346.3053179213194
 30
0.0
  0
SEQEND
  5
B89
  8
0
  0
POLYLINE
  5
CE
  8
0
 66
     1
 10
0.0
 20
0.0
 30
0.0
  0
VERTEX
  5
4B5
  8
0
 10
435.1897515013937
 20
342.1611177734758
 30
0.0
 42
0.1516441464539002
  0
VERTEX
  5
4B6
  8
0
 10
426.9334592910951
 20
343.0232124962095
 30
0.0
  0
SEQEND
  5
B8A
  8
0
  0
POLYLINE
  5
CF
  8
0
 66
     1
 10
0.0
 20
0.0
 30
0.0
  0
VERTEX
  5
4B7
  8
0
 10
435.4825116585651
 20
340.3127028877845
 30
0.0
 42
0.0121541043205654
  0
VERTEX
  5
4B8
  8
0
 10
435.1897515014105
 20
342.1611177734558
 30
0.0
  0
SEQEND
  5
B8B
  8
0
  0
POLYLINE
  5
D0
  8
0
 66
     1
 10
0.0
 20
0.0
 30
0.0
  0
VERTEX
  5
4B9
  8
0
 10
427.8967130715769
 20
336.9414674805999
 30
0.0
 42
0.1516441464539001
  0
VERTEX
  5
4BA
  8
0
 10
435.4825116585326
 20
340.3127028878272
 30
0.0
  0
SEQEND
  5
B8C
  8
0
  0
POLYLINE
  5
D1
  8
0
 66
     1
 10
0.0
 20
0.0
 30
0.0
  0
VERTEX
  5
4BB
  8
0
 10
427.8967130716181
 20
333.4904576100683
 30
0.0
 42
0.0281948246830037
  0
VERTEX
  5
4BC
  8
0
 10
427.8967130716181
 20
336.9414674805649
 30
0.0
  0
SEQEND
  5
B8D
  8
0
  0
POLYLINE
  5
D2
  8
0
 66
     1
 10
0.0
 20
0.0
 30
0.0
  0
VERTEX
  5
4BD
  8
0
 10
435.4825116585326
 20
330.1192222028059
 30
0.0
 42
0.1516441464539003
  0
VERTEX
  5
4BE
  8
0
 10
427.8967130715769
 20
333.4904576100333
 30
0.0
  0
SEQEND
  5
B8E
  8
0
  0
POLYLINE
  5
D3
  8
0
 66
     1
 10
0.0
 20
0.0
 30
0.0
  0
VERTEX
  5
4BF
  8
0
 10
435.1897515013916
 20
328.2708073171808
 30
0.0
 42
0.0121541043205598
  0
VERTEX
  5
4C0
  8
0
 10
435.4825116585462
 20
330.1192222028512
 30
0.0
  0
SEQEND
  5
B8F
  8
0
  0
POLYLINE
  5
D4
  8
0
 66
     1
 10
0.0
 20
0.0
 30
0.0
  0
VERTEX
  5
4C1
  8
0
 10
426.9334592910951
 20
327.4087125944237
 30
0.0
 42
0.1516441464539005
  0
VERTEX
  5
4C2
  8
0
 10
435.1897515013937
 20
328.2708073171573
 30
0.0
  0
SEQEND
  5
B90
  8
0
  0
POLYLINE
  5
D5
  8
0
 66
     1
 10
0.0
 20
0.0
 30
0.0
  0
VERTEX
  5
4C3
  8
0
 10
425.8670385933816
 20
324.1266071693144
 30
0.0
 42
0.0281948246830059
  0
VERTEX
  5
4C4
  8
0
 10
426.9334592911205
 20
327.4087125944488
 30
0.0
  0
SEQEND
  5
B91
  8
0
  0
POLYLINE
  5
D6
  8
0
 66
     1
 10
0.0
 20
0.0
 30
0.0
  0
VERTEX
  5
4C5
  8
0
 10
432.0397927378932
 20
318.5762310879805
 30
0.0
 42
0.1516441464539006
  0
VERTEX
  5
4C6
  8
0
 10
425.8670385933381
 20
324.1266071692638
 30
0.0
  0
SEQEND
  5
B92
  8
0
  0
POLYLINE
  5
D7
  8
0
 66
     1
 10
0.0
 20
0.0
 30
0.0
  0
VERTEX
  5
4C7
  8
0
 10
431.1901696704197
 20
316.9087519300484
 30
0.0
 42
0.012154104320557
  0
VERTEX
  5
4C8
  8
0
 10
432.0397927379211
 20
318.5762310880459
 30
0.0
  0
SEQEND
  5
B93
  8
0
  0
POLYLINE
  5
D8
  8
0
 66
     1
 10
0.0
 20
0.0
 30
0.0
  0
VERTEX
  5
4C9
  8
0
 10
423.0715672433296
 20
318.6401857298428
 30
0.0
 42
0.1516441464539001
  0
VERTEX
  5
4CA
  8
0
 10
431.1901696704568
 20
316.9087519300546
 30
0.0
  0
SEQEND
  5
B94
  8
0
  0
POLYLINE
  5
D9
  8
0
 66
     1
 10
0.0
 20
0.0
 30
0.0
  0
VERTEX
  5
4CB
  8
0
 10
421.0431145359196
 20
315.8482600968461
 30
0.0
 42
0.0281948246830075
  0
VERTEX
  5
4CC
  8
0
 10
423.071567243313
 20
318.6401857298333
 30
0.0
  0
SEQEND
  5
B95
  8
0
  0
POLYLINE
  5
DA
  8
0
 66
     1
 10
0.0
 20
0.0
 30
0.0
  0
VERTEX
  5
4CD
  8
0
 10
425.1985920543191
 20
308.6620528240435
 30
0.0
 42
0.1516441464538994
  0
VERTEX
  5
4CE
  8
0
 10
421.043114535941
 20
315.8482600968026
 30
0.0
  0
SEQEND
  5
B96
  8
0
  0
POLYLINE
  5
DB
  8
0
 66
     1
 10
0.0
 20
0.0
 30
0.0
  0
VERTEX
  5
4CF
  8
0
 10
423.875273101965
 20
307.3387338717702
 30
0.0
 42
0.0121541043205616
  0
VERTEX
  5
4D0
  8
0
 10
425.1985920542944
 20
308.6620528240995
 30
0.0
  0
SEQEND
  5
B97
  8
0
  0
POLYLINE
  5
DC
  8
0
 66
     1
 10
0.0
 20
0.0
 30
0.0
  0
VERTEX
  5
4D1
  8
0
 10
416.6890658292619
 20
311.4942113901237
 30
0.0
 42
0.1516441464539001
  0
VERTEX
  5
4D2
  8
0
 10
423.8752731020211
 20
307.3387338717454
 30
0.0
  0
SEQEND
  5
B98
  8
0
  0
POLYLINE
  5
DD
  8
0
 66
     1
 10
0.0
 20
0.0
 30
0.0
  0
VERTEX
  5
4D3
  8
0
 10
413.8971401962327
 20
309.4657586827494
 30
0.0
 42
0.0281948246830047
  0
VERTEX
  5
4D4
  8
0
 10
416.6890658292201
 20
311.494211390143
 30
0.0
  0
SEQEND
  5
B99
  8
0
  0
POLYLINE
  5
DE
  8
0
 66
     1
 10
0.0
 20
0.0
 30
0.0
  0
VERTEX
  5
4D5
  8
0
 10
415.6285739960099
 20
301.3471562556078
 30
0.0
 42
0.1516441464539001
  0
VERTEX
  5
4D6
  8
0
 10
413.8971401962218
 20
309.4657586827348
 30
0.0
  0
SEQEND
  5
B9A
  8
0
  0
POLYLINE
  5
DF
  8
0
 66
     1
 10
0.0
 20
0.0
 30
0.0
  0
VERTEX
  5
4D7
  8
0
 10
413.9610948380121
 20
300.4975331881574
 30
0.0
 42
0.0121541043205644
  0
VERTEX
  5
4D8
  8
0
 10
415.6285739960088
 20
301.3471562556584
 30
0.0
  0
SEQEND
  5
B9B
  8
0
  0
POLYLINE
  5
E0
  8
0
 66
     1
 10
0.0
 20
0.0
 30
0.0
  0
VERTEX
  5
4D9
  8
0
 10
408.4107187568009
 20
306.6702873327264
 30
0.0
 42
0.1516441464538998
  0
VERTEX
  5
4DA
  8
0
 10
413.9610948380842
 20
300.4975331881714
 30
0.0
  0
SEQEND
  5
B9C
  8
0
  0
POLYLINE
  5
E1
  8
0
 66
     1
 10
0.0
 20
0.0
 30
0.0
  0
VERTEX
  5
4DB
  8
0
 10
405.1286133316156
 20
305.6038666349448
 30
0.0
 42
0.0281948246830036
  0
VERTEX
  5
4DC
  8
0
 10
408.41071875675
 20
306.6702873326838
 30
0.0
  0
SEQEND
  5
B9D
  8
0
  0
POLYLINE
  5
E2
  8
0
 66
     1
 10
0.0
 20
0.0
 30
0.0
  0
VERTEX
  5
4DD
  8
0
 10
404.2665186089071
 20
297.3475744246709
 30
0.0
 42
0.1516441464539002
  0
VERTEX
  5
4DE
  8
0
 10
405.128613331641
 20
305.6038666349695
 30
0.0
  0
SEQEND
  5
B9E
  8
0
  0
POLYLINE
  5
E3
  8
0
 66
     1
 10
0.0
 20
0.0
 30
0.0
  0
VERTEX
  5
4DF
  8
0
 10
402.4181037232141
 20
297.054814267514
 30
0.0
 42
0.0121541043205614
  0
VERTEX
  5
4E0
  8
0
 10
404.2665186088846
 20
297.3475744246685
 30
0.0
  0
SEQEND
  5
B9F
  8
0
  0
POLYLINE
  5
E4
  8
0
 66
     1
 10
0.0
 20
0.0
 30
0.0
  0
VERTEX
  5
4E1
  8
0
 10
399.0468683160314
 20
304.6406128544878
 30
0.0
 42
0.1516441464539003
  0
VERTEX
  5
4E2
  8
0
 10
402.4181037232586
 20
297.054814267532
 30
0.0
  0
SEQEND
  5
BA0
  8
0
  0
POLYLINE
  5
E5
  8
0
 66
     1
 10
0.0
 20
0.0
 30
0.0
  0
VERTEX
  5
4E3
  8
0
 10
395.5958584454998
 20
304.6406128544485
 30
0.0
 42
0.0281948246830037
  0
VERTEX
  5
4E4
  8
0
 10
399.0468683159962
 20
304.6406128544485
 30
0.0
  0
SEQEND
  5
BA1
  8
0
  0
POLYLINE
  5
E6
  8
0
 66
     1
 10
0.0
 20
0.0
 30
0.0
  0
VERTEX
  5
4E5
  8
0
 10
392.2246230382373
 20
297.054814267532
 30
0.0
 42
0.1516441464538996
  0
VERTEX
  5
4E6
  8
0
 10
395.5958584454648
 20
304.6406128544876
 30
0.0
  0
SEQEND
  5
BA2
  8
0
  0
POLYLINE
  5
E7
  8
0
 66
     1
 10
0.0
 20
0.0
 30
0.0
  0
VERTEX
  5
4E7
  8
0
 10
390.3762081526107
 20
297.347574424665
 30
0.0
 42
0.0121541043205576
  0
VERTEX
  5
4E8
  8
0
 10
392.2246230382814
 20
297.0548142675104
 30
0.0
  0
SEQEND
  5
BA3
  8
0
  0
POLYLINE
  5
E8
  8
0
 66
     1
 10
0.0
 20
0.0
 30
0.0
  0
VERTEX
  5
4E9
  8
0
 10
389.5141134298552
 20
305.6038666349695
 30
0.0
 42
0.1516441464539004
  0
VERTEX
  5
4EA
  8
0
 10
390.3762081525888
 20
297.3475744246709
 30
0.0
  0
SEQEND
  5
BA4
  8
0
  0
POLYLINE
  5
E9
  8
0
 66
     1
 10
0.0
 20
0.0
 30
0.0
  0
VERTEX
  5
4EB
  8
0
 10
386.2320080047448
 20
306.6702873326804
 30
0.0
 42
0.028194824683003
  0
VERTEX
  5
4EC
  8
0
 10
389.5141134298795
 20
305.6038666349413
 30
0.0
  0
SEQEND
  5
BA5
  8
0
  0
POLYLINE
  5
EA
  8
0
 66
     1
 10
0.0
 20
0.0
 30
0.0
  0
VERTEX
  5
4ED
  8
0
 10
380.6816319234118
 20
300.4975331881714
 30
0.0
 42
0.1516441464538999
  0
VERTEX
  5
4EE
  8
0
 10
386.2320080046953
 20
306.6702873327264
 30
0.0
  0
SEQEND
  5
BA6
  8
0
  0
POLYLINE
  5
EB
  8
0
 66
     1
 10
0.0
 20
0.0
 30
0.0
  0
VERTEX
  5
4EF
  8
0
 10
379.0141527654781
 20
301.3471562556416
 30
0.0
 42
0.0121541043205601
  0
VERTEX
  5
4F0
  8
0
 10
380.6816319234757
 20
300.4975331881403
 30
0.0
  0
SEQEND
  5
BA7
  8
0
  0
POLYLINE
  5
EC
  8
0
 66
     1
 10
0.0
 20
0.0
 30
0.0
  0
VERTEX
  5
4F1
  8
0
 10
380.7455865652742
 20
309.4657586827348
 30
0.0
 42
0.1516441464539003
  0
VERTEX
  5
4F2
  8
0
 10
379.014152765486
 20
301.3471562556078
 30
0.0
  0
SEQEND
  5
BA8
  8
0
  0
POLYLINE
  5
ED
  8
0
 66
     1
 10
0.0
 20
0.0
 30
0.0
  0
VERTEX
  5
4F3
  8
0
 10
377.9536609322775
 20
311.494211390145
 30
0.0
 42
0.0281948246830055
  0
VERTEX
  5
4F4
  8
0
 10
380.7455865652647
 20
309.4657586827515
 30
0.0
  0
SEQEND
  5
BA9
  8
0
  0
POLYLINE
  5
EE
  8
0
 66
     1
 10
0.0
 20
0.0
 30
0.0
  0
VERTEX
  5
4F5
  8
0
 10
370.7674536594748
 20
307.3387338717454
 30
0.0
 42
0.1516441464539004
  0
VERTEX
  5
4F6
  8
0
 10
377.9536609322341
 20
311.4942113901237
 30
0.0
  0
SEQEND
  5
BAA
  8
0
  0
POLYLINE
  5
EF
  8
0
 66
     1
 10
0.0
 20
0.0
 30
0.0
  0
VERTEX
  5
4F7
  8
0
 10
369.4441347072064
 20
308.662052824104
 30
0.0
 42
0.012154104320562
  0
VERTEX
  5
4F8
  8
0
 10
370.7674536595353
 20
307.3387338717749
 30
0.0
  0
SEQEND
  5
BAB
  8
0
  0
POLYLINE
  5
F0
  8
0
 66
     1
 10
0.0
 20
0.0
 30
0.0
  0
VERTEX
  5
4F9
  8
0
 10
373.5996122255549
 20
315.8482600968027
 30
0.0
 42
0.1516441464539002
  0
VERTEX
  5
4FA
  8
0
 10
369.4441347071768
 20
308.6620528240435
 30
0.0
  0
SEQEND
  5
BAC
  8
0
  0
POLYLINE
  5
F1
  8
0
 66
     1
 10
0.0
 20
0.0
 30
0.0
  0
VERTEX
  5
4FB
  8
0
 10
371.5711595181809
 20
318.6401857298319
 30
0.0
 42
0.0281948246830064
  0
VERTEX
  5
4FC
  8
0
 10
373.5996122255745
 20
315.8482600968446
 30
0.0
  0
SEQEND
  5
BAD
  8
0
  0
POLYLINE
  5
F2
  8
0
 66
     1
 10
0.0
 20
0.0
 30
0.0
  0
VERTEX
  5
4FD
  8
0
 10
363.4525570910392
 20
316.9087519300545
 30
0.0
 42
0.1516441464539006
  0
VERTEX
  5
4FE
  8
0
 10
371.5711595181663
 20
318.6401857298428
 30
0.0
  0
SEQEND
  5
BAE
  8
0
  0
POLYLINE
  5
F3
  8
0
 66
     1
 10
0.0
 20
0.0
 30
0.0
  0
VERTEX
  5
4FF
  8
0
 10
362.6029340235623
 20
318.5762310880398
 30
0.0
 42
0.0121541043205569
  0
VERTEX
  5
500
  8
0
 10
363.452557091064
 20
316.9087519300418
 30
0.0
  0
SEQEND
  5
BAF
  8
0
  0
POLYLINE
  5
F4
  8
0
 66
     1
 10
0.0
 20
0.0
 30
0.0
  0
VERTEX
  5
501
  8
0
 10
368.7756881681578
 20
324.1266071692638
 30
0.0
 42
0.1516441464539003
  0
VERTEX
  5
502
  8
0
 10
362.6029340236028
 20
318.5762310879804
 30
0.0
  0
SEQEND
  5
BB0
  8
0
  0
POLYLINE
  5
F5
  8
0
 66
     1
 10
0.0
 20
0.0
 30
0.0
  0
VERTEX
  5
503
  8
0
 10
367.7092674703752
 20
327.4087125944488
 30
0.0
 42
0.0281948246830037
  0
VERTEX
  5
504
  8
0
 10
368.7756881681144
 20
324.1266071693144
 30
0.0
  0
SEQEND
  5
BB1
  8
0
  0
POLYLINE
  5
F6
  8
0
 66
     1
 10
0.0
 20
0.0
 30
0.0
  0
VERTEX
  5
505
  8
0
 10
359.4529752601023
 20
328.2708073171573
 30
0.0
 42
0.1516441464539006
  0
VERTEX
  5
506
  8
0
 10
367.7092674704009
 20
327.4087125944237
 30
0.0
  0
SEQEND
  5
BB2
  8
0
  0
POLYLINE
  5
F7
  8
0
 66
     1
 10
0.0
 20
0.0
 30
0.0
  0
VERTEX
  5
507
  8
0
 10
359.1602151029056
 20
330.1192222028453
 30
0.0
 42
0.0121541043205574
  0
VERTEX
  5
508
  8
0
 10
359.4529752600604
 20
328.2708073171728
 30
0.0
  0
SEQEND
  5
BB3
  8
0
  0
POLYLINE
  5
F8
  8
0
 66
     1
 10
0.0
 20
0.0
 30
0.0
  0
VERTEX
  5
509
  8
0
 10
366.746013689919
 20
333.4904576100333
 30
0.0
 42
0.1516441464539007
  0
VERTEX
  5
50A
  8
0
 10
359.1602151029634
 20
330.1192222028059
 30
0.0
  0
SEQEND
  5
BB4
  8
0
  0
POLYLINE
  5
F9
  8
0
 66
     1
 10
0.0
 20
0.0
 30
0.0
  0
VERTEX
  5
50B
  8
0
 10
366.7460136898779
 20
336.9414674805649
 30
0.0
 42
0.0281948246830049
  0
VERTEX
  5
50C
  8
0
 10
366.7460136898779
 20
333.4904576100683
 30
0.0
  0
SEQEND
  5
BB5
  8
0
  0
POLYLINE
  5
FA
  8
0
 66
     1
 10
0.0
 20
0.0
 30
0.0
  0
VERTEX
  5
50D
  8
0
 10
359.1602151029634
 20
340.3127028878272
 30
0.0
 42
0.1516441464539001
  0
VERTEX
  5
50E
  8
0
 10
366.746013689919
 20
336.9414674805999
 30
0.0
  0
SEQEND
  5
BB6
  8
0
  0
POLYLINE
  5
FB
  8
0
 66
     1
 10
0.0
 20
0.0
 30
0.0
 70
     1
  0
VERTEX
  5
50F
  8
0
 10
257.9999999999991
 20
353.0000000001016
 30
0.0
 42
0.4142135623730951
  0
VERTEX
  5
510
  8
0
 10
162.9999999999991
 20
258.0000000001016
 30
0.0
 42
0.4142135623730951
  0
VERTEX
  5
511
  8
0
 10
257.9999999999991
 20
163.0000000001016
 30
0.0
 42
0.4142135623730951
  0
VERTEX
  5
512
  8
0
 10
352.999999999999
 20
258.0000000001016
 30
0.0
 42
0.4142135623730951
  0
SEQEND
  5
BB7
  8
0
  0
POLYLINE
  5
FC
  8
0
 66
     1
 10
0.0
 20
0.0
 30
0.0
 70
     1
  0
VERTEX
  5
513
  8
0
 10
257.9999999999991
 20
373.0000000001016
 30
0.0
 42
0.4142135623730951
  0
VERTEX
  5
514
  8
0
 10
142.9999999999993
 20
258.0000000001016
 30
0.0
 42
0.4142135623730951
  0
VERTEX
  5
515
  8
0
 10
257.9999999999991
 20
143.0000000001017
 30
0.0
 42
0.4142135623730951
  0
VERTEX
  5
516
  8
0
 10
372.999999999999
 20
258.0000000001016
 30
0.0
 42
0.4142135623730951
  0
SEQEND
  5
BB8
  8
0
  0
POLYLINE
  5
FD
  8
0
 66
     1
 10
0.0
 20
0.0
 30
0.0
 70
     1
  0
VERTEX
  5
517
  8
0
 10
258.0000000000077
 20
258.5000000001105
 30
0.0
 42
0.4142135623730951
  0
VERTEX
  5
518
  8
0
 10
257.5000000000077
 20
258.0000000001105
 30
0.0
 42
0.4142135623730951
  0
VERTEX
  5
519
  8
0
 10
258.0000000000077
 20
257.5000000001105
 30
0.0
 42
0.4142135623730951
  0
VERTEX
  5
51A
  8
0
 10
258.5000000000077
 20
258.0000000001105
 30
0.0
 42
0.4142135623730951
  0
SEQEND
  5
BB9
  8
0
  0
POLYLINE
  5
FE
  8
0
 66
     1
 10
0.0
 20
0.0
 30
0.0
 70
     1
  0
VERTEX
  5
51B
  8
0
 10
258.0000000000077
 20
333.0000000001105
 30
0.0
 42
0.4142135623730951
  0
VERTEX
  5
51C
  8
0
 10
183.0000000000076
 20
258.0000000001105
 30
0.0
 42
0.4142135623730951
  0
VERTEX
  5
51D
  8
0
 10
258.0000000000077
 20
183.0000000001105
 30
0.0
 42
0.4142135623730951
  0
VERTEX
  5
51E
  8
0
 10
333.0000000000077
 20
258.0000000001105
 30
0.0
 42
0.4142135623730951
  0
SEQEND
  5
BBA
  8
0
  0
POLYLINE
  5
FF
  8
0
 66
     1
 10
0.0
 20
0.0
 30
0.0
  0
VERTEX
  5
51F
  8
0
 10
996.8657475730008
 20
75.22147725522268
 30
0.0
  0
VERTEX
  5
520
  8
0
 10
486.8657475730009
 20
75.22147725522268
 30
0.0
  0
VERTEX
  5
521
  8
0
 10
486.8657475730009
 20
130.2214772552227
 30
0.0
  0
VERTEX
  5
522
  8
0
 10
516.8657475730009
 20
130.2214772552227
 30
0.0
  0
SEQEND
  5
BBB
  8
0
  0
POLYLINE
  5
100
  8
0
 66
     1
 10
0.0
 20
0.0
 30
0.0
  0
VERTEX
  5
523
  8
0
 10
516.8657475730009
 20
136.2214772552227
 30
0.0
  0
VERTEX
  5
524
  8
0
 10
516.8657475730009
 20
130.2214772552227
 30
0.0
  0
SEQEND
  5
BBC
  8
0
  0
POLYLINE
  5
101
  8
0
 66
     1
 10
0.0
 20
0.0
 30
0.0
  0
VERTEX
  5
525
  8
0
 10
516.8657475730009
 20
136.2214772552227
 30
0.0
  0
VERTEX
  5
526
  8
0
 10
546.8657475730009
 20
136.2214772552227
 30
0.0
  0
VERTEX
  5
527
  8
0
 10
546.8657475730009
 20
130.2214772552227
 30
0.0
  0
SEQEND
  5
BBD
  8
0
  0
POLYLINE
  5
102
  8
0
 66
     1
 10
0.0
 20
0.0
 30
0.0
  0
VERTEX
  5
528
  8
0
 10
621.8657475730009
 20
136.2214772552227
 30
0.0
  0
VERTEX
  5
529
  8
0
 10
621.8657475730009
 20
130.2214772552227
 30
0.0
  0
SEQEND
  5
BBE
  8
0
  0
POLYLINE
  5
103
  8
0
 66
     1
 10
0.0
 20
0.0
 30
0.0
  0
VERTEX
  5
52A
  8
0
 10
621.8657475730009
 20
136.2214772552227
 30
0.0
  0
VERTEX
  5
52B
  8
0
 10
651.8657475730009
 20
136.2214772552227
 30
0.0
  0
VERTEX
  5
52C
  8
0
 10
651.8657475730009
 20
130.2214772552227
 30
0.0
  0
VERTEX
  5
52D
  8
0
 10
726.8657475730009
 20
130.2214772552227
 30
0.0
  0
SEQEND
  5
BBF
  8
0
  0
POLYLINE
  5
104
  8
0
 66
     1
 10
0.0
 20
0.0
 30
0.0
  0
VERTEX
  5
52E
  8
0
 10
726.8657475730009
 20
136.2214772552227
 30
0.0
  0
VERTEX
  5
52F
  8
0
 10
726.8657475730009
 20
130.2214772552227
 30
0.0
  0
SEQEND
  5
BC0
  8
0
  0
POLYLINE
  5
105
  8
0
 66
     1
 10
0.0
 20
0.0
 30
0.0
  0
VERTEX
  5
530
  8
0
 10
726.8657475730009
 20
136.2214772552227
 30
0.0
  0
VERTEX
  5
531
  8
0
 10
756.8657475730009
 20
136.2214772552227
 30
0.0
  0
VERTEX
  5
532
  8
0
 10
756.8657475730009
 20
130.2214772552227
 30
0.0
  0
VERTEX
  5
533
  8
0
 10
831.8657475730009
 20
130.2214772552227
 30
0.0
  0
SEQEND
  5
BC1
  8
0
  0
POLYLINE
  5
106
  8
0
 66
     1
 10
0.0
 20
0.0
 30
0.0
  0
VERTEX
  5
534
  8
0
 10
831.8657475730009
 20
136.2214772552227
 30
0.0
  0
VERTEX
  5
535
  8
0
 10
831.8657475730009
 20
130.2214772552227
 30
0.0
  0
SEQEND
  5
BC2
  8
0
  0
POLYLINE
  5
107
  8
0
 66
     1
 10
0.0
 20
0.0
 30
0.0
  0
VERTEX
  5
536
  8
0
 10
831.8657475730009
 20
136.2214772552227
 30
0.0
  0
VERTEX
  5
537
  8
0
 10
861.8657475730009
 20
136.2214772552227
 30
0.0
  0
VERTEX
  5
538
  8
0
 10
861.8657475730009
 20
130.2214772552227
 30
0.0
  0
VERTEX
  5
539
  8
0
 10
936.8657475730008
 20
130.2214772552227
 30
0.0
  0
SEQEND
  5
BC3
  8
0
  0
POLYLINE
  5
108
  8
0
 66
     1
 10
0.0
 20
0.0
 30
0.0
  0
VERTEX
  5
53A
  8
0
 10
936.8657475730008
 20
136.2214772552227
 30
0.0
  0
VERTEX
  5
53B
  8
0
 10
936.8657475730008
 20
130.2214772552227
 30
0.0
  0
SEQEND
  5
BC4
  8
0
  0
POLYLINE
  5
109
  8
0
 66
     1
 10
0.0
 20
0.0
 30
0.0
  0
VERTEX
  5
53C
  8
0
 10
936.8657475730008
 20
136.2214772552227
 30
0.0
  0
VERTEX
  5
53D
  8
0
 10
966.8657475730008
 20
136.2214772552227
 30
0.0
  0
VERTEX
  5
53E
  8
0
 10
966.8657475730008
 20
130.2214772552227
 30
0.0
  0
VERTEX
  5
53F
  8
0
 10
996.8657475730008
 20
130.2214772552227
 30
0.0
  0
VERTEX
  5
540
  8
0
 10
996.8657475730008
 20
75.22147725522268
 30
0.0
  0
SEQEND
  5
BC5
  8
0
  0
POLYLINE
  5
10A
  8
0
 66
     1
 10
0.0
 20
0.0
 30
0.0
  0
VERTEX
  5
541
  8
0
 10
498.665747573001
 20
87.8214772552227
 30
0.0
  0
VERTEX
  5
542
  8
0
 10
492.8657475730009
 20
87.8214772552227
 30
0.0
  0
SEQEND
  5
BC6
  8
0
  0
POLYLINE
  5
10B
  8
0
 66
     1
 10
0.0
 20
0.0
 30
0.0
  0
VERTEX
  5
543
  8
0
 10
498.665747573001
 20
117.6214772552227
 30
0.0
  0
VERTEX
  5
544
  8
0
 10
498.665747573001
 20
87.8214772552227
 30
0.0
  0
SEQEND
  5
BC7
  8
0
  0
POLYLINE
  5
10C
  8
0
 66
     1
 10
0.0
 20
0.0
 30
0.0
  0
VERTEX
  5
545
  8
0
 10
492.8657475730009
 20
117.6214772552227
 30
0.0
  0
VERTEX
  5
546
  8
0
 10
498.665747573001
 20
117.6214772552227
 30
0.0
  0
SEQEND
  5
BC8
  8
0
  0
POLYLINE
  5
10D
  8
0
 66
     1
 10
0.0
 20
0.0
 30
0.0
  0
VERTEX
  5
547
  8
0
 10
492.8657475730009
 20
87.8214772552227
 30
0.0
  0
VERTEX
  5
548
  8
0
 10
492.8657475730009
 20
117.6214772552227
 30
0.0
  0
SEQEND
  5
BC9
  8
0
  0
POLYLINE
  5
10E
  8
0
 66
     1
 10
0.0
 20
0.0
 30
0.0
  0
VERTEX
  5
549
  8
0
 10
990.8657475730008
 20
87.8214772552227
 30
0.0
  0
VERTEX
  5
54A
  8
0
 10
985.0657475730011
 20
87.8214772552227
 30
0.0
  0
SEQEND
  5
BCA
  8
0
  0
POLYLINE
  5
10F
  8
0
 66
     1
 10
0.0
 20
0.0
 30
0.0
  0
VERTEX
  5
54B
  8
0
 10
990.8657475730008
 20
117.6214772552227
 30
0.0
  0
VERTEX
  5
54C
  8
0
 10
990.8657475730008
 20
87.8214772552227
 30
0.0
  0
SEQEND
  5
BCB
  8
0
  0
POLYLINE
  5
110
  8
0
 66
     1
 10
0.0
 20
0.0
 30
0.0
  0
VERTEX
  5
54D
  8
0
 10
985.0657475730011
 20
117.6214772552227
 30
0.0
  0
VERTEX
  5
54E
  8
0
 10
990.8657475730008
 20
117.6214772552227
 30
0.0
  0
SEQEND
  5
BCC
  8
0
  0
POLYLINE
  5
111
  8
0
 66
     1
 10
0.0
 20
0.0
 30
0.0
  0
VERTEX
  5
54F
  8
0
 10
985.0657475730011
 20
87.8214772552227
 30
0.0
  0
VERTEX
  5
550
  8
0
 10
985.0657475730011
 20
117.6214772552227
 30
0.0
  0
SEQEND
  5
BCD
  8
0
  0
POLYLINE
  5
112
  8
0
 66
     1
 10
0.0
 20
0.0
 30
0.0
  0
VERTEX
  5
551
  8
0
 10
546.8657475730009
 20
130.2214772552227
 30
0.0
  0
VERTEX
  5
552
  8
0
 10
621.8657475730009
 20
130.2214772552227
 30
0.0
  0
SEQEND
  5
BCE
  8
0
  0
POLYLINE
  5
113
  8
0
 66
     1
 10
0.0
 20
0.0
 30
0.0
  0
VERTEX
  5
553
  8
0
 10
993.7775122788831
 20
7.280300784635301
 30
0.0
  0
VERTEX
  5
554
  8
0
 10
483.777512278883
 20
7.280300784635301
 30
0.0
  0
VERTEX
  5
555
  8
0
 10
483.777512278883
 20
62.2803007846353
 30
0.0
  0
VERTEX
  5
556
  8
0
 10
513.777512278883
 20
62.2803007846353
 30
0.0
  0
SEQEND
  5
BCF
  8
0
  0
POLYLINE
  5
114
  8
0
 66
     1
 10
0.0
 20
0.0
 30
0.0
  0
VERTEX
  5
557
  8
0
 10
513.777512278883
 20
68.2803007846353
 30
0.0
  0
VERTEX
  5
558
  8
0
 10
513.777512278883
 20
62.2803007846353
 30
0.0
  0
SEQEND
  5
BD0
  8
0
  0
POLYLINE
  5
115
  8
0
 66
     1
 10
0.0
 20
0.0
 30
0.0
  0
VERTEX
  5
559
  8
0
 10
513.777512278883
 20
68.2803007846353
 30
0.0
  0
VERTEX
  5
55A
  8
0
 10
543.777512278883
 20
68.2803007846353
 30
0.0
  0
VERTEX
  5
55B
  8
0
 10
543.777512278883
 20
62.2803007846353
 30
0.0
  0
SEQEND
  5
BD1
  8
0
  0
POLYLINE
  5
116
  8
0
 66
     1
 10
0.0
 20
0.0
 30
0.0
  0
VERTEX
  5
55C
  8
0
 10
618.777512278883
 20
68.2803007846353
 30
0.0
  0
VERTEX
  5
55D
  8
0
 10
618.777512278883
 20
62.2803007846353
 30
0.0
  0
SEQEND
  5
BD2
  8
0
  0
POLYLINE
  5
117
  8
0
 66
     1
 10
0.0
 20
0.0
 30
0.0
  0
VERTEX
  5
55E
  8
0
 10
618.777512278883
 20
68.2803007846353
 30
0.0
  0
VERTEX
  5
55F
  8
0
 10
648.777512278883
 20
68.2803007846353
 30
0.0
  0
VERTEX
  5
560
  8
0
 10
648.777512278883
 20
62.2803007846353
 30
0.0
  0
VERTEX
  5
561
  8
0
 10
723.777512278883
 20
62.2803007846353
 30
0.0
  0
SEQEND
  5
BD3
  8
0
  0
POLYLINE
  5
118
  8
0
 66
     1
 10
0.0
 20
0.0
 30
0.0
  0
VERTEX
  5
562
  8
0
 10
723.777512278883
 20
68.2803007846353
 30
0.0
  0
VERTEX
  5
563
  8
0
 10
723.777512278883
 20
62.2803007846353
 30
0.0
  0
SEQEND
  5
BD4
  8
0
  0
POLYLINE
  5
119
  8
0
 66
     1
 10
0.0
 20
0.0
 30
0.0
  0
VERTEX
  5
564
  8
0
 10
723.777512278883
 20
68.2803007846353
 30
0.0
  0
VERTEX
  5
565
  8
0
 10
753.777512278883
 20
68.2803007846353
 30
0.0
  0
VERTEX
  5
566
  8
0
 10
753.777512278883
 20
62.2803007846353
 30
0.0
  0
VERTEX
  5
567
  8
0
 10
828.777512278883
 20
62.2803007846353
 30
0.0
  0
SEQEND
  5
BD5
  8
0
  0
POLYLINE
  5
11A
  8
0
 66
     1
 10
0.0
 20
0.0
 30
0.0
  0
VERTEX
  5
568
  8
0
 10
828.777512278883
 20
68.2803007846353
 30
0.0
  0
VERTEX
  5
569
  8
0
 10
828.777512278883
 20
62.2803007846353
 30
0.0
  0
SEQEND
  5
BD6
  8
0
  0
POLYLINE
  5
11B
  8
0
 66
     1
 10
0.0
 20
0.0
 30
0.0
  0
VERTEX
  5
56A
  8
0
 10
828.777512278883
 20
68.2803007846353
 30
0.0
  0
VERTEX
  5
56B
  8
0
 10
858.777512278883
 20
68.2803007846353
 30
0.0
  0
VERTEX
  5
56C
  8
0
 10
858.777512278883
 20
62.2803007846353
 30
0.0
  0
VERTEX
  5
56D
  8
0
 10
933.7775122788831
 20
62.2803007846353
 30
0.0
  0
SEQEND
  5
BD7
  8
0
  0
POLYLINE
  5
11C
  8
0
 66
     1
 10
0.0
 20
0.0
 30
0.0
  0
VERTEX
  5
56E
  8
0
 10
933.7775122788831
 20
68.2803007846353
 30
0.0
  0
VERTEX
  5
56F
  8
0
 10
933.7775122788831
 20
62.2803007846353
 30
0.0
  0
SEQEND
  5
BD8
  8
0
  0
POLYLINE
  5
11D
  8
0
 66
     1
 10
0.0
 20
0.0
 30
0.0
  0
VERTEX
  5
570
  8
0
 10
933.7775122788831
 20
68.2803007846353
 30
0.0
  0
VERTEX
  5
571
  8
0
 10
963.7775122788831
 20
68.2803007846353
 30
0.0
  0
VERTEX
  5
572
  8
0
 10
963.7775122788831
 20
62.2803007846353
 30
0.0
  0
VERTEX
  5
573
  8
0
 10
993.7775122788831
 20
62.2803007846353
 30
0.0
  0
VERTEX
  5
574
  8
0
 10
993.7775122788831
 20
7.280300784635301
 30
0.0
  0
SEQEND
  5
BD9
  8
0
  0
POLYLINE
  5
11E
  8
0
 66
     1
 10
0.0
 20
0.0
 30
0.0
  0
VERTEX
  5
575
  8
0
 10
495.5775122788831
 20
19.88030078463532
 30
0.0
  0
VERTEX
  5
576
  8
0
 10
489.777512278883
 20
19.88030078463532
 30
0.0
  0
SEQEND
  5
BDA
  8
0
  0
POLYLINE
  5
11F
  8
0
 66
     1
 10
0.0
 20
0.0
 30
0.0
  0
VERTEX
  5
577
  8
0
 10
495.5775122788831
 20
49.68030078463528
 30
0.0
  0
VERTEX
  5
578
  8
0
 10
495.5775122788831
 20
19.88030078463532
 30
0.0
  0
SEQEND
  5
BDB
  8
0
  0
POLYLINE
  5
120
  8
0
 66
     1
 10
0.0
 20
0.0
 30
0.0
  0
VERTEX
  5
579
  8
0
 10
489.777512278883
 20
49.68030078463528
 30
0.0
  0
VERTEX
  5
57A
  8
0
 10
495.5775122788831
 20
49.68030078463528
 30
0.0
  0
SEQEND
  5
BDC
  8
0
  0
POLYLINE
  5
121
  8
0
 66
     1
 10
0.0
 20
0.0
 30
0.0
  0
VERTEX
  5
57B
  8
0
 10
489.777512278883
 20
19.88030078463532
 30
0.0
  0
VERTEX
  5
57C
  8
0
 10
489.777512278883
 20
49.68030078463528
 30
0.0
  0
SEQEND
  5
BDD
  8
0
  0
POLYLINE
  5
122
  8
0
 66
     1
 10
0.0
 20
0.0
 30
0.0
  0
VERTEX
  5
57D
  8
0
 10
987.7775122788831
 20
19.88030078463532
 30
0.0
  0
VERTEX
  5
57E
  8
0
 10
981.977512278883
 20
19.88030078463532
 30
0.0
  0
SEQEND
  5
BDE
  8
0
  0
POLYLINE
  5
123
  8
0
 66
     1
 10
0.0
 20
0.0
 30
0.0
  0
VERTEX
  5
57F
  8
0
 10
987.7775122788831
 20
49.68030078463528
 30
0.0
  0
VERTEX
  5
580
  8
0
 10
987.7775122788831
 20
19.88030078463532
 30
0.0
  0
SEQEND
  5
BDF
  8
0
  0
POLYLINE
  5
124
  8
0
 66
     1
 10
0.0
 20
0.0
 30
0.0
  0
VERTEX
  5
581
  8
0
 10
981.977512278883
 20
49.68030078463528
 30
0.0
  0
VERTEX
  5
582
  8
0
 10
987.7775122788831
 20
49.68030078463528
 30
0.0
  0
SEQEND
  5
BE0
  8
0
  0
POLYLINE
  5
125
  8
0
 66
     1
 10
0.0
 20
0.0
 30
0.0
  0
VERTEX
  5
583
  8
0
 10
981.977512278883
 20
19.88030078463532
 30
0.0
  0
VERTEX
  5
584
  8
0
 10
981.977512278883
 20
49.68030078463528
 30
0.0
  0
SEQEND
  5
BE1
  8
0
  0
POLYLINE
  5
126
  8
0
 66
     1
 10
0.0
 20
0.0
 30
0.0
  0
VERTEX
  5
585
  8
0
 10
543.777512278883
 20
62.2803007846353
 30
0.0
  0
VERTEX
  5
586
  8
0
 10
618.777512278883
 20
62.2803007846353
 30
0.0
  0
SEQEND
  5
BE2
  8
0
  0
POLYLINE
  5
127
  8
0
 66
     1
 10
0.0
 20
0.0
 30
0.0
  0
VERTEX
  5
587
  8
0
 10
144.3251291973267
 20
432.6608813698733
 30
0.0
  0
VERTEX
  5
588
  8
0
 10
370.3251291973267
 20
432.6608813698733
 30
0.0
  0
SEQEND
  5
BE3
  8
0
  0
POLYLINE
  5
128
  8
0
 66
     1
 10
0.0
 20
0.0
 30
0.0
  0
VERTEX
  5
589
  8
0
 10
138.3251291973267
 20
470.1608813698733
 30
0.0
  0
VERTEX
  5
58A
  8
0
 10
138.3251291973267
 20
440.1608813698733
 30
0.0
  0
SEQEND
  5
BE4
  8
0
  0
POLYLINE
  5
129
  8
0
 66
     1
 10
0.0
 20
0.0
 30
0.0
  0
VERTEX
  5
58B
  8
0
 10
370.3251291973267
 20
477.6608813698733
 30
0.0
  0
VERTEX
  5
58C
  8
0
 10
144.3251291973267
 20
477.6608813698733
 30
0.0
  0
SEQEND
  5
BE5
  8
0
  0
POLYLINE
  5
12A
  8
0
 66
     1
 10
0.0
 20
0.0
 30
0.0
  0
VERTEX
  5
58D
  8
0
 10
376.3251291973267
 20
470.1608813698733
 30
0.0
  0
VERTEX
  5
58E
  8
0
 10
376.3251291973267
 20
440.1608813698733
 30
0.0
  0
SEQEND
  5
BE6
  8
0
  0
POLYLINE
  5
12B
  8
0
 66
     1
 10
0.0
 20
0.0
 30
0.0
  0
VERTEX
  5
58F
  8
0
 10
370.3251291973267
 20
440.1608813698733
 30
0.0
  0
VERTEX
  5
590
  8
0
 10
376.3251291973267
 20
440.1608813698733
 30
0.0
  0
SEQEND
  5
BE7
  8
0
  0
POLYLINE
  5
12C
  8
0
 66
     1
 10
0.0
 20
0.0
 30
0.0
  0
VERTEX
  5
591
  8
0
 10
370.3251291973267
 20
432.6608813698733
 30
0.0
  0
VERTEX
  5
592
  8
0
 10
370.3251291973267
 20
440.1608813698733
 30
0.0
  0
SEQEND
  5
BE8
  8
0
  0
POLYLINE
  5
12D
  8
0
 66
     1
 10
0.0
 20
0.0
 30
0.0
  0
VERTEX
  5
593
  8
0
 10
138.3251291973267
 20
440.1608813698733
 30
0.0
  0
VERTEX
  5
594
  8
0
 10
144.3251291973267
 20
440.1608813698733
 30
0.0
  0
SEQEND
  5
BE9
  8
0
  0
POLYLINE
  5
12E
  8
0
 66
     1
 10
0.0
 20
0.0
 30
0.0
  0
VERTEX
  5
595
  8
0
 10
138.3251291973267
 20
470.1608813698733
 30
0.0
  0
VERTEX
  5
596
  8
0
 10
144.3251291973267
 20
470.1608813698733
 30
0.0
  0
SEQEND
  5
BEA
  8
0
  0
POLYLINE
  5
12F
  8
0
 66
     1
 10
0.0
 20
0.0
 30
0.0
  0
VERTEX
  5
597
  8
0
 10
370.3251291973267
 20
470.1608813698733
 30
0.0
  0
VERTEX
  5
598
  8
0
 10
376.3251291973267
 20
470.1608813698733
 30
0.0
  0
SEQEND
  5
BEB
  8
0
  0
POLYLINE
  5
130
  8
0
 66
     1
 10
0.0
 20
0.0
 30
0.0
  0
VERTEX
  5
599
  8
0
 10
144.3251291973267
 20
440.1608813698733
 30
0.0
  0
VERTEX
  5
59A
  8
0
 10
144.3251291973267
 20
432.6608813698733
 30
0.0
  0
SEQEND
  5
BEC
  8
0
  0
POLYLINE
  5
131
  8
0
 66
     1
 10
0.0
 20
0.0
 30
0.0
  0
VERTEX
  5
59B
  8
0
 10
370.3251291973267
 20
470.1608813698733
 30
0.0
  0
VERTEX
  5
59C
  8
0
 10
370.3251291973267
 20
477.6608813698733
 30
0.0
  0
SEQEND
  5
BED
  8
0
  0
POLYLINE
  5
132
  8
0
 66
     1
 10
0.0
 20
0.0
 30
0.0
  0
VERTEX
  5
59D
  8
0
 10
144.3251291973267
 20
477.6608813698733
 30
0.0
  0
VERTEX
  5
59E
  8
0
 10
144.3251291973267
 20
470.1608813698733
 30
0.0
  0
SEQEND
  5
BEE
  8
0
  0
POLYLINE
  5
133
  8
0
 66
     1
 10
0.0
 20
0.0
 30
0.0
  0
VERTEX
  5
59F
  8
0
 10
143.93001408649
 20
40.10148763517758
 30
0.0
  0
VERTEX
  5
5A0
  8
0
 10
369.93001408649
 20
40.10148763517758
 30
0.0
  0
SEQEND
  5
BEF
  8
0
  0
POLYLINE
  5
134
  8
0
 66
     1
 10
0.0
 20
0.0
 30
0.0
  0
VERTEX
  5
5A1
  8
0
 10
137.93001408649
 20
77.60148763517758
 30
0.0
  0
VERTEX
  5
5A2
  8
0
 10
137.93001408649
 20
47.60148763517758
 30
0.0
  0
SEQEND
  5
BF0
  8
0
  0
POLYLINE
  5
135
  8
0
 66
     1
 10
0.0
 20
0.0
 30
0.0
  0
VERTEX
  5
5A3
  8
0
 10
369.93001408649
 20
85.10148763517759
 30
0.0
  0
VERTEX
  5
5A4
  8
0
 10
143.93001408649
 20
85.10148763517759
 30
0.0
  0
SEQEND
  5
BF1
  8
0
  0
POLYLINE
  5
136
  8
0
 66
     1
 10
0.0
 20
0.0
 30
0.0
  0
VERTEX
  5
5A5
  8
0
 10
375.93001408649
 20
77.60148763517758
 30
0.0
  0
VERTEX
  5
5A6
  8
0
 10
375.93001408649
 20
47.60148763517758
 30
0.0
  0
SEQEND
  5
BF2
  8
0
  0
POLYLINE
  5
137
  8
0
 66
     1
 10
0.0
 20
0.0
 30
0.0
  0
VERTEX
  5
5A7
  8
0
 10
369.93001408649
 20
47.60148763517758
 30
0.0
  0
VERTEX
  5
5A8
  8
0
 10
375.93001408649
 20
47.60148763517758
 30
0.0
  0
SEQEND
  5
BF3
  8
0
  0
POLYLINE
  5
138
  8
0
 66
     1
 10
0.0
 20
0.0
 30
0.0
  0
VERTEX
  5
5A9
  8
0
 10
369.93001408649
 20
40.10148763517758
 30
0.0
  0
VERTEX
  5
5AA
  8
0
 10
369.93001408649
 20
47.60148763517758
 30
0.0
  0
SEQEND
  5
BF4
  8
0
  0
POLYLINE
  5
139
  8
0
 66
     1
 10
0.0
 20
0.0
 30
0.0
  0
VERTEX
  5
5AB
  8
0
 10
137.93001408649
 20
47.60148763517758
 30
0.0
  0
VERTEX
  5
5AC
  8
0
 10
143.93001408649
 20
47.60148763517758
 30
0.0
  0
SEQEND
  5
BF5
  8
0
  0
POLYLINE
  5
13A
  8
0
 66
     1
 10
0.0
 20
0.0
 30
0.0
  0
VERTEX
  5
5AD
  8
0
 10
137.93001408649
 20
77.60148763517758
 30
0.0
  0
VERTEX
  5
5AE
  8
0
 10
143.93001408649
 20
77.60148763517758
 30
0.0
  0
SEQEND
  5
BF6
  8
0
  0
POLYLINE
  5
13B
  8
0
 66
     1
 10
0.0
 20
0.0
 30
0.0
  0
VERTEX
  5
5AF
  8
0
 10
369.93001408649
 20
77.60148763517758
 30
0.0
  0
VERTEX
  5
5B0
  8
0
 10
375.93001408649
 20
77.60148763517758
 30
0.0
  0
SEQEND
  5
BF7
  8
0
  0
POLYLINE
  5
13C
  8
0
 66
     1
 10
0.0
 20
0.0
 30
0.0
  0
VERTEX
  5
5B1
  8
0
 10
143.93001408649
 20
47.60148763517758
 30
0.0
  0
VERTEX
  5
5B2
  8
0
 10
143.93001408649
 20
40.10148763517758
 30
0.0
  0
SEQEND
  5
BF8
  8
0
  0
POLYLINE
  5
13D
  8
0
 66
     1
 10
0.0
 20
0.0
 30
0.0
  0
VERTEX
  5
5B3
  8
0
 10
369.93001408649
 20
77.60148763517758
 30
0.0
  0
VERTEX
  5
5B4
  8
0
 10
369.93001408649
 20
85.10148763517759
 30
0.0
  0
SEQEND
  5
BF9
  8
0
  0
POLYLINE
  5
13E
  8
0
 66
     1
 10
0.0
 20
0.0
 30
0.0
  0
VERTEX
  5
5B5
  8
0
 10
143.93001408649
 20
85.10148763517759
 30
0.0
  0
VERTEX
  5
5B6
  8
0
 10
143.93001408649
 20
77.60148763517758
 30
0.0
  0
SEQEND
  5
BFA
  8
0
  0
POLYLINE
  5
13F
  8
0
 66
     1
 10
0.0
 20
0.0
 30
0.0
 70
     1
  0
VERTEX
  5
5B7
  8
0
 10
60.18068833521198
 20
265.9470875522538
 30
0.0
 42
0.4142135623730951
  0
VERTEX
  5
5B8
  8
0
 10
58.68068833521198
 20
264.4470875522538
 30
0.0
 42
0.4142135623730951
  0
VERTEX
  5
5B9
  8
0
 10
60.18068833521198
 20
262.9470875522538
 30
0.0
 42
0.4142135623730951
  0
VERTEX
  5
5BA
  8
0
 10
61.68068833521198
 20
264.4470875522538
 30
0.0
 42
0.4142135623730951
  0
SEQEND
  5
BFB
  8
0
  0
POLYLINE
  5
140
  8
0
 66
     1
 10
0.0
 20
0.0
 30
0.0
 70
     1
  0
VERTEX
  5
5BB
  8
0
 10
75.68068833521198
 20
318.8470875522538
 30
0.0
 42
0.4142135623730951
  0
VERTEX
  5
5BC
  8
0
 10
71.78068833521195
 20
314.9470875522538
 30
0.0
 42
0.4142135623730951
  0
VERTEX
  5
5BD
  8
0
 10
75.68068833521198
 20
311.0470875522539
 30
0.0
 42
0.4142135623730951
  0
VERTEX
  5
5BE
  8
0
 10
79.58068833521202
 20
314.9470875522538
 30
0.0
 42
0.4142135623730951
  0
SEQEND
  5
BFC
  8
0
  0
POLYLINE
  5
141
  8
0
 66
     1
 10
0.0
 20
0.0
 30
0.0
 70
     1
  0
VERTEX
  5
5BF
  8
0
 10
75.68068833521198
 20
290.8470875522538
 30
0.0
 42
0.4142135623730951
  0
VERTEX
  5
5C0
  8
0
 10
64.780688335212
 20
279.9470875522538
 30
0.0
 42
0.4142135623730951
  0
VERTEX
  5
5C1
  8
0
 10
75.68068833521198
 20
269.0470875522539
 30
0.0
 42
0.4142135623730951
  0
VERTEX
  5
5C2
  8
0
 10
86.58068833521196
 20
279.9470875522538
 30
0.0
 42
0.4142135623730951
  0
SEQEND
  5
BFD
  8
0
  0
POLYLINE
  5
142
  8
0
 66
     1
 10
0.0
 20
0.0
 30
0.0
 70
     1
  0
VERTEX
  5
5C3
  8
0
 10
60.18068833521198
 20
296.9470875522538
 30
0.0
 42
0.4142135623730951
  0
VERTEX
  5
5C4
  8
0
 10
58.68068833521198
 20
295.4470875522538
 30
0.0
 42
0.4142135623730951
  0
VERTEX
  5
5C5
  8
0
 10
60.18068833521198
 20
293.9470875522538
 30
0.0
 42
0.4142135623730951
  0
VERTEX
  5
5C6
  8
0
 10
61.68068833521198
 20
295.4470875522538
 30
0.0
 42
0.4142135623730951
  0
SEQEND
  5
BFE
  8
0
  0
POLYLINE
  5
143
  8
0
 66
     1
 10
0.0
 20
0.0
 30
0.0
 70
     1
  0
VERTEX
  5
5C7
  8
0
 10
91.18068833521198
 20
296.9470875522538
 30
0.0
 42
0.4142135623730951
  0
VERTEX
  5
5C8
  8
0
 10
89.68068833521198
 20
295.4470875522538
 30
0.0
 42
0.4142135623730951
  0
VERTEX
  5
5C9
  8
0
 10
91.18068833521198
 20
293.9470875522538
 30
0.0
 42
0.4142135623730951
  0
VERTEX
  5
5CA
  8
0
 10
92.68068833521198
 20
295.4470875522538
 30
0.0
 42
0.4142135623730951
  0
SEQEND
  5
BFF
  8
0
  0
POLYLINE
  5
144
  8
0
 66
     1
 10
0.0
 20
0.0
 30
0.0
 70
     1
  0
VERTEX
  5
5CB
  8
0
 10
91.18068833521198
 20
265.9470875522538
 30
0.0
 42
0.4142135623730951
  0
VERTEX
  5
5CC
  8
0
 10
89.68068833521198
 20
264.4470875522538
 30
0.0
 42
0.4142135623730951
  0
VERTEX
  5
5CD
  8
0
 10
91.18068833521198
 20
262.9470875522538
 30
0.0
 42
0.4142135623730951
  0
VERTEX
  5
5CE
  8
0
 10
92.68068833521198
 20
264.4470875522538
 30
0.0
 42
0.4142135623730951
  0
SEQEND
  5
C00
  8
0
  0
POLYLINE
  5
145
  8
0
 66
     1
 10
0.0
 20
0.0
 30
0.0
  0
VERTEX
  5
5CF
  8
0
 10
90.68068833521198
 20
304.9470875522538
 30
0.0
  0
VERTEX
  5
5D0
  8
0
 10
120.680688335212
 20
304.9470875522538
 30
0.0
  0
VERTEX
  5
5D1
  8
0
 10
120.680688335212
 20
294.9470875522538
 30
0.0
  0
SEQEND
  5
C01
  8
0
  0
POLYLINE
  5
146
  8
0
 66
     1
 10
0.0
 20
0.0
 30
0.0
  0
VERTEX
  5
5D2
  8
0
 10
126.680688335212
 20
294.9470875522538
 30
0.0
  0
VERTEX
  5
5D3
  8
0
 10
120.680688335212
 20
294.9470875522538
 30
0.0
  0
SEQEND
  5
C02
  8
0
  0
POLYLINE
  5
147
  8
0
 66
     1
 10
0.0
 20
0.0
 30
0.0
  0
VERTEX
  5
5D4
  8
0
 10
120.680688335212
 20
254.9470875522538
 30
0.0
  0
VERTEX
  5
5D5
  8
0
 10
30.68068833521198
 20
254.9470875522538
 30
0.0
  0
SEQEND
  5
C03
  8
0
  0
POLYLINE
  5
148
  8
0
 66
     1
 10
0.0
 20
0.0
 30
0.0
  0
VERTEX
  5
5D6
  8
0
 10
30.68068833521198
 20
264.9470875522538
 30
0.0
  0
VERTEX
  5
5D7
  8
0
 10
24.68068833521198
 20
264.9470875522538
 30
0.0
  0
SEQEND
  5
C04
  8
0
  0
POLYLINE
  5
149
  8
0
 66
     1
 10
0.0
 20
0.0
 30
0.0
  0
VERTEX
  5
5D8
  8
0
 10
30.68068833521198
 20
294.9470875522538
 30
0.0
  0
VERTEX
  5
5D9
  8
0
 10
24.68068833521198
 20
294.9470875522538
 30
0.0
  0
SEQEND
  5
C05
  8
0
  0
POLYLINE
  5
14A
  8
0
 66
     1
 10
0.0
 20
0.0
 30
0.0
  0
VERTEX
  5
5DA
  8
0
 10
30.68068833521198
 20
294.9470875522538
 30
0.0
  0
VERTEX
  5
5DB
  8
0
 10
30.68068833521198
 20
304.9470875522538
 30
0.0
  0
VERTEX
  5
5DC
  8
0
 10
60.68068833521198
 20
304.9470875522538
 30
0.0
  0
VERTEX
  5
5DD
  8
0
 10
60.68068833521198
 20
314.9470875522538
 30
0.0
  0
SEQEND
  5
C06
  8
0
  0
POLYLINE
  5
14B
  8
0
 66
     1
 10
0.0
 20
0.0
 30
0.0
  0
VERTEX
  5
5DE
  8
0
 10
70.68068833521198
 20
324.9470875522538
 30
0.0
  0
VERTEX
  5
5DF
  8
0
 10
80.68068833521198
 20
324.9470875522538
 30
0.0
  0
SEQEND
  5
C07
  8
0
  0
POLYLINE
  5
14C
  8
0
 66
     1
 10
0.0
 20
0.0
 30
0.0
  0
VERTEX
  5
5E0
  8
0
 10
90.68068833521198
 20
314.9470875522538
 30
0.0
  0
VERTEX
  5
5E1
  8
0
 10
90.68068833521198
 20
304.9470875522538
 30
0.0
  0
SEQEND
  5
C08
  8
0
  0
POLYLINE
  5
14D
  8
0
 66
     1
 10
0.0
 20
0.0
 30
0.0
  0
VERTEX
  5
5E2
  8
0
 10
126.680688335212
 20
264.9470875522538
 30
0.0
  0
VERTEX
  5
5E3
  8
0
 10
126.680688335212
 20
294.9470875522538
 30
0.0
  0
SEQEND
  5
C09
  8
0
  0
POLYLINE
  5
14E
  8
0
 66
     1
 10
0.0
 20
0.0
 30
0.0
  0
VERTEX
  5
5E4
  8
0
 10
24.68068833521198
 20
264.9470875522538
 30
0.0
  0
VERTEX
  5
5E5
  8
0
 10
24.68068833521198
 20
294.9470875522538
 30
0.0
  0
SEQEND
  5
C0A
  8
0
  0
POLYLINE
  5
14F
  8
0
 66
     1
 10
0.0
 20
0.0
 30
0.0
  0
VERTEX
  5
5E6
  8
0
 10
126.680688335212
 20
264.9470875522538
 30
0.0
  0
VERTEX
  5
5E7
  8
0
 10
120.680688335212
 20
264.9470875522538
 30
0.0
  0
SEQEND
  5
C0B
  8
0
  0
POLYLINE
  5
150
  8
0
 66
     1
 10
0.0
 20
0.0
 30
0.0
  0
VERTEX
  5
5E8
  8
0
 10
30.68068833521198
 20
254.9470875522538
 30
0.0
  0
VERTEX
  5
5E9
  8
0
 10
30.68068833521198
 20
264.9470875522538
 30
0.0
  0
SEQEND
  5
C0C
  8
0
  0
POLYLINE
  5
151
  8
0
 66
     1
 10
0.0
 20
0.0
 30
0.0
  0
VERTEX
  5
5EA
  8
0
 10
120.680688335212
 20
264.9470875522538
 30
0.0
  0
VERTEX
  5
5EB
  8
0
 10
120.680688335212
 20
254.9470875522538
 30
0.0
  0
SEQEND
  5
C0D
  8
0
  0
POLYLINE
  5
152
  8
0
 66
     1
 10
0.0
 20
0.0
 30
0.0
  0
VERTEX
  5
5EC
  8
0
 10
70.68068833521198
 20
324.9470875522538
 30
0.0
 42
0.414213562373095
  0
VERTEX
  5
5ED
  8
0
 10
60.68068833521198
 20
314.9470875522538
 30
0.0
  0
SEQEND
  5
C0E
  8
0
  0
POLYLINE
  5
153
  8
0
 66
     1
 10
0.0
 20
0.0
 30
0.0
  0
VERTEX
  5
5EE
  8
0
 10
90.68068833521198
 20
314.9470875522538
 30
0.0
 42
0.4142135623730951
  0
VERTEX
  5
5EF
  8
0
 10
80.68068833521198
 20
324.9470875522538
 30
0.0
  0
SEQEND
  5
C0F
  8
0
  0
POLYLINE
  5
154
  8
0
 66
     1
 10
0.0
 20
0.0
 30
0.0
 70
     1
  0
VERTEX
  5
5F0
  8
0
 10
423.3571589234434
 20
225.1823816699013
 30
0.0
 42
0.4142135623730951
  0
VERTEX
  5
5F1
  8
0
 10
421.8571589234434
 20
223.6823816699013
 30
0.0
 42
0.4142135623730951
  0
VERTEX
  5
5F2
  8
0
 10
423.3571589234434
 20
222.1823816699013
 30
0.0
 42
0.4142135623730951
  0
VERTEX
  5
5F3
  8
0
 10
424.8571589234434
 20
223.6823816699013
 30
0.0
 42
0.4142135623730951
  0
SEQEND
  5
C10
  8
0
  0
POLYLINE
  5
155
  8
0
 66
     1
 10
0.0
 20
0.0
 30
0.0
 70
     1
  0
VERTEX
  5
5F4
  8
0
 10
438.8571589234434
 20
278.0823816699013
 30
0.0
 42
0.4142135623730951
  0
VERTEX
  5
5F5
  8
0
 10
434.9571589234435
 20
274.1823816699013
 30
0.0
 42
0.4142135623730951
  0
VERTEX
  5
5F6
  8
0
 10
438.8571589234434
 20
270.2823816699013
 30
0.0
 42
0.4142135623730951
  0
VERTEX
  5
5F7
  8
0
 10
442.7571589234435
 20
274.1823816699013
 30
0.0
 42
0.4142135623730951
  0
SEQEND
  5
C11
  8
0
  0
POLYLINE
  5
156
  8
0
 66
     1
 10
0.0
 20
0.0
 30
0.0
 70
     1
  0
VERTEX
  5
5F8
  8
0
 10
438.8571589234434
 20
250.0823816699013
 30
0.0
 42
0.4142135623730951
  0
VERTEX
  5
5F9
  8
0
 10
427.9571589234435
 20
239.1823816699013
 30
0.0
 42
0.4142135623730951
  0
VERTEX
  5
5FA
  8
0
 10
438.8571589234434
 20
228.2823816699013
 30
0.0
 42
0.4142135623730951
  0
VERTEX
  5
5FB
  8
0
 10
449.7571589234435
 20
239.1823816699013
 30
0.0
 42
0.4142135623730951
  0
SEQEND
  5
C12
  8
0
  0
POLYLINE
  5
157
  8
0
 66
     1
 10
0.0
 20
0.0
 30
0.0
 70
     1
  0
VERTEX
  5
5FC
  8
0
 10
423.3571589234434
 20
256.1823816699013
 30
0.0
 42
0.4142135623730951
  0
VERTEX
  5
5FD
  8
0
 10
421.8571589234434
 20
254.6823816699013
 30
0.0
 42
0.4142135623730951
  0
VERTEX
  5
5FE
  8
0
 10
423.3571589234434
 20
253.1823816699013
 30
0.0
 42
0.4142135623730951
  0
VERTEX
  5
5FF
  8
0
 10
424.8571589234434
 20
254.6823816699013
 30
0.0
 42
0.4142135623730951
  0
SEQEND
  5
C13
  8
0
  0
POLYLINE
  5
158
  8
0
 66
     1
 10
0.0
 20
0.0
 30
0.0
 70
     1
  0
VERTEX
  5
600
  8
0
 10
454.3571589234434
 20
256.1823816699013
 30
0.0
 42
0.4142135623730951
  0
VERTEX
  5
601
  8
0
 10
452.8571589234434
 20
254.6823816699013
 30
0.0
 42
0.4142135623730951
  0
VERTEX
  5
602
  8
0
 10
454.3571589234434
 20
253.1823816699013
 30
0.0
 42
0.4142135623730951
  0
VERTEX
  5
603
  8
0
 10
455.8571589234434
 20
254.6823816699013
 30
0.0
 42
0.4142135623730951
  0
SEQEND
  5
C14
  8
0
  0
POLYLINE
  5
159
  8
0
 66
     1
 10
0.0
 20
0.0
 30
0.0
 70
     1
  0
VERTEX
  5
604
  8
0
 10
454.3571589234434
 20
225.1823816699013
 30
0.0
 42
0.4142135623730951
  0
VERTEX
  5
605
  8
0
 10
452.8571589234434
 20
223.6823816699013
 30
0.0
 42
0.4142135623730951
  0
VERTEX
  5
606
  8
0
 10
454.3571589234434
 20
222.1823816699013
 30
0.0
 42
0.4142135623730951
  0
VERTEX
  5
607
  8
0
 10
455.8571589234434
 20
223.6823816699013
 30
0.0
 42
0.4142135623730951
  0
SEQEND
  5
C15
  8
0
  0
POLYLINE
  5
15A
  8
0
 66
     1
 10
0.0
 20
0.0
 30
0.0
  0
VERTEX
  5
608
  8
0
 10
453.8571589234434
 20
264.1823816699013
 30
0.0
  0
VERTEX
  5
609
  8
0
 10
483.8571589234434
 20
264.1823816699013
 30
0.0
  0
VERTEX
  5
60A
  8
0
 10
483.8571589234434
 20
254.1823816699013
 30
0.0
  0
SEQEND
  5
C16
  8
0
  0
POLYLINE
  5
15B
  8
0
 66
     1
 10
0.0
 20
0.0
 30
0.0
  0
VERTEX
  5
60B
  8
0
 10
489.8571589234434
 20
254.1823816699013
 30
0.0
  0
VERTEX
  5
60C
  8
0
 10
483.8571589234434
 20
254.1823816699013
 30
0.0
  0
SEQEND
  5
C17
  8
0
  0
POLYLINE
  5
15C
  8
0
 66
     1
 10
0.0
 20
0.0
 30
0.0
  0
VERTEX
  5
60D
  8
0
 10
483.8571589234434
 20
214.1823816699013
 30
0.0
  0
VERTEX
  5
60E
  8
0
 10
393.8571589234434
 20
214.1823816699013
 30
0.0
  0
SEQEND
  5
C18
  8
0
  0
POLYLINE
  5
15D
  8
0
 66
     1
 10
0.0
 20
0.0
 30
0.0
  0
VERTEX
  5
60F
  8
0
 10
393.8571589234434
 20
224.1823816699013
 30
0.0
  0
VERTEX
  5
610
  8
0
 10
387.8571589234434
 20
224.1823816699013
 30
0.0
  0
SEQEND
  5
C19
  8
0
  0
POLYLINE
  5
15E
  8
0
 66
     1
 10
0.0
 20
0.0
 30
0.0
  0
VERTEX
  5
611
  8
0
 10
393.8571589234434
 20
254.1823816699013
 30
0.0
  0
VERTEX
  5
612
  8
0
 10
387.8571589234434
 20
254.1823816699013
 30
0.0
  0
SEQEND
  5
C1A
  8
0
  0
POLYLINE
  5
15F
  8
0
 66
     1
 10
0.0
 20
0.0
 30
0.0
  0
VERTEX
  5
613
  8
0
 10
393.8571589234434
 20
254.1823816699013
 30
0.0
  0
VERTEX
  5
614
  8
0
 10
393.8571589234434
 20
264.1823816699013
 30
0.0
  0
VERTEX
  5
615
  8
0
 10
423.8571589234434
 20
264.1823816699013
 30
0.0
  0
VERTEX
  5
616
  8
0
 10
423.8571589234434
 20
274.1823816699013
 30
0.0
  0
SEQEND
  5
C1B
  8
0
  0
POLYLINE
  5
160
  8
0
 66
     1
 10
0.0
 20
0.0
 30
0.0
  0
VERTEX
  5
617
  8
0
 10
433.8571589234434
 20
284.1823816699013
 30
0.0
  0
VERTEX
  5
618
  8
0
 10
443.8571589234434
 20
284.1823816699013
 30
0.0
  0
SEQEND
  5
C1C
  8
0
  0
POLYLINE
  5
161
  8
0
 66
     1
 10
0.0
 20
0.0
 30
0.0
  0
VERTEX
  5
619
  8
0
 10
453.8571589234434
 20
274.1823816699013
 30
0.0
  0
VERTEX
  5
61A
  8
0
 10
453.8571589234434
 20
264.1823816699013
 30
0.0
  0
SEQEND
  5
C1D
  8
0
  0
POLYLINE
  5
162
  8
0
 66
     1
 10
0.0
 20
0.0
 30
0.0
  0
VERTEX
  5
61B
  8
0
 10
489.8571589234434
 20
224.1823816699013
 30
0.0
  0
VERTEX
  5
61C
  8
0
 10
489.8571589234434
 20
254.1823816699013
 30
0.0
  0
SEQEND
  5
C1E
  8
0
  0
POLYLINE
  5
163
  8
0
 66
     1
 10
0.0
 20
0.0
 30
0.0
  0
VERTEX
  5
61D
  8
0
 10
387.8571589234434
 20
224.1823816699013
 30
0.0
  0
VERTEX
  5
61E
  8
0
 10
387.8571589234434
 20
254.1823816699013
 30
0.0
  0
SEQEND
  5
C1F
  8
0
  0
POLYLINE
  5
164
  8
0
 66
     1
 10
0.0
 20
0.0
 30
0.0
  0
VERTEX
  5
61F
  8
0
 10
489.8571589234434
 20
224.1823816699013
 30
0.0
  0
VERTEX
  5
620
  8
0
 10
483.8571589234434
 20
224.1823816699013
 30
0.0
  0
SEQEND
  5
C20
  8
0
  0
POLYLINE
  5
165
  8
0
 66
     1
 10
0.0
 20
0.0
 30
0.0
  0
VERTEX
  5
621
  8
0
 10
393.8571589234434
 20
214.1823816699013
 30
0.0
  0
VERTEX
  5
622
  8
0
 10
393.8571589234434
 20
224.1823816699013
 30
0.0
  0
SEQEND
  5
C21
  8
0
  0
POLYLINE
  5
166
  8
0
 66
     1
 10
0.0
 20
0.0
 30
0.0
  0
VERTEX
  5
623
  8
0
 10
483.8571589234434
 20
224.1823816699013
 30
0.0
  0
VERTEX
  5
624
  8
0
 10
483.8571589234434
 20
214.1823816699013
 30
0.0
  0
SEQEND
  5
C22
  8
0
  0
POLYLINE
  5
167
  8
0
 66
     1
 10
0.0
 20
0.0
 30
0.0
  0
VERTEX
  5
625
  8
0
 10
433.8571589234434
 20
284.1823816699013
 30
0.0
 42
0.414213562373095
  0
VERTEX
  5
626
  8
0
 10
423.8571589234434
 20
274.1823816699013
 30
0.0
  0
SEQEND
  5
C23
  8
0
  0
POLYLINE
  5
168
  8
0
 66
     1
 10
0.0
 20
0.0
 30
0.0
  0
VERTEX
  5
627
  8
0
 10
453.8571589234436
 20
274.1823816699013
 30
0.0
 42
0.4142135623730951
  0
VERTEX
  5
628
  8
0
 10
443.8571589234434
 20
284.1823816699013
 30
0.0
  0
SEQEND
  5
C24
  8
0
  0
POLYLINE
  5
169
  8
0
 66
     1
 10
0.0
 20
0.0
 30
0.0
 70
     1
  0
VERTEX
  5
629
  8
0
 10
483.4401425355293
 20
734.3838700591032
 30
0.0
 42
0.4142135623730951
  0
VERTEX
  5
62A
  8
0
 10
482.9401425355293
 20
733.8838700591032
 30
0.0
 42
0.4142135623730951
  0
VERTEX
  5
62B
  8
0
 10
483.4401425355293
 20
733.3838700591032
 30
0.0
 42
0.4142135623730951
  0
VERTEX
  5
62C
  8
0
 10
483.9401425355293
 20
733.8838700591032
 30
0.0
 42
0.4142135623730951
  0
SEQEND
  5
C25
  8
0
  0
POLYLINE
  5
16A
  8
0
 66
     1
 10
0.0
 20
0.0
 30
0.0
  0
VERTEX
  5
62D
  8
0
 10
217.4429228860293
 20
735.1000685324032
 30
0.0
  0
VERTEX
  5
62E
  8
0
 10
217.4429228860293
 20
732.6676715858032
 30
0.0
  0
SEQEND
  5
C26
  8
0
  0
POLYLINE
  5
16B
  8
0
 66
     1
 10
0.0
 20
0.0
 30
0.0
  0
VERTEX
  5
62F
  8
0
 10
217.7271767470293
 20
746.2378091827032
 30
0.0
  0
VERTEX
  5
630
  8
0
 10
217.6253185347294
 20
743.8075458615032
 30
0.0
  0
SEQEND
  5
C27
  8
0
  0
POLYLINE
  5
16C
  8
0
 66
     1
 10
0.0
 20
0.0
 30
0.0
  0
VERTEX
  5
631
  8
0
 10
218.4775814398293
 20
757.3538768258032
 30
0.0
  0
VERTEX
  5
632
  8
0
 10
218.2740437092294
 20
754.9300106377032
 30
0.0
  0
SEQEND
  5
C28
  8
0
  0
POLYLINE
  5
16D
  8
0
 66
     1
 10
0.0
 20
0.0
 30
0.0
  0
VERTEX
  5
633
  8
0
 10
219.6928204998292
 20
768.4287701020031
 30
0.0
  0
VERTEX
  5
634
  8
0
 10
219.3879603251292
 20
766.0155533318032
 30
0.0
  0
SEQEND
  5
C29
  8
0
  0
POLYLINE
  5
16E
  8
0
 66
     1
 10
0.0
 20
0.0
 30
0.0
  0
VERTEX
  5
635
  8
0
 10
221.3707619845293
 20
779.4430598850032
 30
0.0
  0
VERTEX
  5
636
  8
0
 10
220.9651141942293
 20
777.0447261350032
 30
0.0
  0
SEQEND
  5
C2A
  8
0
  0
POLYLINE
  5
16F
  8
0
 66
     1
 10
0.0
 20
0.0
 30
0.0
  0
VERTEX
  5
637
  8
0
 10
223.5084622144294
 20
790.3774233679031
 30
0.0
  0
VERTEX
  5
638
  8
0
 10
223.0027384525293
 20
787.9981801306031
 30
0.0
  0
SEQEND
  5
C2B
  8
0
  0
POLYLINE
  5
170
  8
0
 66
     1
 10
0.0
 20
0.0
 30
0.0
  0
VERTEX
  5
639
  8
0
 10
226.1021709370294
 20
801.2126779617032
 30
0.0
  0
VERTEX
  5
63A
  8
0
 10
225.4972584148293
 20
798.8566992381031
 30
0.0
  0
SEQEND
  5
C2C
  8
0
  0
POLYLINE
  5
171
  8
0
 66
     1
 10
0.0
 20
0.0
 30
0.0
  0
VERTEX
  5
63B
  8
0
 10
229.1473379059294
 20
811.9298149480031
 30
0.0
  0
VERTEX
  5
63C
  8
0
 10
228.4442978455293
 20
809.6012339253032
 30
0.0
  0
SEQEND
  5
C2D
  8
0
  0
POLYLINE
  5
172
  8
0
 66
     1
 10
0.0
 20
0.0
 30
0.0
  0
VERTEX
  5
63D
  8
0
 10
232.6386208633292
 20
822.5100328267032
 30
0.0
  0
VERTEX
  5
63E
  8
0
 10
231.8386866359293
 20
820.2129346273032
 30
0.0
  0
SEQEND
  5
C2E
  8
0
  0
POLYLINE
  5
173
  8
0
 66
     1
 10
0.0
 20
0.0
 30
0.0
  0
VERTEX
  5
63F
  8
0
 10
236.5698949127294
 20
832.9347703006032
 30
0.0
  0
VERTEX
  5
640
  8
0
 10
235.6744698748294
 20
830.6731848153032
 30
0.0
  0
SEQEND
  5
C2F
  8
0
  0
POLYLINE
  5
174
  8
0
 66
     1
 10
0.0
 20
0.0
 30
0.0
  0
VERTEX
  5
641
  8
0
 10
240.9342632635294
 20
843.1857388377032
 30
0.0
  0
VERTEX
  5
642
  8
0
 10
239.9449182948293
 20
840.9636336560031
 30
0.0
  0
SEQEND
  5
C30
  8
0
  0
POLYLINE
  5
175
  8
0
 66
     1
 10
0.0
 20
0.0
 30
0.0
  0
VERTEX
  5
643
  8
0
 10
245.7240693305294
 20
853.2449547560032
 30
0.0
  0
VERTEX
  5
644
  8
0
 10
244.6425400783294
 20
851.0662282053032
 30
0.0
  0
SEQEND
  5
C31
  8
0
  0
POLYLINE
  5
176
  8
0
 66
     1
 10
0.0
 20
0.0
 30
0.0
  0
VERTEX
  5
645
  8
0
 10
250.9309101665293
 20
863.0947707725032
 30
0.0
  0
VERTEX
  5
646
  8
0
 10
249.7590940006294
 20
860.9632450797031
 30
0.0
  0
SEQEND
  5
C32
  8
0
  0
POLYLINE
  5
177
  8
0
 66
     1
 10
0.0
 20
0.0
 30
0.0
  0
VERTEX
  5
647
  8
0
 10
256.5456512032293
 20
872.7179069630032
 30
0.0
  0
VERTEX
  5
648
  8
0
 10
255.2856038873293
 20
870.6373215484032
 30
0.0
  0
SEQEND
  5
C33
  8
0
  0
POLYLINE
  5
178
  8
0
 66
     1
 10
0.0
 20
0.0
 30
0.0
  0
VERTEX
  5
649
  8
0
 10
262.5584422769294
 20
882.0974810767032
 30
0.0
  0
VERTEX
  5
64A
  8
0
 10
261.2123743623293
 20
880.0714859940032
 30
0.0
  0
SEQEND
  5
C34
  8
0
  0
POLYLINE
  5
179
  8
0
 66
     1
 10
0.0
 20
0.0
 30
0.0
  0
VERTEX
  5
64B
  8
0
 10
268.9587349090294
 20
891.2170381533032
 30
0.0
  0
VERTEX
  5
64C
  8
0
 10
267.5290078561293
 20
889.2491876865032
 30
0.0
  0
SEQEND
  5
C35
  8
0
  0
POLYLINE
  5
17A
  8
0
 66
     1
 10
0.0
 20
0.0
 30
0.0
  0
VERTEX
  5
64D
  8
0
 10
275.7353008114295
 20
900.0605793909032
 30
0.0
  0
VERTEX
  5
64E
  8
0
 10
274.2244228472294
 20
898.1543258183032
 30
0.0
  0
SEQEND
  5
C36
  8
0
  0
POLYLINE
  5
17B
  8
0
 66
     1
 10
0.0
 20
0.0
 30
0.0
  0
VERTEX
  5
64F
  8
0
 10
282.8762515847293
 20
908.6125902132031
 30
0.0
  0
VERTEX
  5
650
  8
0
 10
281.2868733027292
 20
906.7712777512032
 30
0.0
  0
SEQEND
  5
C37
  8
0
  0
POLYLINE
  5
17C
  8
0
 66
     1
 10
0.0
 20
0.0
 30
0.0
  0
VERTEX
  5
651
  8
0
 10
290.3690595748292
 20
916.8580674870033
 30
0.0
  0
VERTEX
  5
652
  8
0
 10
288.7039692845293
 20
915.0849264235031
 30
0.0
  0
SEQEND
  5
C38
  8
0
  0
POLYLINE
  5
17D
  8
0
 66
     1
 10
0.0
 20
0.0
 30
0.0
  0
VERTEX
  5
653
  8
0
 10
298.2005798504293
 20
924.7825458435033
 30
0.0
  0
VERTEX
  5
654
  8
0
 10
296.4626986861293
 20
923.0806868704032
 30
0.0
  0
SEQEND
  5
C39
  8
0
  0
POLYLINE
  5
17E
  8
0
 66
     1
 10
0.0
 20
0.0
 30
0.0
  0
VERTEX
  5
655
  8
0
 10
306.3570732638294
 20
932.3721230549032
 30
0.0
  0
VERTEX
  5
656
  8
0
 10
304.5494500595294
 20
930.7445318111032
 30
0.0
  0
SEQEND
  5
C3A
  8
0
  0
POLYLINE
  5
17F
  8
0
 66
     1
 10
0.0
 20
0.0
 30
0.0
  0
VERTEX
  5
657
  8
0
 10
314.8242305540294
 20
939.6134844238032
 30
0.0
  0
VERTEX
  5
658
  8
0
 10
312.9500364949293
 20
938.0630162574031
 30
0.0
  0
SEQEND
  5
C3B
  8
0
  0
POLYLINE
  5
180
  8
0
 66
     1
 10
0.0
 20
0.0
 30
0.0
  0
VERTEX
  5
659
  8
0
 10
323.5871974498294
 20
946.4939261417031
 30
0.0
  0
VERTEX
  5
65A
  8
0
 10
321.6497205093293
 20
945.0233011007032
 30
0.0
  0
SEQEND
  5
C3C
  8
0
  0
POLYLINE
  5
181
  8
0
 66
     1
 10
0.0
 20
0.0
 30
0.0
  0
VERTEX
  5
65B
  8
0
 10
332.6306007297292
 20
953.0013775758031
 30
0.0
  0
VERTEX
  5
65C
  8
0
 10
330.6332399007293
 20
951.6131756364031
 30
0.0
  0
SEQEND
  5
C3D
  8
0
  0
POLYLINE
  5
182
  8
0
 66
     1
 10
0.0
 20
0.0
 30
0.0
  0
VERTEX
  5
65D
  8
0
 10
341.9385751913294
 20
959.124422445103
 30
0.0
  0
VERTEX
  5
65E
  8
0
 10
339.8848345234294
 20
957.8210789851033
 30
0.0
  0
SEQEND
  5
C3E
  8
0
  0
POLYLINE
  5
183
  8
0
 66
     1
 10
0.0
 20
0.0
 30
0.0
  0
VERTEX
  5
65F
  8
0
 10
351.4947914847292
 20
964.8523188483033
 30
0.0
  0
VERTEX
  5
660
  8
0
 10
349.3882739368294
 20
963.6361203750031
 30
0.0
  0
SEQEND
  5
C3F
  8
0
  0
POLYLINE
  5
184
  8
0
 66
     1
 10
0.0
 20
0.0
 30
0.0
  0
VERTEX
  5
661
  8
0
 10
361.2824847591294
 20
970.1750181087033
 30
0.0
  0
VERTEX
  5
662
  8
0
 10
359.1268858789293
 20
969.0480982475032
 30
0.0
  0
SEQEND
  5
C40
  8
0
  0
POLYLINE
  5
185
  8
0
 66
     1
 10
0.0
 20
0.0
 30
0.0
  0
VERTEX
  5
663
  8
0
 10
371.2844840747294
 20
975.083182403103
 30
0.0
  0
VERTEX
  5
664
  8
0
 10
369.0835855150293
 20
974.0475181544031
 30
0.0
  0
SEQEND
  5
C41
  8
0
  0
POLYLINE
  5
186
  8
0
 66
     1
 10
0.0
 20
0.0
 30
0.0
  0
VERTEX
  5
665
  8
0
 10
381.4832425259293
 20
979.5682011436032
 30
0.0
  0
VERTEX
  5
666
  8
0
 10
379.2409054108294
 20
978.6256094144031
 30
0.0
  0
SEQEND
  5
C42
  8
0
  0
POLYLINE
  5
187
  8
0
 66
     1
 10
0.0
 20
0.0
 30
0.0
  0
VERTEX
  5
667
  8
0
 10
391.8608680250293
 20
983.6222060833032
 30
0.0
  0
VERTEX
  5
668
  8
0
 10
389.5810261757293
 20
982.7743404997033
 30
0.0
  0
SEQEND
  5
C43
  8
0
  0
POLYLINE
  5
188
  8
0
 66
     1
 10
0.0
 20
0.0
 30
0.0
  0
VERTEX
  5
669
  8
0
 10
402.3991546905293
 20
987.2380851200031
 30
0.0
  0
VERTEX
  5
66A
  8
0
 10
400.0858077242293
 20
986.4864331264031
 30
0.0
  0
SEQEND
  5
C44
  8
0
  0
POLYLINE
  5
189
  8
0
 66
     1
 10
0.0
 20
0.0
 30
0.0
  0
VERTEX
  5
66B
  8
0
 10
413.0796147865292
 20
990.4094947730033
 30
0.0
  0
VERTEX
  5
66C
  8
0
 10
410.7368210999294
 20
989.7553750225032
 30
0.0
  0
SEQEND
  5
C45
  8
0
  0
POLYLINE
  5
18A
  8
0
 66
     1
 10
0.0
 20
0.0
 30
0.0
  0
VERTEX
  5
66D
  8
0
 10
423.8835111568292
 20
993.1308713124032
 30
0.0
  0
VERTEX
  5
66E
  8
0
 10
421.5153808062294
 20
992.575431353203
 30
0.0
  0
SEQEND
  5
C46
  8
0
  0
POLYLINE
  5
18B
  8
0
 66
     1
 10
0.0
 20
0.0
 30
0.0
  0
VERTEX
  5
66F
  8
0
 10
434.7918900961293
 20
995.3974405188031
 30
0.0
  0
VERTEX
  5
670
  8
0
 10
432.4025775867293
 20
994.9416547814031
 30
0.0
  0
SEQEND
  5
C47
  8
0
  0
POLYLINE
  5
18C
  8
0
 66
     1
 10
0.0
 20
0.0
 30
0.0
  0
VERTEX
  5
671
  8
0
 10
445.7856146010293
 20
997.2052260598031
 30
0.0
  0
VERTEX
  5
672
  8
0
 10
443.3793115989293
 20
996.8498941471031
 30
0.0
  0
SEQEND
  5
C48
  8
0
  0
POLYLINE
  5
18D
  8
0
 66
     1
 10
0.0
 20
0.0
 30
0.0
  0
VERTEX
  5
673
  8
0
 10
456.8453979429294
 20
998.5510564651032
 30
0.0
  0
VERTEX
  5
674
  8
0
 10
454.4263259213292
 20
998.2968017502031
 30
0.0
  0
SEQEND
  5
C49
  8
0
  0
POLYLINE
  5
18E
  8
0
 66
     1
 10
0.0
 20
0.0
 30
0.0
  0
VERTEX
  5
675
  8
0
 10
467.9518375038293
 20
999.4325706909032
 30
0.0
  0
VERTEX
  5
676
  8
0
 10
465.5242403369294
 20
999.2798392229032
 30
0.0
  0
SEQEND
  5
C4A
  8
0
  0
POLYLINE
  5
18F
  8
0
 66
     1
 10
0.0
 20
0.0
 30
0.0
  0
VERTEX
  5
677
  8
0
 10
479.0854488147293
 20
999.8482222618032
 30
0.0
  0
VERTEX
  5
678
  8
0
 10
476.6535853329293
 20
999.7972819836033
 30
0.0
  0
SEQEND
  5
C4B
  8
0
  0
POLYLINE
  5
190
  8
0
 66
     1
 10
0.0
 20
0.0
 30
0.0
  0
VERTEX
  5
679
  8
0
 10
490.2266997381294
 20
999.7972819836033
 30
0.0
  0
VERTEX
  5
67A
  8
0
 10
487.7948362563293
 20
999.8482222618032
 30
0.0
  0
SEQEND
  5
C4C
  8
0
  0
POLYLINE
  5
191
  8
0
 66
     1
 10
0.0
 20
0.0
 30
0.0
  0
VERTEX
  5
67B
  8
0
 10
501.3560447341293
 20
999.2798392229032
 30
0.0
  0
VERTEX
  5
67C
  8
0
 10
498.9284475672294
 20
999.4325706909032
 30
0.0
  0
SEQEND
  5
C4D
  8
0
  0
POLYLINE
  5
192
  8
0
 66
     1
 10
0.0
 20
0.0
 30
0.0
  0
VERTEX
  5
67D
  8
0
 10
512.4539591497294
 20
998.2968017502031
 30
0.0
  0
VERTEX
  5
67E
  8
0
 10
510.0348871281292
 20
998.5510564651032
 30
0.0
  0
SEQEND
  5
C4E
  8
0
  0
POLYLINE
  5
193
  8
0
 66
     1
 10
0.0
 20
0.0
 30
0.0
  0
VERTEX
  5
67F
  8
0
 10
523.5009734721293
 20
996.8498941471031
 30
0.0
  0
VERTEX
  5
680
  8
0
 10
521.0946704700293
 20
997.2052260598031
 30
0.0
  0
SEQEND
  5
C4F
  8
0
  0
POLYLINE
  5
194
  8
0
 66
     1
 10
0.0
 20
0.0
 30
0.0
  0
VERTEX
  5
681
  8
0
 10
534.4777074843294
 20
994.9416547814031
 30
0.0
  0
VERTEX
  5
682
  8
0
 10
532.0883949749293
 20
995.3974405188031
 30
0.0
  0
SEQEND
  5
C50
  8
0
  0
POLYLINE
  5
195
  8
0
 66
     1
 10
0.0
 20
0.0
 30
0.0
  0
VERTEX
  5
683
  8
0
 10
545.3649042648292
 20
992.575431353203
 30
0.0
  0
VERTEX
  5
684
  8
0
 10
542.9967739142294
 20
993.1308713124032
 30
0.0
  0
SEQEND
  5
C51
  8
0
  0
POLYLINE
  5
196
  8
0
 66
     1
 10
0.0
 20
0.0
 30
0.0
  0
VERTEX
  5
685
  8
0
 10
556.1434639711292
 20
989.7553750225032
 30
0.0
  0
VERTEX
  5
686
  8
0
 10
553.8006702845294
 20
990.4094947730033
 30
0.0
  0
SEQEND
  5
C52
  8
0
  0
POLYLINE
  5
197
  8
0
 66
     1
 10
0.0
 20
0.0
 30
0.0
  0
VERTEX
  5
687
  8
0
 10
566.7944773468294
 20
986.4864331264031
 30
0.0
  0
VERTEX
  5
688
  8
0
 10
564.4811303805293
 20
987.2380851200031
 30
0.0
  0
SEQEND
  5
C53
  8
0
  0
POLYLINE
  5
198
  8
0
 66
     1
 10
0.0
 20
0.0
 30
0.0
  0
VERTEX
  5
689
  8
0
 10
577.2992588953293
 20
982.7743404997033
 30
0.0
  0
VERTEX
  5
68A
  8
0
 10
575.0194170460293
 20
983.6222060833032
 30
0.0
  0
SEQEND
  5
C54
  8
0
  0
POLYLINE
  5
199
  8
0
 66
     1
 10
0.0
 20
0.0
 30
0.0
  0
VERTEX
  5
68B
  8
0
 10
587.6393796602292
 20
978.6256094144031
 30
0.0
  0
VERTEX
  5
68C
  8
0
 10
585.3970425450293
 20
979.5682011436032
 30
0.0
  0
SEQEND
  5
C55
  8
0
  0
POLYLINE
  5
19A
  8
0
 66
     1
 10
0.0
 20
0.0
 30
0.0
  0
VERTEX
  5
68D
  8
0
 10
597.7966995560294
 20
974.0475181544031
 30
0.0
  0
VERTEX
  5
68E
  8
0
 10
595.5958009963292
 20
975.083182403103
 30
0.0
  0
SEQEND
  5
C56
  8
0
  0
POLYLINE
  5
19B
  8
0
 66
     1
 10
0.0
 20
0.0
 30
0.0
  0
VERTEX
  5
68F
  8
0
 10
607.7533991921293
 20
969.0480982475032
 30
0.0
  0
VERTEX
  5
690
  8
0
 10
605.5978003119292
 20
970.1750181087033
 30
0.0
  0
SEQEND
  5
C57
  8
0
  0
POLYLINE
  5
19C
  8
0
 66
     1
 10
0.0
 20
0.0
 30
0.0
  0
VERTEX
  5
691
  8
0
 10
617.4920111342292
 20
963.6361203750031
 30
0.0
  0
VERTEX
  5
692
  8
0
 10
615.3854935863294
 20
964.8523188483033
 30
0.0
  0
SEQEND
  5
C58
  8
0
  0
POLYLINE
  5
19D
  8
0
 66
     1
 10
0.0
 20
0.0
 30
0.0
  0
VERTEX
  5
693
  8
0
 10
626.9954505476292
 20
957.8210789851033
 30
0.0
  0
VERTEX
  5
694
  8
0
 10
624.9417098797292
 20
959.124422445103
 30
0.0
  0
SEQEND
  5
C59
  8
0
  0
POLYLINE
  5
19E
  8
0
 66
     1
 10
0.0
 20
0.0
 30
0.0
  0
VERTEX
  5
695
  8
0
 10
636.2470451703293
 20
951.6131756364031
 30
0.0
  0
VERTEX
  5
696
  8
0
 10
634.2496843413294
 20
953.0013775758031
 30
0.0
  0
SEQEND
  5
C5A
  8
0
  0
POLYLINE
  5
19F
  8
0
 66
     1
 10
0.0
 20
0.0
 30
0.0
  0
VERTEX
  5
697
  8
0
 10
645.2305645617294
 20
945.0233011007032
 30
0.0
  0
VERTEX
  5
698
  8
0
 10
643.2930876212292
 20
946.4939261417031
 30
0.0
  0
SEQEND
  5
C5B
  8
0
  0
POLYLINE
  5
1A0
  8
0
 66
     1
 10
0.0
 20
0.0
 30
0.0
  0
VERTEX
  5
699
  8
0
 10
653.9302485761293
 20
938.0630162574031
 30
0.0
  0
VERTEX
  5
69A
  8
0
 10
652.0560545170292
 20
939.6134844238032
 30
0.0
  0
SEQEND
  5
C5C
  8
0
  0
POLYLINE
  5
1A1
  8
0
 66
     1
 10
0.0
 20
0.0
 30
0.0
  0
VERTEX
  5
69B
  8
0
 10
662.3308350115292
 20
930.7445318111032
 30
0.0
  0
VERTEX
  5
69C
  8
0
 10
660.5232118072292
 20
932.3721230549032
 30
0.0
  0
SEQEND
  5
C5D
  8
0
  0
POLYLINE
  5
1A2
  8
0
 66
     1
 10
0.0
 20
0.0
 30
0.0
  0
VERTEX
  5
69D
  8
0
 10
670.4175863849293
 20
923.0806868704032
 30
0.0
  0
VERTEX
  5
69E
  8
0
 10
668.6797052206293
 20
924.7825458435033
 30
0.0
  0
SEQEND
  5
C5E
  8
0
  0
POLYLINE
  5
1A3
  8
0
 66
     1
 10
0.0
 20
0.0
 30
0.0
  0
VERTEX
  5
69F
  8
0
 10
678.1763157865294
 20
915.0849264235031
 30
0.0
  0
VERTEX
  5
6A0
  8
0
 10
676.5112254962294
 20
916.8580674870033
 30
0.0
  0
SEQEND
  5
C5F
  8
0
  0
POLYLINE
  5
1A4
  8
0
 66
     1
 10
0.0
 20
0.0
 30
0.0
  0
VERTEX
  5
6A1
  8
0
 10
685.5934117683294
 20
906.7712777512032
 30
0.0
  0
VERTEX
  5
6A2
  8
0
 10
684.0040334863293
 20
908.6125902132031
 30
0.0
  0
SEQEND
  5
C60
  8
0
  0
POLYLINE
  5
1A5
  8
0
 66
     1
 10
0.0
 20
0.0
 30
0.0
  0
VERTEX
  5
6A3
  8
0
 10
692.6558622238292
 20
898.1543258183032
 30
0.0
  0
VERTEX
  5
6A4
  8
0
 10
691.1449842596292
 20
900.0605793909032
 30
0.0
  0
SEQEND
  5
C61
  8
0
  0
POLYLINE
  5
1A6
  8
0
 66
     1
 10
0.0
 20
0.0
 30
0.0
  0
VERTEX
  5
6A5
  8
0
 10
699.3512772149293
 20
889.2491876865032
 30
0.0
  0
VERTEX
  5
6A6
  8
0
 10
697.9215501620292
 20
891.2170381533032
 30
0.0
  0
SEQEND
  5
C62
  8
0
  0
POLYLINE
  5
1A7
  8
0
 66
     1
 10
0.0
 20
0.0
 30
0.0
  0
VERTEX
  5
6A7
  8
0
 10
705.6679107087293
 20
880.0714859940032
 30
0.0
  0
VERTEX
  5
6A8
  8
0
 10
704.3218427941292
 20
882.0974810767032
 30
0.0
  0
SEQEND
  5
C63
  8
0
  0
POLYLINE
  5
1A8
  8
0
 66
     1
 10
0.0
 20
0.0
 30
0.0
  0
VERTEX
  5
6A9
  8
0
 10
711.5946811837293
 20
870.6373215484032
 30
0.0
  0
VERTEX
  5
6AA
  8
0
 10
710.3346338678293
 20
872.7179069630032
 30
0.0
  0
SEQEND
  5
C64
  8
0
  0
POLYLINE
  5
1A9
  8
0
 66
     1
 10
0.0
 20
0.0
 30
0.0
  0
VERTEX
  5
6AB
  8
0
 10
717.1211910704292
 20
860.9632450797031
 30
0.0
  0
VERTEX
  5
6AC
  8
0
 10
715.9493749045293
 20
863.0947707725032
 30
0.0
  0
SEQEND
  5
C65
  8
0
  0
POLYLINE
  5
1AA
  8
0
 66
     1
 10
0.0
 20
0.0
 30
0.0
  0
VERTEX
  5
6AD
  8
0
 10
722.2377449927292
 20
851.0662282053032
 30
0.0
  0
VERTEX
  5
6AE
  8
0
 10
721.1562157405292
 20
853.2449547560032
 30
0.0
  0
SEQEND
  5
C66
  8
0
  0
POLYLINE
  5
1AB
  8
0
 66
     1
 10
0.0
 20
0.0
 30
0.0
  0
VERTEX
  5
6AF
  8
0
 10
726.9353667762293
 20
840.9636336560031
 30
0.0
  0
VERTEX
  5
6B0
  8
0
 10
725.9460218075292
 20
843.1857388377032
 30
0.0
  0
SEQEND
  5
C67
  8
0
  0
POLYLINE
  5
1AC
  8
0
 66
     1
 10
0.0
 20
0.0
 30
0.0
  0
VERTEX
  5
6B1
  8
0
 10
731.2058151962292
 20
830.6731848153032
 30
0.0
  0
VERTEX
  5
6B2
  8
0
 10
730.3103901583293
 20
832.9347703006032
 30
0.0
  0
SEQEND
  5
C68
  8
0
  0
POLYLINE
  5
1AD
  8
0
 66
     1
 10
0.0
 20
0.0
 30
0.0
  0
VERTEX
  5
6B3
  8
0
 10
735.0415984351293
 20
820.2129346273032
 30
0.0
  0
VERTEX
  5
6B4
  8
0
 10
734.2416642077294
 20
822.5100328267032
 30
0.0
  0
SEQEND
  5
C69
  8
0
  0
POLYLINE
  5
1AE
  8
0
 66
     1
 10
0.0
 20
0.0
 30
0.0
  0
VERTEX
  5
6B5
  8
0
 10
738.4359872255293
 20
809.6012339253032
 30
0.0
  0
VERTEX
  5
6B6
  8
0
 10
737.7329471651292
 20
811.9298149480031
 30
0.0
  0
SEQEND
  5
C6A
  8
0
  0
POLYLINE
  5
1AF
  8
0
 66
     1
 10
0.0
 20
0.0
 30
0.0
  0
VERTEX
  5
6B7
  8
0
 10
741.3830266562293
 20
798.8566992381031
 30
0.0
  0
VERTEX
  5
6B8
  8
0
 10
740.7781141340292
 20
801.2126779617032
 30
0.0
  0
SEQEND
  5
C6B
  8
0
  0
POLYLINE
  5
1B0
  8
0
 66
     1
 10
0.0
 20
0.0
 30
0.0
  0
VERTEX
  5
6B9
  8
0
 10
743.8775466185293
 20
787.9981801306031
 30
0.0
  0
VERTEX
  5
6BA
  8
0
 10
743.3718228566293
 20
790.3774233679031
 30
0.0
  0
SEQEND
  5
C6C
  8
0
  0
POLYLINE
  5
1B1
  8
0
 66
     1
 10
0.0
 20
0.0
 30
0.0
  0
VERTEX
  5
6BB
  8
0
 10
745.9151708768293
 20
777.0447261351031
 30
0.0
  0
VERTEX
  5
6BC
  8
0
 10
745.5095230865293
 20
779.4430598850032
 30
0.0
  0
SEQEND
  5
C6D
  8
0
  0
POLYLINE
  5
1B2
  8
0
 66
     1
 10
0.0
 20
0.0
 30
0.0
  0
VERTEX
  5
6BD
  8
0
 10
747.4923247459294
 20
766.0155533318032
 30
0.0
  0
VERTEX
  5
6BE
  8
0
 10
747.1874645712294
 20
768.4287701020031
 30
0.0
  0
SEQEND
  5
C6E
  8
0
  0
POLYLINE
  5
1B3
  8
0
 66
     1
 10
0.0
 20
0.0
 30
0.0
  0
VERTEX
  5
6BF
  8
0
 10
748.6062413618292
 20
754.9300106377032
 30
0.0
  0
VERTEX
  5
6C0
  8
0
 10
748.4027036312293
 20
757.3538768258032
 30
0.0
  0
SEQEND
  5
C6F
  8
0
  0
POLYLINE
  5
1B4
  8
0
 66
     1
 10
0.0
 20
0.0
 30
0.0
  0
VERTEX
  5
6C1
  8
0
 10
749.2549665363292
 20
743.8075458615032
 30
0.0
  0
VERTEX
  5
6C2
  8
0
 10
749.1531083240293
 20
746.2378091827032
 30
0.0
  0
SEQEND
  5
C70
  8
0
  0
POLYLINE
  5
1B5
  8
0
 66
     1
 10
0.0
 20
0.0
 30
0.0
  0
VERTEX
  5
6C3
  8
0
 10
749.4373621850293
 20
732.6676715858032
 30
0.0
  0
VERTEX
  5
6C4
  8
0
 10
749.4373621850293
 20
735.1000685324032
 30
0.0
  0
SEQEND
  5
C71
  8
0
  0
POLYLINE
  5
1B6
  8
0
 66
     1
 10
0.0
 20
0.0
 30
0.0
  0
VERTEX
  5
6C5
  8
0
 10
749.1531083240293
 20
721.5299309355031
 30
0.0
  0
VERTEX
  5
6C6
  8
0
 10
749.2549665363292
 20
723.9601942567032
 30
0.0
  0
SEQEND
  5
C72
  8
0
  0
POLYLINE
  5
1B7
  8
0
 66
     1
 10
0.0
 20
0.0
 30
0.0
  0
VERTEX
  5
6C7
  8
0
 10
748.4027036312293
 20
710.4138632924031
 30
0.0
  0
VERTEX
  5
6C8
  8
0
 10
748.6062413618292
 20
712.8377294805032
 30
0.0
  0
SEQEND
  5
C73
  8
0
  0
POLYLINE
  5
1B8
  8
0
 66
     1
 10
0.0
 20
0.0
 30
0.0
  0
VERTEX
  5
6C9
  8
0
 10
747.1874645712294
 20
699.3389700162032
 30
0.0
  0
VERTEX
  5
6CA
  8
0
 10
747.4923247459294
 20
701.7521867864032
 30
0.0
  0
SEQEND
  5
C74
  8
0
  0
POLYLINE
  5
1B9
  8
0
 66
     1
 10
0.0
 20
0.0
 30
0.0
  0
VERTEX
  5
6CB
  8
0
 10
745.5095230865293
 20
688.3246802332031
 30
0.0
  0
VERTEX
  5
6CC
  8
0
 10
745.9151708768293
 20
690.7230139832031
 30
0.0
  0
SEQEND
  5
C75
  8
0
  0
POLYLINE
  5
1BA
  8
0
 66
     1
 10
0.0
 20
0.0
 30
0.0
  0
VERTEX
  5
6CD
  8
0
 10
743.3718228566293
 20
677.3903167503032
 30
0.0
  0
VERTEX
  5
6CE
  8
0
 10
743.8775466185293
 20
679.7695599876032
 30
0.0
  0
SEQEND
  5
C76
  8
0
  0
POLYLINE
  5
1BB
  8
0
 66
     1
 10
0.0
 20
0.0
 30
0.0
  0
VERTEX
  5
6CF
  8
0
 10
740.7781141340292
 20
666.5550621565031
 30
0.0
  0
VERTEX
  5
6D0
  8
0
 10
741.3830266562293
 20
668.9110408801032
 30
0.0
  0
SEQEND
  5
C77
  8
0
  0
POLYLINE
  5
1BC
  8
0
 66
     1
 10
0.0
 20
0.0
 30
0.0
  0
VERTEX
  5
6D1
  8
0
 10
737.7329471651292
 20
655.8379251702032
 30
0.0
  0
VERTEX
  5
6D2
  8
0
 10
738.4359872255293
 20
658.1665061929032
 30
0.0
  0
SEQEND
  5
C78
  8
0
  0
POLYLINE
  5
1BD
  8
0
 66
     1
 10
0.0
 20
0.0
 30
0.0
  0
VERTEX
  5
6D3
  8
0
 10
734.2416642077294
 20
645.2577072915032
 30
0.0
  0
VERTEX
  5
6D4
  8
0
 10
735.0415984351293
 20
647.5548054909032
 30
0.0
  0
SEQEND
  5
C79
  8
0
  0
POLYLINE
  5
1BE
  8
0
 66
     1
 10
0.0
 20
0.0
 30
0.0
  0
VERTEX
  5
6D5
  8
0
 10
730.3103901583293
 20
634.8329698176032
 30
0.0
  0
VERTEX
  5
6D6
  8
0
 10
731.2058151962292
 20
637.0945553029031
 30
0.0
  0
SEQEND
  5
C7A
  8
0
  0
POLYLINE
  5
1BF
  8
0
 66
     1
 10
0.0
 20
0.0
 30
0.0
  0
VERTEX
  5
6D7
  8
0
 10
725.9460218075292
 20
624.5820012805032
 30
0.0
  0
VERTEX
  5
6D8
  8
0
 10
726.9353667762293
 20
626.8041064622032
 30
0.0
  0
SEQEND
  5
C7B
  8
0
  0
POLYLINE
  5
1C0
  8
0
 66
     1
 10
0.0
 20
0.0
 30
0.0
  0
VERTEX
  5
6D9
  8
0
 10
721.1562157405292
 20
614.5227853622032
 30
0.0
  0
VERTEX
  5
6DA
  8
0
 10
722.2377449927292
 20
616.7015119129031
 30
0.0
  0
SEQEND
  5
C7C
  8
0
  0
POLYLINE
  5
1C1
  8
0
 66
     1
 10
0.0
 20
0.0
 30
0.0
  0
VERTEX
  5
6DB
  8
0
 10
715.9493749045293
 20
604.6729693457031
 30
0.0
  0
VERTEX
  5
6DC
  8
0
 10
717.1211910704292
 20
606.8044950385032
 30
0.0
  0
SEQEND
  5
C7D
  8
0
  0
POLYLINE
  5
1C2
  8
0
 66
     1
 10
0.0
 20
0.0
 30
0.0
  0
VERTEX
  5
6DD
  8
0
 10
710.3346338678293
 20
595.0498331552031
 30
0.0
  0
VERTEX
  5
6DE
  8
0
 10
711.5946811837293
 20
597.1304185698032
 30
0.0
  0
SEQEND
  5
C7E
  8
0
  0
POLYLINE
  5
1C3
  8
0
 66
     1
 10
0.0
 20
0.0
 30
0.0
  0
VERTEX
  5
6DF
  8
0
 10
704.3218427941292
 20
585.6702590415032
 30
0.0
  0
VERTEX
  5
6E0
  8
0
 10
705.6679107087293
 20
587.6962541242032
 30
0.0
  0
SEQEND
  5
C7F
  8
0
  0
POLYLINE
  5
1C4
  8
0
 66
     1
 10
0.0
 20
0.0
 30
0.0
  0
VERTEX
  5
6E1
  8
0
 10
697.9215501620292
 20
576.5507019649032
 30
0.0
  0
VERTEX
  5
6E2
  8
0
 10
699.3512772149293
 20
578.5185524318032
 30
0.0
  0
SEQEND
  5
C80
  8
0
  0
POLYLINE
  5
1C5
  8
0
 66
     1
 10
0.0
 20
0.0
 30
0.0
  0
VERTEX
  5
6E3
  8
0
 10
691.1449842596292
 20
567.7071607273032
 30
0.0
  0
VERTEX
  5
6E4
  8
0
 10
692.6558622238292
 20
569.6134142999032
 30
0.0
  0
SEQEND
  5
C81
  8
0
  0
POLYLINE
  5
1C6
  8
0
 66
     1
 10
0.0
 20
0.0
 30
0.0
  0
VERTEX
  5
6E5
  8
0
 10
684.0040334863293
 20
559.1551499050032
 30
0.0
  0
VERTEX
  5
6E6
  8
0
 10
685.5934117683294
 20
560.9964623670031
 30
0.0
  0
SEQEND
  5
C82
  8
0
  0
POLYLINE
  5
1C7
  8
0
 66
     1
 10
0.0
 20
0.0
 30
0.0
  0
VERTEX
  5
6E7
  8
0
 10
676.5112254962294
 20
550.9096726312032
 30
0.0
  0
VERTEX
  5
6E8
  8
0
 10
678.1763157865294
 20
552.6828136947032
 30
0.0
  0
SEQEND
  5
C83
  8
0
  0
POLYLINE
  5
1C8
  8
0
 66
     1
 10
0.0
 20
0.0
 30
0.0
  0
VERTEX
  5
6E9
  8
0
 10
668.6797052206293
 20
542.9851942747032
 30
0.0
  0
VERTEX
  5
6EA
  8
0
 10
670.4175863849293
 20
544.6870532478032
 30
0.0
  0
SEQEND
  5
C84
  8
0
  0
POLYLINE
  5
1C9
  8
0
 66
     1
 10
0.0
 20
0.0
 30
0.0
  0
VERTEX
  5
6EB
  8
0
 10
660.5232118072292
 20
535.3956170633031
 30
0.0
  0
VERTEX
  5
6EC
  8
0
 10
662.3308350115292
 20
537.0232083071031
 30
0.0
  0
SEQEND
  5
C85
  8
0
  0
POLYLINE
  5
1CA
  8
0
 66
     1
 10
0.0
 20
0.0
 30
0.0
  0
VERTEX
  5
6ED
  8
0
 10
652.0560545170292
 20
528.1542556944031
 30
0.0
  0
VERTEX
  5
6EE
  8
0
 10
653.9302485761293
 20
529.7047238608031
 30
0.0
  0
SEQEND
  5
C86
  8
0
  0
POLYLINE
  5
1CB
  8
0
 66
     1
 10
0.0
 20
0.0
 30
0.0
  0
VERTEX
  5
6EF
  8
0
 10
643.2930876212292
 20
521.2738139765032
 30
0.0
  0
VERTEX
  5
6F0
  8
0
 10
645.2305645617294
 20
522.7444390175032
 30
0.0
  0
SEQEND
  5
C87
  8
0
  0
POLYLINE
  5
1CC
  8
0
 66
     1
 10
0.0
 20
0.0
 30
0.0
  0
VERTEX
  5
6F1
  8
0
 10
634.2496843413294
 20
514.7663625424032
 30
0.0
  0
VERTEX
  5
6F2
  8
0
 10
636.2470451703293
 20
516.1545644818032
 30
0.0
  0
SEQEND
  5
C88
  8
0
  0
POLYLINE
  5
1CD
  8
0
 66
     1
 10
0.0
 20
0.0
 30
0.0
  0
VERTEX
  5
6F3
  8
0
 10
624.9417098797292
 20
508.6433176731032
 30
0.0
  0
VERTEX
  5
6F4
  8
0
 10
626.9954505476292
 20
509.9466611331031
 30
0.0
  0
SEQEND
  5
C89
  8
0
  0
POLYLINE
  5
1CE
  8
0
 66
     1
 10
0.0
 20
0.0
 30
0.0
  0
VERTEX
  5
6F5
  8
0
 10
615.3854935863294
 20
502.9154212699032
 30
0.0
  0
VERTEX
  5
6F6
  8
0
 10
617.4920111342292
 20
504.1316197432031
 30
0.0
  0
SEQEND
  5
C8A
  8
0
  0
POLYLINE
  5
1CF
  8
0
 66
     1
 10
0.0
 20
0.0
 30
0.0
  0
VERTEX
  5
6F7
  8
0
 10
605.5978003119292
 20
497.5927220095032
 30
0.0
  0
VERTEX
  5
6F8
  8
0
 10
607.7533991921293
 20
498.7196418707032
 30
0.0
  0
SEQEND
  5
C8B
  8
0
  0
POLYLINE
  5
1D0
  8
0
 66
     1
 10
0.0
 20
0.0
 30
0.0
  0
VERTEX
  5
6F9
  8
0
 10
595.5958009963292
 20
492.6845577151032
 30
0.0
  0
VERTEX
  5
6FA
  8
0
 10
597.7966995560294
 20
493.7202219638032
 30
0.0
  0
SEQEND
  5
C8C
  8
0
  0
POLYLINE
  5
1D1
  8
0
 66
     1
 10
0.0
 20
0.0
 30
0.0
  0
VERTEX
  5
6FB
  8
0
 10
585.3970425451294
 20
488.1995389746031
 30
0.0
  0
VERTEX
  5
6FC
  8
0
 10
587.6393796602292
 20
489.1421307038032
 30
0.0
  0
SEQEND
  5
C8D
  8
0
  0
POLYLINE
  5
1D2
  8
0
 66
     1
 10
0.0
 20
0.0
 30
0.0
  0
VERTEX
  5
6FD
  8
0
 10
575.0194170460293
 20
484.1455340349031
 30
0.0
  0
VERTEX
  5
6FE
  8
0
 10
577.2992588953293
 20
484.9933996185032
 30
0.0
  0
SEQEND
  5
C8E
  8
0
  0
POLYLINE
  5
1D3
  8
0
 66
     1
 10
0.0
 20
0.0
 30
0.0
  0
VERTEX
  5
6FF
  8
0
 10
564.4811303805293
 20
480.5296549982032
 30
0.0
  0
VERTEX
  5
700
  8
0
 10
566.7944773468294
 20
481.2813069918031
 30
0.0
  0
SEQEND
  5
C8F
  8
0
  0
POLYLINE
  5
1D4
  8
0
 66
     1
 10
0.0
 20
0.0
 30
0.0
  0
VERTEX
  5
701
  8
0
 10
553.8006702845294
 20
477.3582453452032
 30
0.0
  0
VERTEX
  5
702
  8
0
 10
556.1434639711292
 20
478.0123650957031
 30
0.0
  0
SEQEND
  5
C90
  8
0
  0
POLYLINE
  5
1D5
  8
0
 66
     1
 10
0.0
 20
0.0
 30
0.0
  0
VERTEX
  5
703
  8
0
 10
542.9967739142294
 20
474.6368688058031
 30
0.0
  0
VERTEX
  5
704
  8
0
 10
545.3649042648292
 20
475.1923087650032
 30
0.0
  0
SEQEND
  5
C91
  8
0
  0
POLYLINE
  5
1D6
  8
0
 66
     1
 10
0.0
 20
0.0
 30
0.0
  0
VERTEX
  5
705
  8
0
 10
532.0883949749293
 20
472.3702995994032
 30
0.0
  0
VERTEX
  5
706
  8
0
 10
534.4777074843294
 20
472.8260853368032
 30
0.0
  0
SEQEND
  5
C92
  8
0
  0
POLYLINE
  5
1D7
  8
0
 66
     1
 10
0.0
 20
0.0
 30
0.0
  0
VERTEX
  5
707
  8
0
 10
521.0946704701294
 20
470.5625140584032
 30
0.0
  0
VERTEX
  5
708
  8
0
 10
523.5009734721293
 20
470.9178459711032
 30
0.0
  0
SEQEND
  5
C93
  8
0
  0
POLYLINE
  5
1D8
  8
0
 66
     1
 10
0.0
 20
0.0
 30
0.0
  0
VERTEX
  5
709
  8
0
 10
510.0348871281292
 20
469.2166836531031
 30
0.0
  0
VERTEX
  5
70A
  8
0
 10
512.4539591498292
 20
469.4709383680032
 30
0.0
  0
SEQEND
  5
C94
  8
0
  0
POLYLINE
  5
1D9
  8
0
 66
     1
 10
0.0
 20
0.0
 30
0.0
  0
VERTEX
  5
70B
  8
0
 10
498.9284475672294
 20
468.3351694273032
 30
0.0
  0
VERTEX
  5
70C
  8
0
 10
501.3560447341293
 20
468.4879008953031
 30
0.0
  0
SEQEND
  5
C95
  8
0
  0
POLYLINE
  5
1DA
  8
0
 66
     1
 10
0.0
 20
0.0
 30
0.0
  0
VERTEX
  5
70D
  8
0
 10
487.7948362563293
 20
467.9195178564031
 30
0.0
  0
VERTEX
  5
70E
  8
0
 10
490.2266997381294
 20
467.9704581346032
 30
0.0
  0
SEQEND
  5
C96
  8
0
  0
POLYLINE
  5
1DB
  8
0
 66
     1
 10
0.0
 20
0.0
 30
0.0
  0
VERTEX
  5
70F
  8
0
 10
476.6535853329293
 20
467.9704581346032
 30
0.0
  0
VERTEX
  5
710
  8
0
 10
479.0854488147293
 20
467.9195178564031
 30
0.0
  0
SEQEND
  5
C97
  8
0
  0
POLYLINE
  5
1DC
  8
0
 66
     1
 10
0.0
 20
0.0
 30
0.0
  0
VERTEX
  5
711
  8
0
 10
465.5242403369294
 20
468.4879008953031
 30
0.0
  0
VERTEX
  5
712
  8
0
 10
467.9518375038293
 20
468.3351694273032
 30
0.0
  0
SEQEND
  5
C98
  8
0
  0
POLYLINE
  5
1DD
  8
0
 66
     1
 10
0.0
 20
0.0
 30
0.0
  0
VERTEX
  5
713
  8
0
 10
454.4263259213292
 20
469.4709383680032
 30
0.0
  0
VERTEX
  5
714
  8
0
 10
456.8453979429294
 20
469.2166836531031
 30
0.0
  0
SEQEND
  5
C99
  8
0
  0
POLYLINE
  5
1DE
  8
0
 66
     1
 10
0.0
 20
0.0
 30
0.0
  0
VERTEX
  5
715
  8
0
 10
443.3793115989293
 20
470.9178459711032
 30
0.0
  0
VERTEX
  5
716
  8
0
 10
445.7856146010293
 20
470.5625140584032
 30
0.0
  0
SEQEND
  5
C9A
  8
0
  0
POLYLINE
  5
1DF
  8
0
 66
     1
 10
0.0
 20
0.0
 30
0.0
  0
VERTEX
  5
717
  8
0
 10
432.4025775867293
 20
472.8260853368032
 30
0.0
  0
VERTEX
  5
718
  8
0
 10
434.7918900961293
 20
472.3702995994032
 30
0.0
  0
SEQEND
  5
C9B
  8
0
  0
POLYLINE
  5
1E0
  8
0
 66
     1
 10
0.0
 20
0.0
 30
0.0
  0
VERTEX
  5
719
  8
0
 10
421.5153808062294
 20
475.1923087650032
 30
0.0
  0
VERTEX
  5
71A
  8
0
 10
423.8835111568292
 20
474.6368688058031
 30
0.0
  0
SEQEND
  5
C9C
  8
0
  0
POLYLINE
  5
1E1
  8
0
 66
     1
 10
0.0
 20
0.0
 30
0.0
  0
VERTEX
  5
71B
  8
0
 10
410.7368210999294
 20
478.0123650957031
 30
0.0
  0
VERTEX
  5
71C
  8
0
 10
413.0796147865292
 20
477.3582453452032
 30
0.0
  0
SEQEND
  5
C9D
  8
0
  0
POLYLINE
  5
1E2
  8
0
 66
     1
 10
0.0
 20
0.0
 30
0.0
  0
VERTEX
  5
71D
  8
0
 10
400.0858077242293
 20
481.2813069918031
 30
0.0
  0
VERTEX
  5
71E
  8
0
 10
402.3991546905293
 20
480.5296549982032
 30
0.0
  0
SEQEND
  5
C9E
  8
0
  0
POLYLINE
  5
1E3
  8
0
 66
     1
 10
0.0
 20
0.0
 30
0.0
  0
VERTEX
  5
71F
  8
0
 10
389.5810261757293
 20
484.9933996185032
 30
0.0
  0
VERTEX
  5
720
  8
0
 10
391.8608680250293
 20
484.1455340349031
 30
0.0
  0
SEQEND
  5
C9F
  8
0
  0
POLYLINE
  5
1E4
  8
0
 66
     1
 10
0.0
 20
0.0
 30
0.0
  0
VERTEX
  5
721
  8
0
 10
379.2409054108294
 20
489.1421307038032
 30
0.0
  0
VERTEX
  5
722
  8
0
 10
381.4832425259293
 20
488.1995389746031
 30
0.0
  0
SEQEND
  5
CA0
  8
0
  0
POLYLINE
  5
1E5
  8
0
 66
     1
 10
0.0
 20
0.0
 30
0.0
  0
VERTEX
  5
723
  8
0
 10
369.0835855150293
 20
493.7202219638032
 30
0.0
  0
VERTEX
  5
724
  8
0
 10
371.2844840747294
 20
492.6845577151032
 30
0.0
  0
SEQEND
  5
CA1
  8
0
  0
POLYLINE
  5
1E6
  8
0
 66
     1
 10
0.0
 20
0.0
 30
0.0
  0
VERTEX
  5
725
  8
0
 10
359.1268858789293
 20
498.7196418707032
 30
0.0
  0
VERTEX
  5
726
  8
0
 10
361.2824847591294
 20
497.5927220095032
 30
0.0
  0
SEQEND
  5
CA2
  8
0
  0
POLYLINE
  5
1E7
  8
0
 66
     1
 10
0.0
 20
0.0
 30
0.0
  0
VERTEX
  5
727
  8
0
 10
349.3882739368294
 20
504.1316197432031
 30
0.0
  0
VERTEX
  5
728
  8
0
 10
351.4947914847292
 20
502.9154212699032
 30
0.0
  0
SEQEND
  5
CA3
  8
0
  0
POLYLINE
  5
1E8
  8
0
 66
     1
 10
0.0
 20
0.0
 30
0.0
  0
VERTEX
  5
729
  8
0
 10
339.8848345234294
 20
509.9466611331031
 30
0.0
  0
VERTEX
  5
72A
  8
0
 10
341.9385751913294
 20
508.6433176731032
 30
0.0
  0
SEQEND
  5
CA4
  8
0
  0
POLYLINE
  5
1E9
  8
0
 66
     1
 10
0.0
 20
0.0
 30
0.0
  0
VERTEX
  5
72B
  8
0
 10
330.6332399007293
 20
516.1545644818032
 30
0.0
  0
VERTEX
  5
72C
  8
0
 10
332.6306007297292
 20
514.7663625424032
 30
0.0
  0
SEQEND
  5
CA5
  8
0
  0
POLYLINE
  5
1EA
  8
0
 66
     1
 10
0.0
 20
0.0
 30
0.0
  0
VERTEX
  5
72D
  8
0
 10
321.6497205093293
 20
522.7444390175032
 30
0.0
  0
VERTEX
  5
72E
  8
0
 10
323.5871974498294
 20
521.2738139765032
 30
0.0
  0
SEQEND
  5
CA6
  8
0
  0
POLYLINE
  5
1EB
  8
0
 66
     1
 10
0.0
 20
0.0
 30
0.0
  0
VERTEX
  5
72F
  8
0
 10
312.9500364949293
 20
529.7047238608031
 30
0.0
  0
VERTEX
  5
730
  8
0
 10
314.8242305540294
 20
528.1542556944031
 30
0.0
  0
SEQEND
  5
CA7
  8
0
  0
POLYLINE
  5
1EC
  8
0
 66
     1
 10
0.0
 20
0.0
 30
0.0
  0
VERTEX
  5
731
  8
0
 10
304.5494500595294
 20
537.0232083071031
 30
0.0
  0
VERTEX
  5
732
  8
0
 10
306.3570732638294
 20
535.3956170633031
 30
0.0
  0
SEQEND
  5
CA8
  8
0
  0
POLYLINE
  5
1ED
  8
0
 66
     1
 10
0.0
 20
0.0
 30
0.0
  0
VERTEX
  5
733
  8
0
 10
296.4626986861293
 20
544.6870532478032
 30
0.0
  0
VERTEX
  5
734
  8
0
 10
298.2005798504293
 20
542.9851942747032
 30
0.0
  0
SEQEND
  5
CA9
  8
0
  0
POLYLINE
  5
1EE
  8
0
 66
     1
 10
0.0
 20
0.0
 30
0.0
  0
VERTEX
  5
735
  8
0
 10
288.7039692845293
 20
552.6828136947032
 30
0.0
  0
VERTEX
  5
736
  8
0
 10
290.3690595748292
 20
550.9096726312032
 30
0.0
  0
SEQEND
  5
CAA
  8
0
  0
POLYLINE
  5
1EF
  8
0
 66
     1
 10
0.0
 20
0.0
 30
0.0
  0
VERTEX
  5
737
  8
0
 10
281.2868733027292
 20
560.9964623670031
 30
0.0
  0
VERTEX
  5
738
  8
0
 10
282.8762515847293
 20
559.1551499050032
 30
0.0
  0
SEQEND
  5
CAB
  8
0
  0
POLYLINE
  5
1F0
  8
0
 66
     1
 10
0.0
 20
0.0
 30
0.0
  0
VERTEX
  5
739
  8
0
 10
274.2244228472294
 20
569.6134142999032
 30
0.0
  0
VERTEX
  5
73A
  8
0
 10
275.7353008114295
 20
567.7071607273032
 30
0.0
  0
SEQEND
  5
CAC
  8
0
  0
POLYLINE
  5
1F1
  8
0
 66
     1
 10
0.0
 20
0.0
 30
0.0
  0
VERTEX
  5
73B
  8
0
 10
267.5290078561293
 20
578.5185524317031
 30
0.0
  0
VERTEX
  5
73C
  8
0
 10
268.9587349090294
 20
576.5507019649032
 30
0.0
  0
SEQEND
  5
CAD
  8
0
  0
POLYLINE
  5
1F2
  8
0
 66
     1
 10
0.0
 20
0.0
 30
0.0
  0
VERTEX
  5
73D
  8
0
 10
261.2123743623293
 20
587.6962541242032
 30
0.0
  0
VERTEX
  5
73E
  8
0
 10
262.5584422769294
 20
585.6702590415032
 30
0.0
  0
SEQEND
  5
CAE
  8
0
  0
POLYLINE
  5
1F3
  8
0
 66
     1
 10
0.0
 20
0.0
 30
0.0
  0
VERTEX
  5
73F
  8
0
 10
255.2856038873293
 20
597.1304185698032
 30
0.0
  0
VERTEX
  5
740
  8
0
 10
256.5456512032293
 20
595.0498331552031
 30
0.0
  0
SEQEND
  5
CAF
  8
0
  0
POLYLINE
  5
1F4
  8
0
 66
     1
 10
0.0
 20
0.0
 30
0.0
  0
VERTEX
  5
741
  8
0
 10
249.7590940006294
 20
606.8044950385032
 30
0.0
  0
VERTEX
  5
742
  8
0
 10
250.9309101665293
 20
604.6729693457031
 30
0.0
  0
SEQEND
  5
CB0
  8
0
  0
POLYLINE
  5
1F5
  8
0
 66
     1
 10
0.0
 20
0.0
 30
0.0
  0
VERTEX
  5
743
  8
0
 10
244.6425400783294
 20
616.7015119129031
 30
0.0
  0
VERTEX
  5
744
  8
0
 10
245.7240693305294
 20
614.5227853622032
 30
0.0
  0
SEQEND
  5
CB1
  8
0
  0
POLYLINE
  5
1F6
  8
0
 66
     1
 10
0.0
 20
0.0
 30
0.0
  0
VERTEX
  5
745
  8
0
 10
239.9449182948293
 20
626.8041064622032
 30
0.0
  0
VERTEX
  5
746
  8
0
 10
240.9342632635294
 20
624.5820012805032
 30
0.0
  0
SEQEND
  5
CB2
  8
0
  0
POLYLINE
  5
1F7
  8
0
 66
     1
 10
0.0
 20
0.0
 30
0.0
  0
VERTEX
  5
747
  8
0
 10
235.6744698748294
 20
637.0945553029031
 30
0.0
  0
VERTEX
  5
748
  8
0
 10
236.5698949127294
 20
634.8329698176032
 30
0.0
  0
SEQEND
  5
CB3
  8
0
  0
POLYLINE
  5
1F8
  8
0
 66
     1
 10
0.0
 20
0.0
 30
0.0
  0
VERTEX
  5
749
  8
0
 10
231.8386866359293
 20
647.5548054909032
 30
0.0
  0
VERTEX
  5
74A
  8
0
 10
232.6386208633292
 20
645.2577072915032
 30
0.0
  0
SEQEND
  5
CB4
  8
0
  0
POLYLINE
  5
1F9
  8
0
 66
     1
 10
0.0
 20
0.0
 30
0.0
  0
VERTEX
  5
74B
  8
0
 10
228.4442978455293
 20
658.1665061929032
 30
0.0
  0
VERTEX
  5
74C
  8
0
 10
229.1473379059294
 20
655.8379251702032
 30
0.0
  0
SEQEND
  5
CB5
  8
0
  0
POLYLINE
  5
1FA
  8
0
 66
     1
 10
0.0
 20
0.0
 30
0.0
  0
VERTEX
  5
74D
  8
0
 10
225.4972584148293
 20
668.9110408801032
 30
0.0
  0
VERTEX
  5
74E
  8
0
 10
226.1021709370294
 20
666.5550621565031
 30
0.0
  0
SEQEND
  5
CB6
  8
0
  0
POLYLINE
  5
1FB
  8
0
 66
     1
 10
0.0
 20
0.0
 30
0.0
  0
VERTEX
  5
74F
  8
0
 10
223.0027384525293
 20
679.7695599876032
 30
0.0
  0
VERTEX
  5
750
  8
0
 10
223.5084622144294
 20
677.3903167503032
 30
0.0
  0
SEQEND
  5
CB7
  8
0
  0
POLYLINE
  5
1FC
  8
0
 66
     1
 10
0.0
 20
0.0
 30
0.0
  0
VERTEX
  5
751
  8
0
 10
220.9651141942293
 20
690.7230139832031
 30
0.0
  0
VERTEX
  5
752
  8
0
 10
221.3707619845293
 20
688.3246802332031
 30
0.0
  0
SEQEND
  5
CB8
  8
0
  0
POLYLINE
  5
1FD
  8
0
 66
     1
 10
0.0
 20
0.0
 30
0.0
  0
VERTEX
  5
753
  8
0
 10
219.3879603251292
 20
701.7521867864032
 30
0.0
  0
VERTEX
  5
754
  8
0
 10
219.6928204998292
 20
699.3389700162032
 30
0.0
  0
SEQEND
  5
CB9
  8
0
  0
POLYLINE
  5
1FE
  8
0
 66
     1
 10
0.0
 20
0.0
 30
0.0
  0
VERTEX
  5
755
  8
0
 10
218.2740437092294
 20
712.8377294805032
 30
0.0
  0
VERTEX
  5
756
  8
0
 10
218.4775814398293
 20
710.4138632924031
 30
0.0
  0
SEQEND
  5
CBA
  8
0
  0
POLYLINE
  5
1FF
  8
0
 66
     1
 10
0.0
 20
0.0
 30
0.0
  0
VERTEX
  5
757
  8
0
 10
217.6253185347294
 20
723.9601942567032
 30
0.0
  0
VERTEX
  5
758
  8
0
 10
217.7271767470293
 20
721.5299309355031
 30
0.0
  0
SEQEND
  5
CBB
  8
0
  0
POLYLINE
  5
200
  8
0
 66
     1
 10
0.0
 20
0.0
 30
0.0
  0
VERTEX
  5
759
  8
0
 10
225.3472801630144
 20
737.8930805008973
 30
0.0
 42
0.0199682054813793
  0
VERTEX
  5
75A
  8
0
 10
217.4429228859554
 20
735.1000685324224
 30
0.0
  0
SEQEND
  5
CBC
  8
0
  0
POLYLINE
  5
201
  8
0
 66
     1
 10
0.0
 20
0.0
 30
0.0
  0
VERTEX
  5
75B
  8
0
 10
225.4057831454414
 20
740.6859837109688
 30
0.0
 42
0.0027056146697626
  0
VERTEX
  5
75C
  8
0
 10
225.3472801630467
 20
737.8930805006597
 30
0.0
  0
SEQEND
  5
CBD
  8
0
  0
POLYLINE
  5
202
  8
0
 66
     1
 10
0.0
 20
0.0
 30
0.0
  0
VERTEX
  5
75D
  8
0
 10
217.6253185347126
 20
743.8075458614521
 30
0.0
 42
0.0199682054813797
  0
VERTEX
  5
75E
  8
0
 10
225.4057831454239
 20
740.6859837107246
 30
0.0
  0
SEQEND
  5
CBE
  8
0
  0
POLYLINE
  5
203
  8
0
 66
     1
 10
0.0
 20
0.0
 30
0.0
  0
VERTEX
  5
75F
  8
0
 10
225.7415597618258
 20
748.6973710768206
 30
0.0
 42
0.0199682054813743
  0
VERTEX
  5
760
  8
0
 10
217.7271767470048
 20
746.2378091826638
 30
0.0
  0
SEQEND
  5
CBF
  8
0
  0
POLYLINE
  5
204
  8
0
 66
     1
 10
0.0
 20
0.0
 30
0.0
  0
VERTEX
  5
761
  8
0
 10
225.916966074826
 20
751.485374585203
 30
0.0
 42
0.0027056146688904
  0
VERTEX
  5
762
  8
0
 10
225.7415597618065
 20
748.6973710770145
 30
0.0
  0
SEQEND
  5
CC0
  8
0
  0
POLYLINE
  5
205
  8
0
 66
     1
 10
0.0
 20
0.0
 30
0.0
  0
VERTEX
  5
763
  8
0
 10
218.2740437091934
 20
754.9300106376925
 30
0.0
 42
0.0199682054813825
  0
VERTEX
  5
764
  8
0
 10
225.916966074818
 20
751.4853745854355
 30
0.0
  0
SEQEND
  5
CC1
  8
0
  0
POLYLINE
  5
206
  8
0
 66
     1
 10
0.0
 20
0.0
 30
0.0
  0
VERTEX
  5
765
  8
0
 10
226.5879302413555
 20
759.4756737383395
 30
0.0
 42
0.0199682054813786
  0
VERTEX
  5
766
  8
0
 10
218.4775814398855
 20
757.353876825828
 30
0.0
  0
SEQEND
  5
CC2
  8
0
  0
POLYLINE
  5
207
  8
0
 66
     1
 10
0.0
 20
0.0
 30
0.0
  0
VERTEX
  5
767
  8
0
 10
226.8799321627706
 20
762.2538864403908
 30
0.0
 42
0.0027056146697347
  0
VERTEX
  5
768
  8
0
 10
226.5879302412939
 20
759.4756737381296
 30
0.0
  0
SEQEND
  5
CC3
  8
0
  0
POLYLINE
  5
208
  8
0
 66
     1
 10
0.0
 20
0.0
 30
0.0
  0
VERTEX
  5
769
  8
0
 10
219.3879603250905
 20
766.0155533318424
 30
0.0
 42
0.0199682054813808
  0
VERTEX
  5
76A
  8
0
 10
226.8799321627105
 20
762.2538864401896
 30
0.0
  0
SEQEND
  5
CC4
  8
0
  0
POLYLINE
  5
209
  8
0
 66
     1
 10
0.0
 20
0.0
 30
0.0
  0
VERTEX
  5
76B
  8
0
 10
227.8849067801419
 20
770.2090796800277
 30
0.0
 42
0.0199682054813795
  0
VERTEX
  5
76C
  8
0
 10
219.6928204997362
 20
768.4287701019376
 30
0.0
  0
SEQEND
  5
CC5
  8
0
  0
POLYLINE
  5
20A
  8
0
 66
     1
 10
0.0
 20
0.0
 30
0.0
  0
VERTEX
  5
76D
  8
0
 10
228.2929920394141
 20
772.9726276462392
 30
0.0
 42
0.0027056146697434
  0
VERTEX
  5
76E
  8
0
 10
227.884906780126
 20
770.2090796798765
 30
0.0
  0
SEQEND
  5
CC6
  8
0
  0
POLYLINE
  5
20B
  8
0
 66
     1
 10
0.0
 20
0.0
 30
0.0
  0
VERTEX
  5
76F
  8
0
 10
220.9651141941397
 20
777.0447261350527
 30
0.0
 42
0.0199682054813875
  0
VERTEX
  5
770
  8
0
 10
228.2929920393638
 20
772.9726276459544
 30
0.0
  0
SEQEND
  5
CC7
  8
0
  0
POLYLINE
  5
20C
  8
0
 66
     1
 10
0.0
 20
0.0
 30
0.0
  0
VERTEX
  5
771
  8
0
 10
229.6302140407896
 20
780.8787588607081
 30
0.0
 42
0.019968205481381
  0
VERTEX
  5
772
  8
0
 10
221.3707619844741
 20
779.4430598849926
 30
0.0
  0
SEQEND
  5
CC8
  8
0
  0
POLYLINE
  5
20D
  8
0
 66
     1
 10
0.0
 20
0.0
 30
0.0
  0
VERTEX
  5
773
  8
0
 10
230.153666717539
 20
783.6227938882674
 30
0.0
 42
0.0027056146693227
  0
VERTEX
  5
774
  8
0
 10
229.6302140407393
 20
780.8787588604458
 30
0.0
  0
SEQEND
  5
CC9
  8
0
  0
POLYLINE
  5
20E
  8
0
 66
     1
 10
0.0
 20
0.0
 30
0.0
  0
VERTEX
  5
775
  8
0
 10
223.0027384525329
 20
787.9981801306279
 30
0.0
 42
0.0199682054813741
  0
VERTEX
  5
776
  8
0
 10
230.1536667175909
 20
783.6227938885424
 30
0.0
  0
SEQEND
  5
CCA
  8
0
  0
POLYLINE
  5
20F
  8
0
 66
     1
 10
0.0
 20
0.0
 30
0.0
  0
VERTEX
  5
777
  8
0
 10
231.8207901611127
 20
791.4659930374181
 30
0.0
 42
0.0199682054813775
  0
VERTEX
  5
778
  8
0
 10
223.5084622143748
 20
790.3774233679345
 30
0.0
  0
SEQEND
  5
CCB
  8
0
  0
POLYLINE
  5
210
  8
0
 66
     1
 10
0.0
 20
0.0
 30
0.0
  0
VERTEX
  5
779
  8
0
 10
232.4586919415834
 20
794.1857011570727
 30
0.0
 42
0.0027056146693298
  0
VERTEX
  5
77A
  8
0
 10
231.8207901610704
 20
791.4659930372212
 30
0.0
  0
SEQEND
  5
CCC
  8
0
  0
POLYLINE
  5
211
  8
0
 66
     1
 10
0.0
 20
0.0
 30
0.0
  0
VERTEX
  5
77B
  8
0
 10
225.4972584148941
 20
798.8566992380457
 30
0.0
 42
0.0199682054813767
  0
VERTEX
  5
77C
  8
0
 10
232.4586919417098
 20
794.1857011572064
 30
0.0
  0
SEQEND
  5
CCD
  8
0
  0
POLYLINE
  5
212
  8
0
 66
     1
 10
0.0
 20
0.0
 30
0.0
  0
VERTEX
  5
77D
  8
0
 10
234.4527921264517
 20
801.9522086039226
 30
0.0
 42
0.0199682054813759
  0
VERTEX
  5
77E
  8
0
 10
226.1021709370601
 20
801.2126779617697
 30
0.0
  0
SEQEND
  5
CCE
  8
0
  0
POLYLINE
  5
213
  8
0
 66
     1
 10
0.0
 20
0.0
 30
0.0
  0
VERTEX
  5
77F
  8
0
 10
235.204023914263
 20
804.6428185237348
 30
0.0
 42
0.002705614669759
  0
VERTEX
  5
780
  8
0
 10
234.4527921264001
 20
801.9522086036383
 30
0.0
  0
SEQEND
  5
CCF
  8
0
  0
POLYLINE
  5
214
  8
0
 66
     1
 10
0.0
 20
0.0
 30
0.0
  0
VERTEX
  5
781
  8
0
 10
228.4442978455505
 20
809.6012339252953
 30
0.0
 42
0.0199682054813735
  0
VERTEX
  5
782
  8
0
 10
235.2040239142039
 20
804.6428185235534
 30
0.0
  0
SEQEND
  5
CD0
  8
0
  0
POLYLINE
  5
215
  8
0
 66
     1
 10
0.0
 20
0.0
 30
0.0
  0
VERTEX
  5
783
  8
0
 10
237.521602510796
 20
812.3190091747531
 30
0.0
 42
0.019968205481381
  0
VERTEX
  5
784
  8
0
 10
229.1473379058696
 20
811.9298149479708
 30
0.0
  0
SEQEND
  5
CD1
  8
0
  0
POLYLINE
  5
216
  8
0
 66
     1
 10
0.0
 20
0.0
 30
0.0
  0
VERTEX
  5
785
  8
0
 10
238.3848463899881
 20
814.9758006503702
 30
0.0
 42
0.0027056146697532
  0
VERTEX
  5
786
  8
0
 10
237.5216025107061
 20
812.3190091745363
 30
0.0
  0
SEQEND
  5
CD2
  8
0
  0
POLYLINE
  5
217
  8
0
 66
     1
 10
0.0
 20
0.0
 30
0.0
  0
VERTEX
  5
787
  8
0
 10
231.8386866359927
 20
820.2129346273612
 30
0.0
 42
0.0199682054813755
  0
VERTEX
  5
788
  8
0
 10
238.3848463899868
 20
814.9758006502145
 30
0.0
  0
SEQEND
  5
CD3
  8
0
  0
POLYLINE
  5
218
  8
0
 66
     1
 10
0.0
 20
0.0
 30
0.0
  0
VERTEX
  5
789
  8
0
 10
241.0218375780508
 20
822.5482078591859
 30
0.0
 42
0.0199682054813806
  0
VERTEX
  5
78A
  8
0
 10
232.6386208633078
 20
822.5100328266977
 30
0.0
  0
SEQEND
  5
CD4
  8
0
  0
POLYLINE
  5
219
  8
0
 66
     1
 10
0.0
 20
0.0
 30
0.0
  0
VERTEX
  5
78B
  8
0
 10
241.9955791254495
 20
825.1665199751022
 30
0.0
 42
0.0027056146693261
  0
VERTEX
  5
78C
  8
0
 10
241.0218375779967
 20
822.5482078589637
 30
0.0
  0
SEQEND
  5
CD5
  8
0
  0
POLYLINE
  5
21A
  8
0
 66
     1
 10
0.0
 20
0.0
 30
0.0
  0
VERTEX
  5
78D
  8
0
 10
235.6744698747873
 20
830.673184815283
 30
0.0
 42
0.0199682054813755
  0
VERTEX
  5
78E
  8
0
 10
241.9955791255191
 20
825.1665199753129
 30
0.0
  0
SEQEND
  5
CD6
  8
0
  0
POLYLINE
  5
21B
  8
0
 66
     1
 10
0.0
 20
0.0
 30
0.0
  0
VERTEX
  5
78F
  8
0
 10
244.9473567264966
 20
832.6218591668047
 30
0.0
 42
0.0199682054813773
  0
VERTEX
  5
790
  8
0
 10
236.5698949126877
 20
832.9347703005895
 30
0.0
  0
SEQEND
  5
CD7
  8
0
  0
POLYLINE
  5
21C
  8
0
 66
     1
 10
0.0
 20
0.0
 30
0.0
  0
VERTEX
  5
791
  8
0
 10
246.0298876687444
 20
835.1970985147366
 30
0.0
 42
0.0027056146697526
  0
VERTEX
  5
792
  8
0
 10
244.9473567263715
 20
832.6218591666511
 30
0.0
  0
SEQEND
  5
CD8
  8
0
  0
POLYLINE
  5
21D
  8
0
 66
     1
 10
0.0
 20
0.0
 30
0.0
  0
VERTEX
  5
793
  8
0
 10
239.9449182948306
 20
840.9636336559624
 30
0.0
 42
0.0199682054813831
  0
VERTEX
  5
794
  8
0
 10
246.0298876687442
 20
835.197098514478
 30
0.0
  0
SEQEND
  5
CD9
  8
0
  0
POLYLINE
  5
21E
  8
0
 66
     1
 10
0.0
 20
0.0
 30
0.0
  0
VERTEX
  5
795
  8
0
 10
249.2912732616638
 20
842.522290490164
 30
0.0
 42
0.0199682054813822
  0
VERTEX
  5
796
  8
0
 10
240.9342632634924
 20
843.1857388377651
 30
0.0
  0
SEQEND
  5
CDA
  8
0
  0
POLYLINE
  5
21F
  8
0
 66
     1
 10
0.0
 20
0.0
 30
0.0
  0
VERTEX
  5
797
  8
0
 10
250.4806944715229
 20
845.0499392246717
 30
0.0
 42
0.002705614669749
  0
VERTEX
  5
798
  8
0
 10
249.2912732614907
 20
842.5222904899057
 30
0.0
  0
SEQEND
  5
CDB
  8
0
  0
POLYLINE
  5
220
  8
0
 66
     1
 10
0.0
 20
0.0
 30
0.0
  0
VERTEX
  5
799
  8
0
 10
244.6425400783826
 20
851.0662282053096
 30
0.0
 42
0.0199682054813854
  0
VERTEX
  5
79A
  8
0
 10
250.4806944715093
 20
845.0499392244309
 30
0.0
  0
SEQEND
  5
CDC
  8
0
  0
POLYLINE
  5
221
  8
0
 66
     1
 10
0.0
 20
0.0
 30
0.0
  0
VERTEX
  5
79B
  8
0
 10
254.0459664778512
 20
852.2321331084057
 30
0.0
 42
0.0199682054813817
  0
VERTEX
  5
79C
  8
0
 10
245.7240693305847
 20
853.2449547559803
 30
0.0
  0
SEQEND
  5
CDD
  8
0
  0
POLYLINE
  5
222
  8
0
 66
     1
 10
0.0
 20
0.0
 30
0.0
  0
VERTEX
  5
79D
  8
0
 10
255.3401913064386
 20
854.7077568748209
 30
0.0
 42
0.0027056146697467
  0
VERTEX
  5
79E
  8
0
 10
254.04596647773
 20
852.2321331081839
 30
0.0
  0
SEQEND
  5
CDE
  8
0
  0
POLYLINE
  5
223
  8
0
 66
     1
 10
0.0
 20
0.0
 30
0.0
  0
VERTEX
  5
79F
  8
0
 10
249.7590940005919
 20
860.9632450796576
 30
0.0
 42
0.0199682054813813
  0
VERTEX
  5
7A0
  8
0
 10
255.3401913063088
 20
854.707756874605
 30
0.0
  0
SEQEND
  5
CDF
  8
0
  0
POLYLINE
  5
224
  8
0
 66
     1
 10
0.0
 20
0.0
 30
0.0
  0
VERTEX
  5
7A1
  8
0
 10
259.2030950274678
 20
861.7343526582528
 30
0.0
 42
0.0199682054813781
  0
VERTEX
  5
7A2
  8
0
 10
250.9309101665058
 20
863.0947707724713
 30
0.0
  0
SEQEND
  5
CE0
  8
0
  0
POLYLINE
  5
225
  8
0
 66
     1
 10
0.0
 20
0.0
 30
0.0
  0
VERTEX
  5
7A3
  8
0
 10
260.5998529645618
 20
864.1536083713103
 30
0.0
 42
0.002705614669755
  0
VERTEX
  5
7A4
  8
0
 10
259.2030950272991
 20
861.7343526580962
 30
0.0
  0
SEQEND
  5
CE1
  8
0
  0
POLYLINE
  5
226
  8
0
 66
     1
 10
0.0
 20
0.0
 30
0.0
  0
VERTEX
  5
7A5
  8
0
 10
255.2856038873172
 20
870.6373215483541
 30
0.0
 42
0.0199682054813838
  0
VERTEX
  5
7A6
  8
0
 10
260.5998529644795
 20
864.1536083710699
 30
0.0
  0
SEQEND
  5
CE2
  8
0
  0
POLYLINE
  5
227
  8
0
 66
     1
 10
0.0
 20
0.0
 30
0.0
  0
VERTEX
  5
7A7
  8
0
 10
264.7536115546482
 20
871.0122790177822
 30
0.0
 42
0.0199682054813808
  0
VERTEX
  5
7A8
  8
0
 10
256.5456512031354
 20
872.7179069630007
 30
0.0
  0
SEQEND
  5
CE3
  8
0
  0
POLYLINE
  5
228
  8
0
 66
     1
 10
0.0
 20
0.0
 30
0.0
  0
VERTEX
  5
7A9
  8
0
 10
266.250452212297
 20
873.3709224808665
 30
0.0
 42
0.0027056146697692
  0
VERTEX
  5
7AA
  8
0
 10
264.7536115545507
 20
871.0122790177082
 30
0.0
  0
SEQEND
  5
CE4
  8
0
  0
POLYLINE
  5
229
  8
0
 66
     1
 10
0.0
 20
0.0
 30
0.0
  0
VERTEX
  5
7AB
  8
0
 10
261.2123743622863
 20
880.0714859940858
 30
0.0
 42
0.0199682054813765
  0
VERTEX
  5
7AC
  8
0
 10
266.2504522122197
 20
873.3709224806622
 30
0.0
  0
SEQEND
  5
CE5
  8
0
  0
POLYLINE
  5
22A
  8
0
 66
     1
 10
0.0
 20
0.0
 30
0.0
  0
VERTEX
  5
7AD
  8
0
 10
270.6877785673863
 20
880.0496355514782
 30
0.0
 42
0.0199682054813784
  0
VERTEX
  5
7AE
  8
0
 10
262.5584422768719
 20
882.0974810767026
 30
0.0
  0
SEQEND
  5
CE6
  8
0
  0
POLYLINE
  5
22B
  8
0
 66
     1
 10
0.0
 20
0.0
 30
0.0
  0
VERTEX
  5
7AF
  8
0
 10
272.2820759784464
 20
882.3435289024081
 30
0.0
 42
0.0027056146697694
  0
VERTEX
  5
7B0
  8
0
 10
270.6877785673256
 20
880.0496355513575
 30
0.0
  0
SEQEND
  5
CE7
  8
0
  0
POLYLINE
  5
22C
  8
0
 66
     1
 10
0.0
 20
0.0
 30
0.0
  0
VERTEX
  5
7B1
  8
0
 10
267.529007856065
 20
889.2491876864443
 30
0.0
 42
0.0199682054813807
  0
VERTEX
  5
7B2
  8
0
 10
272.2820759782706
 20
882.34352890215
 30
0.0
  0
SEQEND
  5
CE8
  8
0
  0
POLYLINE
  5
22D
  8
0
 66
     1
 10
0.0
 20
0.0
 30
0.0
  0
VERTEX
  5
7B3
  8
0
 10
276.9951855203026
 20
888.8305676649924
 30
0.0
 42
0.0199682054813841
  0
VERTEX
  5
7B4
  8
0
 10
268.9587349090039
 20
891.2170381533098
 30
0.0
  0
SEQEND
  5
CE9
  8
0
  0
POLYLINE
  5
22E
  8
0
 66
     1
 10
0.0
 20
0.0
 30
0.0
  0
VERTEX
  5
7B5
  8
0
 10
278.6841427452947
 20
891.0556866353417
 30
0.0
 42
0.0027056146697559
  0
VERTEX
  5
7B6
  8
0
 10
276.9951855202021
 20
888.8305676648062
 30
0.0
  0
SEQEND
  5
CEA
  8
0
  0
POLYLINE
  5
22F
  8
0
 66
     1
 10
0.0
 20
0.0
 30
0.0
  0
VERTEX
  5
7B7
  8
0
 10
274.2244228472503
 20
898.1543258182547
 30
0.0
 42
0.0199682054813723
  0
VERTEX
  5
7B8
  8
0
 10
278.6841427451362
 20
891.0556866351595
 30
0.0
  0
SEQEND
  5
CEB
  8
0
  0
POLYLINE
  5
230
  8
0
 66
     1
 10
0.0
 20
0.0
 30
0.0
  0
VERTEX
  5
7B9
  8
0
 10
283.664767078298
 20
897.339670619676
 30
0.0
 42
0.019968205481377
  0
VERTEX
  5
7BA
  8
0
 10
275.7353008113919
 20
900.0605793909211
 30
0.0
  0
SEQEND
  5
CEC
  8
0
  0
POLYLINE
  5
231
  8
0
 66
     1
 10
0.0
 20
0.0
 30
0.0
  0
VERTEX
  5
7BB
  8
0
 10
285.4454211122698
 20
899.4921115948179
 30
0.0
 42
0.002705614669761
  0
VERTEX
  5
7BC
  8
0
 10
283.6647670781024
 20
897.3396706195903
 30
0.0
  0
SEQEND
  5
CED
  8
0
  0
POLYLINE
  5
232
  8
0
 66
     1
 10
0.0
 20
0.0
 30
0.0
  0
VERTEX
  5
7BD
  8
0
 10
281.2868733027545
 20
906.7712777512626
 30
0.0
 42
0.0199682054813807
  0
VERTEX
  5
7BE
  8
0
 10
285.4454211122
 20
899.4921115946223
 30
0.0
  0
SEQEND
  5
CEE
  8
0
  0
POLYLINE
  5
233
  8
0
 66
     1
 10
0.0
 20
0.0
 30
0.0
  0
VERTEX
  5
7BF
  8
0
 10
290.6848225288889
 20
905.5620165575561
 30
0.0
 42
0.0199682054813828
  0
VERTEX
  5
7C0
  8
0
 10
282.8762515846564
 20
908.6125902131745
 30
0.0
  0
SEQEND
  5
CEF
  8
0
  0
POLYLINE
  5
234
  8
0
 66
     1
 10
0.0
 20
0.0
 30
0.0
  0
VERTEX
  5
7C1
  8
0
 10
292.55404949973
 20
907.6380034244668
 30
0.0
 42
0.0027056146697717
  0
VERTEX
  5
7C2
  8
0
 10
290.6848225287466
 20
905.5620165574363
 30
0.0
  0
SEQEND
  5
CF0
  8
0
  0
POLYLINE
  5
235
  8
0
 66
     1
 10
0.0
 20
0.0
 30
0.0
  0
VERTEX
  5
7C3
  8
0
 10
288.7039692845411
 20
915.0849264234936
 30
0.0
 42
0.0199682054813771
  0
VERTEX
  5
7C4
  8
0
 10
292.5540494996019
 20
907.6380034242287
 30
0.0
  0
SEQEND
  5
CF1
  8
0
  0
POLYLINE
  5
236
  8
0
 66
     1
 10
0.0
 20
0.0
 30
0.0
  0
VERTEX
  5
7C5
  8
0
 10
298.0430363095609
 20
913.483180689792
 30
0.0
 42
0.0199682054813794
  0
VERTEX
  5
7C6
  8
0
 10
290.3690595748097
 20
916.8580674869987
 30
0.0
  0
SEQEND
  5
CF2
  8
0
  0
POLYLINE
  5
237
  8
0
 66
     1
 10
0.0
 20
0.0
 30
0.0
  0
VERTEX
  5
7C7
  8
0
 10
299.9975569579136
 20
915.4790714621064
 30
0.0
 42
0.0027056146697449
  0
VERTEX
  5
7C8
  8
0
 10
298.0430363093649
 20
913.4831806896365
 30
0.0
  0
SEQEND
  5
CF3
  8
0
  0
POLYLINE
  5
238
  8
0
 66
     1
 10
0.0
 20
0.0
 30
0.0
  0
VERTEX
  5
7C9
  8
0
 10
296.4626986860431
 20
923.0806868704345
 30
0.0
 42
0.0199682054813772
  0
VERTEX
  5
7CA
  8
0
 10
299.9975569577578
 20
915.4790714619636
 30
0.0
  0
SEQEND
  5
CF4
  8
0
  0
POLYLINE
  5
239
  8
0
 66
     1
 10
0.0
 20
0.0
 30
0.0
  0
VERTEX
  5
7CB
  8
0
 10
305.72649961285
 20
921.0892666030198
 30
0.0
 42
0.0199682054813757
  0
VERTEX
  5
7CC
  8
0
 10
298.2005798504097
 20
924.7825458435779
 30
0.0
  0
SEQEND
  5
CF5
  8
0
  0
POLYLINE
  5
23A
  8
0
 66
     1
 10
0.0
 20
0.0
 30
0.0
  0
VERTEX
  5
7CD
  8
0
 10
307.7628850454515
 20
923.001559810058
 30
0.0
 42
0.002705614669761
  0
VERTEX
  5
7CE
  8
0
 10
305.7264996127374
 20
921.0892666028034
 30
0.0
  0
SEQEND
  5
CF6
  8
0
  0
POLYLINE
  5
23B
  8
0
 66
     1
 10
0.0
 20
0.0
 30
0.0
  0
VERTEX
  5
7CF
  8
0
 10
304.5494500594774
 20
930.7445318111937
 30
0.0
 42
0.0199682054813846
  0
VERTEX
  5
7D0
  8
0
 10
307.7628850452843
 20
923.0015598099895
 30
0.0
  0
SEQEND
  5
CF7
  8
0
  0
POLYLINE
  5
23C
  8
0
 66
     1
 10
0.0
 20
0.0
 30
0.0
  0
VERTEX
  5
7D1
  8
0
 10
313.7217330334213
 20
928.3669306377582
 30
0.0
 42
0.0199682054813796
  0
VERTEX
  5
7D2
  8
0
 10
306.3570732638742
 20
932.3721230548975
 30
0.0
  0
SEQEND
  5
CF8
  8
0
  0
POLYLINE
  5
23D
  8
0
 66
     1
 10
0.0
 20
0.0
 30
0.0
  0
VERTEX
  5
7D3
  8
0
 10
315.836410738061
 20
930.1922714676845
 30
0.0
 42
0.0027056146697621
  0
VERTEX
  5
7D4
  8
0
 10
313.7217330331626
 20
928.3669306376979
 30
0.0
  0
SEQEND
  5
CF9
  8
0
  0
POLYLINE
  5
23E
  8
0
 66
     1
 10
0.0
 20
0.0
 30
0.0
  0
VERTEX
  5
7D5
  8
0
 10
312.9500364949247
 20
938.0630162574386
 30
0.0
 42
0.0199682054813792
  0
VERTEX
  5
7D6
  8
0
 10
315.8364107379253
 20
930.1922714674728
 30
0.0
  0
SEQEND
  5
CFA
  8
0
  0
POLYLINE
  5
23F
  8
0
 66
     1
 10
0.0
 20
0.0
 30
0.0
  0
VERTEX
  5
7D7
  8
0
 10
322.0147102148661
 20
935.3034052985018
 30
0.0
 42
0.0199682054813769
  0
VERTEX
  5
7D8
  8
0
 10
314.8242305539778
 20
939.6134844237487
 30
0.0
  0
SEQEND
  5
CFB
  8
0
  0
POLYLINE
  5
240
  8
0
 66
     1
 10
0.0
 20
0.0
 30
0.0
  0
VERTEX
  5
7D9
  8
0
 10
324.2039703284336
 20
937.038591483055
 30
0.0
 42
0.0027056146697622
  0
VERTEX
  5
7DA
  8
0
 10
322.0147102146328
 20
935.3034052984216
 30
0.0
  0
SEQEND
  5
CFC
  8
0
  0
POLYLINE
  5
241
  8
0
 66
     1
 10
0.0
 20
0.0
 30
0.0
  0
VERTEX
  5
7DB
  8
0
 10
321.6497205093108
 20
945.0233011007764
 30
0.0
 42
0.0199682054813799
  0
VERTEX
  5
7DC
  8
0
 10
324.2039703282854
 20
937.0385914829104
 30
0.0
  0
SEQEND
  5
CFD
  8
0
  0
POLYLINE
  5
242
  8
0
 66
     1
 10
0.0
 20
0.0
 30
0.0
  0
VERTEX
  5
7DD
  8
0
 10
330.5908824573185
 20
941.8865216517139
 30
0.0
 42
0.019968205481379
  0
VERTEX
  5
7DE
  8
0
 10
323.5871974497593
 20
946.4939261417059
 30
0.0
  0
SEQEND
  5
CFE
  8
0
  0
POLYLINE
  5
243
  8
0
 66
     1
 10
0.0
 20
0.0
 30
0.0
  0
VERTEX
  5
7DF
  8
0
 10
332.850884273682
 20
943.5285090846493
 30
0.0
 42
0.0027056146697644
  0
VERTEX
  5
7E0
  8
0
 10
330.5908824571518
 20
941.8865216515707
 30
0.0
  0
SEQEND
  5
CFF
  8
0
  0
POLYLINE
  5
244
  8
0
 66
     1
 10
0.0
 20
0.0
 30
0.0
  0
VERTEX
  5
7E1
  8
0
 10
330.6332399007027
 20
951.6131756364235
 30
0.0
 42
0.0199682054813771
  0
VERTEX
  5
7E2
  8
0
 10
332.8508842735314
 20
943.5285090845413
 30
0.0
  0
SEQEND
  5
D00
  8
0
  0
POLYLINE
  5
245
  8
0
 66
     1
 10
0.0
 20
0.0
 30
0.0
  0
VERTEX
  5
7E3
  8
0
 10
339.4352042405145
 20
948.1047306741833
 30
0.0
 42
0.0199682054813781
  0
VERTEX
  5
7E4
  8
0
 10
332.6306007296567
 20
953.0013775758374
 30
0.0
  0
SEQEND
  5
D01
  8
0
  0
POLYLINE
  5
246
  8
0
 66
     1
 10
0.0
 20
0.0
 30
0.0
  0
VERTEX
  5
7E5
  8
0
 10
341.7619829484759
 20
949.650638751691
 30
0.0
 42
0.002705614669773
  0
VERTEX
  5
7E6
  8
0
 10
339.4352042403346
 20
948.1047306740594
 30
0.0
  0
SEQEND
  5
D02
  8
0
  0
POLYLINE
  5
247
  8
0
 66
     1
 10
0.0
 20
0.0
 30
0.0
  0
VERTEX
  5
7E7
  8
0
 10
339.8848345233985
 20
957.8210789851277
 30
0.0
 42
0.0199682054813845
  0
VERTEX
  5
7E8
  8
0
 10
341.7619829482886
 20
949.6506387515582
 30
0.0
  0
SEQEND
  5
D03
  8
0
  0
POLYLINE
  5
248
  8
0
 66
     1
 10
0.0
 20
0.0
 30
0.0
  0
VERTEX
  5
7E9
  8
0
 10
348.5321596187603
 20
953.9471235143097
 30
0.0
 42
0.0199682054813824
  0
VERTEX
  5
7EA
  8
0
 10
341.9385751913813
 20
959.124422445069
 30
0.0
  0
SEQEND
  5
D04
  8
0
  0
POLYLINE
  5
249
  8
0
 66
     1
 10
0.0
 20
0.0
 30
0.0
  0
VERTEX
  5
7EB
  8
0
 10
350.9216332578126
 20
955.3942401884007
 30
0.0
 42
0.0027056146697541
  0
VERTEX
  5
7EC
  8
0
 10
348.5321596185539
 20
953.9471235142847
 30
0.0
  0
SEQEND
  5
D05
  8
0
  0
POLYLINE
  5
24A
  8
0
 66
     1
 10
0.0
 20
0.0
 30
0.0
  0
VERTEX
  5
7ED
  8
0
 10
349.3882739367935
 20
963.6361203750133
 30
0.0
 42
0.0199682054813849
  0
VERTEX
  5
7EE
  8
0
 10
350.9216332575496
 20
955.3942401882556
 30
0.0
  0
SEQEND
  5
D06
  8
0
  0
POLYLINE
  5
24B
  8
0
 66
     1
 10
0.0
 20
0.0
 30
0.0
  0
VERTEX
  5
7EF
  8
0
 10
357.8657894410238
 20
959.4034506299628
 30
0.0
 42
0.0199682054813832
  0
VERTEX
  5
7F0
  8
0
 10
351.4947914847197
 20
964.8523188482478
 30
0.0
  0
SEQEND
  5
D07
  8
0
  0
POLYLINE
  5
24C
  8
0
 66
     1
 10
0.0
 20
0.0
 30
0.0
  0
VERTEX
  5
7F1
  8
0
 10
360.3137660623946
 20
960.7492371660729
 30
0.0
 42
0.0027056146697587
  0
VERTEX
  5
7F2
  8
0
 10
357.8657894407475
 20
959.4034506298632
 30
0.0
  0
SEQEND
  5
D08
  8
0
  0
POLYLINE
  5
24D
  8
0
 66
     1
 10
0.0
 20
0.0
 30
0.0
  0
VERTEX
  5
7F3
  8
0
 10
359.126885878945
 20
969.0480982474943
 30
0.0
 42
0.0199682054813797
  0
VERTEX
  5
7F4
  8
0
 10
360.3137660622788
 20
960.7492371660063
 30
0.0
  0
SEQEND
  5
D09
  8
0
  0
POLYLINE
  5
24E
  8
0
 66
     1
 10
0.0
 20
0.0
 30
0.0
  0
VERTEX
  5
7F5
  8
0
 10
367.4197193490134
 20
964.4641397692832
 30
0.0
 42
0.0199682054813783
  0
VERTEX
  5
7F6
  8
0
 10
361.2824847590817
 20
970.1750181086994
 30
0.0
  0
SEQEND
  5
D0A
  8
0
  0
POLYLINE
  5
24F
  8
0
 66
     1
 10
0.0
 20
0.0
 30
0.0
  0
VERTEX
  5
7F7
  8
0
 10
369.9219043700062
 20
965.7062352006252
 30
0.0
 42
0.0027056146697424
  0
VERTEX
  5
7F8
  8
0
 10
367.4197193487765
 20
964.4641397691986
 30
0.0
  0
SEQEND
  5
D0B
  8
0
  0
POLYLINE
  5
250
  8
0
 66
     1
 10
0.0
 20
0.0
 30
0.0
  0
VERTEX
  5
7F9
  8
0
 10
369.0835855150154
 20
974.0475181543419
 30
0.0
 42
0.0199682054813744
  0
VERTEX
  5
7FA
  8
0
 10
369.9219043697811
 20
965.7062352004347
 30
0.0
  0
SEQEND
  5
D0C
  8
0
  0
POLYLINE
  5
251
  8
0
 66
     1
 10
0.0
 20
0.0
 30
0.0
  0
VERTEX
  5
7FB
  8
0
 10
377.1771885033343
 20
969.1203127637717
 30
0.0
 42
0.0199682054813783
  0
VERTEX
  5
7FC
  8
0
 10
371.2844840746937
 20
975.083182403141
 30
0.0
  0
SEQEND
  5
D0D
  8
0
  0
POLYLINE
  5
252
  8
0
 66
     1
 10
0.0
 20
0.0
 30
0.0
  0
VERTEX
  5
7FD
  8
0
 10
379.7291922410907
 20
970.2565380328912
 30
0.0
 42
0.0027056146697607
  0
VERTEX
  5
7FE
  8
0
 10
377.1771885030803
 20
969.1203127637144
 30
0.0
  0
SEQEND
  5
D0E
  8
0
  0
POLYLINE
  5
253
  8
0
 66
     1
 10
0.0
 20
0.0
 30
0.0
  0
VERTEX
  5
7FF
  8
0
 10
379.2409054108317
 20
978.6256094144081
 30
0.0
 42
0.0199682054813765
  0
VERTEX
  5
800
  8
0
 10
379.7291922408952
 20
970.2565380327693
 30
0.0
  0
SEQEND
  5
D0F
  8
0
  0
POLYLINE
  5
254
  8
0
 66
     1
 10
0.0
 20
0.0
 30
0.0
  0
VERTEX
  5
801
  8
0
 10
387.1210789873563
 20
973.363801103833
 30
0.0
 42
0.0199682054813817
  0
VERTEX
  5
802
  8
0
 10
381.4832425259252
 20
979.5682011436146
 30
0.0
  0
SEQEND
  5
D10
  8
0
  0
POLYLINE
  5
255
  8
0
 66
     1
 10
0.0
 20
0.0
 30
0.0
  0
VERTEX
  5
803
  8
0
 10
389.7184243602804
 20
974.3921628855093
 30
0.0
 42
0.0027056146697476
  0
VERTEX
  5
804
  8
0
 10
387.1210789871982
 20
973.363801103785
 30
0.0
  0
SEQEND
  5
D11
  8
0
  0
POLYLINE
  5
256
  8
0
 66
     1
 10
0.0
 20
0.0
 30
0.0
  0
VERTEX
  5
805
  8
0
 10
389.5810261757479
 20
982.7743404997351
 30
0.0
 42
0.0199682054813752
  0
VERTEX
  5
806
  8
0
 10
389.7184243600885
 20
974.3921628853947
 30
0.0
  0
SEQEND
  5
D12
  8
0
  0
POLYLINE
  5
257
  8
0
 66
     1
 10
0.0
 20
0.0
 30
0.0
  0
VERTEX
  5
807
  8
0
 10
397.2339458383449
 20
977.187160269107
 30
0.0
 42
0.0199682054813819
  0
VERTEX
  5
808
  8
0
 10
391.8608680250275
 20
983.6222060833614
 30
0.0
  0
SEQEND
  5
D13
  8
0
  0
POLYLINE
  5
258
  8
0
 66
     1
 10
0.0
 20
0.0
 30
0.0
  0
VERTEX
  5
809
  8
0
 10
399.8720762199167
 20
978.1058544673211
 30
0.0
 42
0.0027056146697654
  0
VERTEX
  5
80A
  8
0
 10
397.2339458381358
 20
977.1871602690563
 30
0.0
  0
SEQEND
  5
D14
  8
0
  0
POLYLINE
  5
259
  8
0
 66
     1
 10
0.0
 20
0.0
 30
0.0
  0
VERTEX
  5
80B
  8
0
 10
400.0858077242252
 20
986.4864331263806
 30
0.0
 42
0.0199682054813736
  0
VERTEX
  5
80C
  8
0
 10
399.8720762197393
 20
978.1058544671588
 30
0.0
  0
SEQEND
  5
D15
  8
0
  0
POLYLINE
  5
25A
  8
0
 66
     1
 10
0.0
 20
0.0
 30
0.0
  0
VERTEX
  5
80D
  8
0
 10
407.4980476513566
 20
980.5836827883005
 30
0.0
 42
0.019968205481377
  0
VERTEX
  5
80E
  8
0
 10
402.3991546904256
 20
987.2380851200209
 30
0.0
  0
SEQEND
  5
D16
  8
0
  0
POLYLINE
  5
25B
  8
0
 66
     1
 10
0.0
 20
0.0
 30
0.0
  0
VERTEX
  5
80F
  8
0
 10
410.172334864499
 20
981.3910977012152
 30
0.0
 42
0.0027056146697489
  0
VERTEX
  5
810
  8
0
 10
407.4980476511546
 20
980.5836827882096
 30
0.0
  0
SEQEND
  5
D17
  8
0
  0
POLYLINE
  5
25C
  8
0
 66
     1
 10
0.0
 20
0.0
 30
0.0
  0
VERTEX
  5
811
  8
0
 10
410.736821099946
 20
989.7553750225503
 30
0.0
 42
0.019968205481382
  0
VERTEX
  5
812
  8
0
 10
410.1723348643189
 20
981.3910977011554
 30
0.0
  0
SEQEND
  5
D18
  8
0
  0
POLYLINE
  5
25D
  8
0
 66
     1
 10
0.0
 20
0.0
 30
0.0
  0
VERTEX
  5
813
  8
0
 10
417.8953777041489
 20
983.5474100067089
 30
0.0
 42
0.0199682054813799
  0
VERTEX
  5
814
  8
0
 10
413.0796147864697
 20
990.409494773029
 30
0.0
  0
SEQEND
  5
D19
  8
0
  0
POLYLINE
  5
25E
  8
0
 66
     1
 10
0.0
 20
0.0
 30
0.0
  0
VERTEX
  5
815
  8
0
 10
420.6011301398842
 20
984.2421291542181
 30
0.0
 42
0.0027056146688862
  0
VERTEX
  5
816
  8
0
 10
417.8953777043253
 20
983.5474100068078
 30
0.0
  0
SEQEND
  5
D1A
  8
0
  0
POLYLINE
  5
25F
  8
0
 66
     1
 10
0.0
 20
0.0
 30
0.0
  0
VERTEX
  5
817
  8
0
 10
421.5153808062194
 20
992.5754313531844
 30
0.0
 42
0.0199682054813805
  0
VERTEX
  5
818
  8
0
 10
420.6011301401221
 20
984.2421291542397
 30
0.0
  0
SEQEND
  5
D1B
  8
0
  0
POLYLINE
  5
260
  8
0
 66
     1
 10
0.0
 20
0.0
 30
0.0
  0
VERTEX
  5
819
  8
0
 10
428.4076955467504
 20
986.0731425399186
 30
0.0
 42
0.0199682054813815
  0
VERTEX
  5
81A
  8
0
 10
423.8835111568895
 20
993.1308713124037
 30
0.0
  0
SEQEND
  5
D1C
  8
0
  0
POLYLINE
  5
261
  8
0
 66
     1
 10
0.0
 20
0.0
 30
0.0
  0
VERTEX
  5
81B
  8
0
 10
431.1401663967336
 20
986.6539471486898
 30
0.0
 42
0.002705614669763
  0
VERTEX
  5
81C
  8
0
 10
428.4076955464823
 20
986.0731425398968
 30
0.0
  0
SEQEND
  5
D1D
  8
0
  0
POLYLINE
  5
262
  8
0
 66
     1
 10
0.0
 20
0.0
 30
0.0
  0
VERTEX
  5
81D
  8
0
 10
432.4025775867443
 20
994.9416547813913
 30
0.0
 42
0.019968205481381
  0
VERTEX
  5
81E
  8
0
 10
431.140166396509
 20
986.653947148625
 30
0.0
  0
SEQEND
  5
D1E
  8
0
  0
POLYLINE
  5
263
  8
0
 66
     1
 10
0.0
 20
0.0
 30
0.0
  0
VERTEX
  5
81F
  8
0
 10
439.0165590014065
 20
988.1564493946943
 30
0.0
 42
0.0199682054813789
  0
VERTEX
  5
820
  8
0
 10
434.7918900961097
 20
995.3974405188484
 30
0.0
  0
SEQEND
  5
D1F
  8
0
  0
POLYLINE
  5
264
  8
0
 66
     1
 10
0.0
 20
0.0
 30
0.0
  0
VERTEX
  5
821
  8
0
 10
441.7709545829817
 20
988.6223205360483
 30
0.0
 42
0.0027056146697515
  0
VERTEX
  5
822
  8
0
 10
439.0165590012114
 20
988.1564493947232
 30
0.0
  0
SEQEND
  5
D20
  8
0
  0
POLYLINE
  5
265
  8
0
 66
     1
 10
0.0
 20
0.0
 30
0.0
  0
VERTEX
  5
823
  8
0
 10
443.3793115989427
 20
996.8498941472036
 30
0.0
 42
0.0199682054813813
  0
VERTEX
  5
824
  8
0
 10
441.7709545827682
 20
988.6223205359894
 30
0.0
  0
SEQEND
  5
D21
  8
0
  0
POLYLINE
  5
266
  8
0
 66
     1
 10
0.0
 20
0.0
 30
0.0
  0
VERTEX
  5
825
  8
0
 10
449.7033565168452
 20
989.7936757429169
 30
0.0
 42
0.0199682054813824
  0
VERTEX
  5
826
  8
0
 10
445.7856146009256
 20
997.2052260598015
 30
0.0
  0
SEQEND
  5
D22
  8
0
  0
POLYLINE
  5
267
  8
0
 66
     1
 10
0.0
 20
0.0
 30
0.0
  0
VERTEX
  5
827
  8
0
 10
452.4748446836587
 20
990.143796120453
 30
0.0
 42
0.0027056146688799
  0
VERTEX
  5
828
  8
0
 10
449.7033565170671
 20
989.7936757429967
 30
0.0
  0
SEQEND
  5
D23
  8
0
  0
POLYLINE
  5
268
  8
0
 66
     1
 10
0.0
 20
0.0
 30
0.0
  0
VERTEX
  5
829
  8
0
 10
454.4263259212956
 20
998.2968017502502
 30
0.0
 42
0.0199682054813818
  0
VERTEX
  5
82A
  8
0
 10
452.4748446839115
 20
990.1437961204516
 30
0.0
  0
SEQEND
  5
D24
  8
0
  0
POLYLINE
  5
269
  8
0
 66
     1
 10
0.0
 20
0.0
 30
0.0
  0
VERTEX
  5
82B
  8
0
 10
460.4493398188359
 20
990.981949333186
 30
0.0
 42
0.019968205481384
  0
VERTEX
  5
82C
  8
0
 10
456.8453979428721
 20
998.5510564650825
 30
0.0
  0
SEQEND
  5
D25
  8
0
  0
POLYLINE
  5
26A
  8
0
 66
     1
 10
0.0
 20
0.0
 30
0.0
  0
VERTEX
  5
82D
  8
0
 10
463.2330584397276
 20
991.2157047169475
 30
0.0
 42
0.0027056146697663
  0
VERTEX
  5
82E
  8
0
 10
460.4493398186056
 20
990.9819493332562
 30
0.0
  0
SEQEND
  5
D26
  8
0
  0
POLYLINE
  5
26B
  8
0
 66
     1
 10
0.0
 20
0.0
 30
0.0
  0
VERTEX
  5
82F
  8
0
 10
465.5242403369535
 20
999.2798392229832
 30
0.0
 42
0.0199682054813768
  0
VERTEX
  5
830
  8
0
 10
463.2330584395677
 20
991.2157047168811
 30
0.0
  0
SEQEND
  5
D27
  8
0
  0
POLYLINE
  5
26C
  8
0
 66
     1
 10
0.0
 20
0.0
 30
0.0
  0
VERTEX
  5
831
  8
0
 10
471.2356568011026
 20
991.7191855299365
 30
0.0
 42
0.0199682054813812
  0
VERTEX
  5
832
  8
0
 10
467.9518375037715
 20
999.4325706909382
 30
0.0
  0
SEQEND
  5
D28
  8
0
  0
POLYLINE
  5
26D
  8
0
 66
     1
 10
0.0
 20
0.0
 30
0.0
  0
VERTEX
  5
833
  8
0
 10
474.0267222869266
 20
991.8361658334148
 30
0.0
 42
0.0027056146693465
  0
VERTEX
  5
834
  8
0
 10
471.2356568008889
 20
991.7191855299824
 30
0.0
  0
SEQEND
  5
D29
  8
0
  0
POLYLINE
  5
26E
  8
0
 66
     1
 10
0.0
 20
0.0
 30
0.0
  0
VERTEX
  5
835
  8
0
 10
476.6535853329095
 20
999.7972819836883
 30
0.0
 42
0.0199682054813788
  0
VERTEX
  5
836
  8
0
 10
474.0267222871187
 20
991.8361658334194
 30
0.0
  0
SEQEND
  5
D2A
  8
0
  0
POLYLINE
  5
26F
  8
0
 66
     1
 10
0.0
 20
0.0
 30
0.0
  0
VERTEX
  5
837
  8
0
 10
482.0433845984842
 20
992.0040909703304
 30
0.0
 42
0.0199682054813759
  0
VERTEX
  5
838
  8
0
 10
479.0854488146834
 20
999.8482222618383
 30
0.0
  0
SEQEND
  5
D2B
  8
0
  0
POLYLINE
  5
270
  8
0
 66
     1
 10
0.0
 20
0.0
 30
0.0
  0
VERTEX
  5
839
  8
0
 10
484.8369004727929
 20
992.0040909702985
 30
0.0
 42
0.0027056146697342
  0
VERTEX
  5
83A
  8
0
 10
482.0433845982655
 20
992.0040909702985
 30
0.0
  0
SEQEND
  5
D2C
  8
0
  0
POLYLINE
  5
271
  8
0
 66
     1
 10
0.0
 20
0.0
 30
0.0
  0
VERTEX
  5
83B
  8
0
 10
487.7948362563207
 20
999.8482222618192
 30
0.0
 42
0.0199682054813795
  0
VERTEX
  5
83C
  8
0
 10
484.8369004725212
 20
992.0040909703149
 30
0.0
  0
SEQEND
  5
D2D
  8
0
  0
POLYLINE
  5
272
  8
0
 66
     1
 10
0.0
 20
0.0
 30
0.0
  0
VERTEX
  5
83D
  8
0
 10
492.8535627838781
 20
991.8361658333305
 30
0.0
 42
0.0199682054813804
  0
VERTEX
  5
83E
  8
0
 10
490.2266997380864
 20
999.7972819836024
 30
0.0
  0
SEQEND
  5
D2E
  8
0
  0
POLYLINE
  5
273
  8
0
 66
     1
 10
0.0
 20
0.0
 30
0.0
  0
VERTEX
  5
83F
  8
0
 10
495.6446282701577
 20
991.7191855299153
 30
0.0
 42
0.0027056146697699
  0
VERTEX
  5
840
  8
0
 10
492.8535627836955
 20
991.836165833363
 30
0.0
  0
SEQEND
  5
D2F
  8
0
  0
POLYLINE
  5
274
  8
0
 66
     1
 10
0.0
 20
0.0
 30
0.0
  0
VERTEX
  5
841
  8
0
 10
498.9284475672092
 20
999.4325706909277
 30
0.0
 42
0.0199682054813741
  0
VERTEX
  5
842
  8
0
 10
495.6446282698792
 20
991.7191855299278
 30
0.0
  0
SEQEND
  5
D30
  8
0
  0
POLYLINE
  5
275
  8
0
 66
     1
 10
0.0
 20
0.0
 30
0.0
  0
VERTEX
  5
843
  8
0
 10
503.6472266314518
 20
991.2157047168959
 30
0.0
 42
0.0199682054813797
  0
VERTEX
  5
844
  8
0
 10
501.3560447340645
 20
999.2798392230026
 30
0.0
  0
SEQEND
  5
D31
  8
0
  0
POLYLINE
  5
276
  8
0
 66
     1
 10
0.0
 20
0.0
 30
0.0
  0
VERTEX
  5
845
  8
0
 10
506.4309452523688
 20
990.9819493332494
 30
0.0
 42
0.0027056146697527
  0
VERTEX
  5
846
  8
0
 10
503.6472266312329
 20
991.2157047169418
 30
0.0
  0
SEQEND
  5
D32
  8
0
  0
POLYLINE
  5
277
  8
0
 66
     1
 10
0.0
 20
0.0
 30
0.0
  0
VERTEX
  5
847
  8
0
 10
510.034887128192
 20
998.5510564650796
 30
0.0
 42
0.019968205481384
  0
VERTEX
  5
848
  8
0
 10
506.4309452522282
 20
990.9819493331835
 30
0.0
  0
SEQEND
  5
D33
  8
0
  0
POLYLINE
  5
278
  8
0
 66
     1
 10
0.0
 20
0.0
 30
0.0
  0
VERTEX
  5
849
  8
0
 10
514.4054403872003
 20
990.143796120362
 30
0.0
 42
0.0199682054813799
  0
VERTEX
  5
84A
  8
0
 10
512.4539591498153
 20
998.296801750165
 30
0.0
  0
SEQEND
  5
D34
  8
0
  0
POLYLINE
  5
279
  8
0
 66
     1
 10
0.0
 20
0.0
 30
0.0
  0
VERTEX
  5
84B
  8
0
 10
517.1769285543751
 20
989.7936757429253
 30
0.0
 42
0.0027056146697745
  0
VERTEX
  5
84C
  8
0
 10
514.4054403869277
 20
990.1437961204898
 30
0.0
  0
SEQEND
  5
D35
  8
0
  0
POLYLINE
  5
27A
  8
0
 66
     1
 10
0.0
 20
0.0
 30
0.0
  0
VERTEX
  5
84D
  8
0
 10
521.0946704700423
 20
997.205226059796
 30
0.0
 42
0.0199682054813771
  0
VERTEX
  5
84E
  8
0
 10
517.1769285541232
 20
989.7936757429123
 30
0.0
  0
SEQEND
  5
D36
  8
0
  0
POLYLINE
  5
27B
  8
0
 66
     1
 10
0.0
 20
0.0
 30
0.0
  0
VERTEX
  5
84F
  8
0
 10
525.1093304883268
 20
988.6223205358953
 30
0.0
 42
0.0199682054813805
  0
VERTEX
  5
850
  8
0
 10
523.5009734721518
 20
996.849894147112
 30
0.0
  0
SEQEND
  5
D37
  8
0
  0
POLYLINE
  5
27C
  8
0
 66
     1
 10
0.0
 20
0.0
 30
0.0
  0
VERTEX
  5
851
  8
0
 10
527.8637260698824
 20
988.1564493947066
 30
0.0
 42
0.0027056146697568
  0
VERTEX
  5
852
  8
0
 10
525.1093304881283
 20
988.622320536029
 30
0.0
  0
SEQEND
  5
D38
  8
0
  0
POLYLINE
  5
27D
  8
0
 66
     1
 10
0.0
 20
0.0
 30
0.0
  0
VERTEX
  5
853
  8
0
 10
532.0883949749634
 20
995.3974405188388
 30
0.0
 42
0.0199682054813818
  0
VERTEX
  5
854
  8
0
 10
527.8637260696676
 20
988.1564493946861
 30
0.0
  0
SEQEND
  5
D39
  8
0
  0
POLYLINE
  5
27E
  8
0
 66
     1
 10
0.0
 20
0.0
 30
0.0
  0
VERTEX
  5
855
  8
0
 10
535.7401186744835
 20
986.6539471486286
 30
0.0
 42
0.019968205481379
  0
VERTEX
  5
856
  8
0
 10
534.477707484248
 20
994.9416547813979
 30
0.0
  0
SEQEND
  5
D3A
  8
0
  0
POLYLINE
  5
27F
  8
0
 66
     1
 10
0.0
 20
0.0
 30
0.0
  0
VERTEX
  5
857
  8
0
 10
538.4725895245865
 20
986.0731425398855
 30
0.0
 42
0.0027056146697675
  0
VERTEX
  5
858
  8
0
 10
535.7401186743398
 20
986.6539471486775
 30
0.0
  0
SEQEND
  5
D3B
  8
0
  0
POLYLINE
  5
280
  8
0
 66
     1
 10
0.0
 20
0.0
 30
0.0
  0
VERTEX
  5
859
  8
0
 10
542.9967739141819
 20
993.130871312395
 30
0.0
 42
0.0199682054813793
  0
VERTEX
  5
85A
  8
0
 10
538.4725895243216
 20
986.0731425399109
 30
0.0
  0
SEQEND
  5
D3C
  8
0
  0
POLYLINE
  5
281
  8
0
 66
     1
 10
0.0
 20
0.0
 30
0.0
  0
VERTEX
  5
85B
  8
0
 10
546.2791549308718
 20
984.242129154242
 30
0.0
 42
0.0199682054813831
  0
VERTEX
  5
85C
  8
0
 10
545.3649042647742
 20
992.5754313531896
 30
0.0
  0
SEQEND
  5
D3D
  8
0
  0
POLYLINE
  5
282
  8
0
 66
     1
 10
0.0
 20
0.0
 30
0.0
  0
VERTEX
  5
85D
  8
0
 10
548.9849073666742
 20
983.5474100068019
 30
0.0
 42
0.0027056146693166
  0
VERTEX
  5
85E
  8
0
 10
546.2791549306849
 20
984.2421291543202
 30
0.0
  0
SEQEND
  5
D3E
  8
0
  0
POLYLINE
  5
283
  8
0
 66
     1
 10
0.0
 20
0.0
 30
0.0
  0
VERTEX
  5
85F
  8
0
 10
553.8006702846142
 20
990.4094947731097
 30
0.0
 42
0.0199682054813783
  0
VERTEX
  5
860
  8
0
 10
548.9849073669363
 20
983.5474100067919
 30
0.0
  0
SEQEND
  5
D3F
  8
0
  0
POLYLINE
  5
284
  8
0
 66
     1
 10
0.0
 20
0.0
 30
0.0
  0
VERTEX
  5
861
  8
0
 10
556.7079502067002
 20
981.391097701157
 30
0.0
 42
0.0199682054813763
  0
VERTEX
  5
862
  8
0
 10
556.1434639710726
 20
989.7553750225567
 30
0.0
  0
SEQEND
  5
D40
  8
0
  0
POLYLINE
  5
285
  8
0
 66
     1
 10
0.0
 20
0.0
 30
0.0
  0
VERTEX
  5
863
  8
0
 10
559.3822374198835
 20
980.5836827881686
 30
0.0
 42
0.0027056146697403
  0
VERTEX
  5
864
  8
0
 10
556.7079502065505
 20
981.3910977011711
 30
0.0
  0
SEQEND
  5
D41
  8
0
  0
POLYLINE
  5
286
  8
0
 66
     1
 10
0.0
 20
0.0
 30
0.0
  0
VERTEX
  5
865
  8
0
 10
564.4811303805757
 20
987.2380851199854
 30
0.0
 42
0.0199682054813794
  0
VERTEX
  5
866
  8
0
 10
559.3822374196475
 20
980.5836827882684
 30
0.0
  0
SEQEND
  5
D42
  8
0
  0
POLYLINE
  5
287
  8
0
 66
     1
 10
0.0
 20
0.0
 30
0.0
  0
VERTEX
  5
867
  8
0
 10
567.0082088513568
 20
978.1058544671583
 30
0.0
 42
0.0199682054813805
  0
VERTEX
  5
868
  8
0
 10
566.7944773468707
 20
986.4864331263831
 30
0.0
  0
SEQEND
  5
D43
  8
0
  0
POLYLINE
  5
288
  8
0
 66
     1
 10
0.0
 20
0.0
 30
0.0
  0
VERTEX
  5
869
  8
0
 10
569.6463392329474
 20
977.187160269044
 30
0.0
 42
0.0027056146697519
  0
VERTEX
  5
86A
  8
0
 10
567.008208851169
 20
978.105854467308
 30
0.0
  0
SEQEND
  5
D44
  8
0
  0
POLYLINE
  5
289
  8
0
 66
     1
 10
0.0
 20
0.0
 30
0.0
  0
VERTEX
  5
86B
  8
0
 10
575.0194170459893
 20
983.6222060833087
 30
0.0
 42
0.01996820548138
  0
VERTEX
  5
86C
  8
0
 10
569.6463392326759
 20
977.1871602690591
 30
0.0
  0
SEQEND
  5
D45
  8
0
  0
POLYLINE
  5
28A
  8
0
 66
     1
 10
0.0
 20
0.0
 30
0.0
  0
VERTEX
  5
86D
  8
0
 10
577.1618607110177
 20
974.3921628853919
 30
0.0
 42
0.0199682054813784
  0
VERTEX
  5
86E
  8
0
 10
577.2992588953582
 20
982.774340499736
 30
0.0
  0
SEQEND
  5
D46
  8
0
  0
POLYLINE
  5
28B
  8
0
 66
     1
 10
0.0
 20
0.0
 30
0.0
  0
VERTEX
  5
86F
  8
0
 10
579.759206083882
 20
973.3638011037389
 30
0.0
 42
0.0027056146697584
  0
VERTEX
  5
870
  8
0
 10
577.1618607107994
 20
974.3921628854636
 30
0.0
  0
SEQEND
  5
D47
  8
0
  0
POLYLINE
  5
28C
  8
0
 66
     1
 10
0.0
 20
0.0
 30
0.0
  0
VERTEX
  5
871
  8
0
 10
585.3970425450725
 20
979.5682011436762
 30
0.0
 42
0.019968205481377
  0
VERTEX
  5
872
  8
0
 10
579.7592060836444
 20
973.3638011038978
 30
0.0
  0
SEQEND
  5
D48
  8
0
  0
POLYLINE
  5
28D
  8
0
 66
     1
 10
0.0
 20
0.0
 30
0.0
  0
VERTEX
  5
873
  8
0
 10
587.151092830137
 20
970.2565380327618
 30
0.0
 42
0.0199682054813775
  0
VERTEX
  5
874
  8
0
 10
587.6393796602008
 20
978.6256094144065
 30
0.0
  0
SEQEND
  5
D49
  8
0
  0
POLYLINE
  5
28E
  8
0
 66
     1
 10
0.0
 20
0.0
 30
0.0
  0
VERTEX
  5
875
  8
0
 10
589.7030965679799
 20
969.1203127637242
 30
0.0
 42
0.002705614669778
  0
VERTEX
  5
876
  8
0
 10
587.1510928299574
 20
970.2565380329064
 30
0.0
  0
SEQEND
  5
D4A
  8
0
  0
POLYLINE
  5
28F
  8
0
 66
     1
 10
0.0
 20
0.0
 30
0.0
  0
VERTEX
  5
877
  8
0
 10
595.5958009963867
 20
975.0831824031178
 30
0.0
 42
0.0199682054813842
  0
VERTEX
  5
878
  8
0
 10
589.7030965677477
 20
969.1203127637501
 30
0.0
  0
SEQEND
  5
D4B
  8
0
  0
POLYLINE
  5
290
  8
0
 66
     1
 10
0.0
 20
0.0
 30
0.0
  0
VERTEX
  5
879
  8
0
 10
596.9583807012032
 20
965.7062352005311
 30
0.0
 42
0.0199682054813774
  0
VERTEX
  5
87A
  8
0
 10
597.7966995559689
 20
974.0475181544404
 30
0.0
  0
SEQEND
  5
D4C
  8
0
  0
POLYLINE
  5
291
  8
0
 66
     1
 10
0.0
 20
0.0
 30
0.0
  0
VERTEX
  5
87B
  8
0
 10
599.46056572221
 20
964.4641397691693
 30
0.0
 42
0.0027056146697536
  0
VERTEX
  5
87C
  8
0
 10
596.9583807010056
 20
965.7062352005831
 30
0.0
  0
SEQEND
  5
D4D
  8
0
  0
POLYLINE
  5
292
  8
0
 66
     1
 10
0.0
 20
0.0
 30
0.0
  0
VERTEX
  5
87D
  8
0
 10
605.5978003119919
 20
970.1750181086819
 30
0.0
 42
0.0199682054813788
  0
VERTEX
  5
87E
  8
0
 10
599.4605657220616
 20
964.4641397692668
 30
0.0
  0
SEQEND
  5
D4E
  8
0
  0
POLYLINE
  5
293
  8
0
 66
     1
 10
0.0
 20
0.0
 30
0.0
  0
VERTEX
  5
87F
  8
0
 10
606.5665190088155
 20
960.7492371659995
 30
0.0
 42
0.019968205481378
  0
VERTEX
  5
880
  8
0
 10
607.75339919215
 20
969.0480982474904
 30
0.0
  0
SEQEND
  5
D4F
  8
0
  0
POLYLINE
  5
294
  8
0
 66
     1
 10
0.0
 20
0.0
 30
0.0
  0
VERTEX
  5
881
  8
0
 10
609.0144956303347
 20
959.4034506299448
 30
0.0
 42
0.0027056146697469
  0
VERTEX
  5
882
  8
0
 10
606.5665190086813
 20
960.749237166158
 30
0.0
  0
SEQEND
  5
D50
  8
0
  0
POLYLINE
  5
295
  8
0
 66
     1
 10
0.0
 20
0.0
 30
0.0
  0
VERTEX
  5
883
  8
0
 10
615.3854935863508
 20
964.8523188483329
 30
0.0
 42
0.0199682054813814
  0
VERTEX
  5
884
  8
0
 10
609.0144956300476
 20
959.4034506300487
 30
0.0
  0
SEQEND
  5
D51
  8
0
  0
POLYLINE
  5
296
  8
0
 66
     1
 10
0.0
 20
0.0
 30
0.0
  0
VERTEX
  5
885
  8
0
 10
615.9586518134279
 20
955.394240188251
 30
0.0
 42
0.0199682054813794
  0
VERTEX
  5
886
  8
0
 10
617.4920111341842
 20
963.6361203750106
 30
0.0
  0
SEQEND
  5
D52
  8
0
  0
POLYLINE
  5
297
  8
0
 66
     1
 10
0.0
 20
0.0
 30
0.0
  0
VERTEX
  5
887
  8
0
 10
618.3481254521237
 20
953.9471235145146
 30
0.0
 42
0.0027056146693259
  0
VERTEX
  5
888
  8
0
 10
615.9586518132437
 20
955.3942401883984
 30
0.0
  0
SEQEND
  5
D53
  8
0
  0
POLYLINE
  5
298
  8
0
 66
     1
 10
0.0
 20
0.0
 30
0.0
  0
VERTEX
  5
889
  8
0
 10
624.941709879756
 20
959.1244224450983
 30
0.0
 42
0.0199682054813804
  0
VERTEX
  5
88A
  8
0
 10
618.3481254523747
 20
953.9471235143372
 30
0.0
  0
SEQEND
  5
D54
  8
0
  0
POLYLINE
  5
299
  8
0
 66
     1
 10
0.0
 20
0.0
 30
0.0
  0
VERTEX
  5
88B
  8
0
 10
625.1183021226905
 20
949.6506387515527
 30
0.0
 42
0.0199682054813813
  0
VERTEX
  5
88C
  8
0
 10
626.995450547581
 20
957.8210789851238
 30
0.0
  0
SEQEND
  5
D55
  8
0
  0
POLYLINE
  5
29A
  8
0
 66
     1
 10
0.0
 20
0.0
 30
0.0
  0
VERTEX
  5
88D
  8
0
 10
627.4450808307108
 20
948.1047306740371
 30
0.0
 42
0.0027056146697667
  0
VERTEX
  5
88E
  8
0
 10
625.1183021225665
 20
949.6506387516707
 30
0.0
  0
SEQEND
  5
D56
  8
0
  0
POLYLINE
  5
29B
  8
0
 66
     1
 10
0.0
 20
0.0
 30
0.0
  0
VERTEX
  5
88F
  8
0
 10
634.2496843413273
 20
953.001377575799
 30
0.0
 42
0.0199682054813786
  0
VERTEX
  5
890
  8
0
 10
627.4450808304725
 20
948.1047306741469
 30
0.0
  0
SEQEND
  5
D57
  8
0
  0
POLYLINE
  5
29C
  8
0
 66
     1
 10
0.0
 20
0.0
 30
0.0
  0
VERTEX
  5
891
  8
0
 10
634.0294007975147
 20
943.5285090845451
 30
0.0
 42
0.0199682054813795
  0
VERTEX
  5
892
  8
0
 10
636.2470451703434
 20
951.6131756364265
 30
0.0
  0
SEQEND
  5
D58
  8
0
  0
POLYLINE
  5
29D
  8
0
 66
     1
 10
0.0
 20
0.0
 30
0.0
  0
VERTEX
  5
893
  8
0
 10
636.2894026135552
 20
941.8865216518026
 30
0.0
 42
0.0027056146693302
  0
VERTEX
  5
894
  8
0
 10
634.0294007973614
 20
943.5285090846338
 30
0.0
  0
SEQEND
  5
D59
  8
0
  0
POLYLINE
  5
29E
  8
0
 66
     1
 10
0.0
 20
0.0
 30
0.0
  0
VERTEX
  5
895
  8
0
 10
643.2930876212145
 20
946.4939261416806
 30
0.0
 42
0.019968205481378
  0
VERTEX
  5
896
  8
0
 10
636.2894026136573
 20
941.88652165169
 30
0.0
  0
SEQEND
  5
D5A
  8
0
  0
POLYLINE
  5
29F
  8
0
 66
     1
 10
0.0
 20
0.0
 30
0.0
  0
VERTEX
  5
897
  8
0
 10
642.6763147427541
 20
937.0385914828809
 30
0.0
 42
0.0199682054813777
  0
VERTEX
  5
898
  8
0
 10
645.230564561731
 20
945.0233011007532
 30
0.0
  0
SEQEND
  5
D5B
  8
0
  0
POLYLINE
  5
2A0
  8
0
 66
     1
 10
0.0
 20
0.0
 30
0.0
  0
VERTEX
  5
899
  8
0
 10
644.865574856409
 20
935.303405298453
 30
0.0
 42
0.0027056146697457
  0
VERTEX
  5
89A
  8
0
 10
642.676314742622
 20
937.0385914830753
 30
0.0
  0
SEQEND
  5
D5C
  8
0
  0
POLYLINE
  5
2A1
  8
0
 66
     1
 10
0.0
 20
0.0
 30
0.0
  0
VERTEX
  5
89B
  8
0
 10
652.0560545171261
 20
939.6134844237657
 30
0.0
 42
0.0199682054813762
  0
VERTEX
  5
89C
  8
0
 10
644.8655748562444
 20
935.3034052985228
 30
0.0
  0
SEQEND
  5
D5D
  8
0
  0
POLYLINE
  5
2A2
  8
0
 66
     1
 10
0.0
 20
0.0
 30
0.0
  0
VERTEX
  5
89D
  8
0
 10
651.0438743331504
 20
930.1922714674657
 30
0.0
 42
0.0199682054813765
  0
VERTEX
  5
89E
  8
0
 10
653.9302485761514
 20
938.0630162574329
 30
0.0
  0
SEQEND
  5
D5E
  8
0
  0
POLYLINE
  5
2A3
  8
0
 66
     1
 10
0.0
 20
0.0
 30
0.0
  0
VERTEX
  5
89F
  8
0
 10
653.1585520378128
 20
928.3669306376293
 30
0.0
 42
0.0027056146697709
  0
VERTEX
  5
8A0
  8
0
 10
651.0438743329214
 20
930.1922714676097
 30
0.0
  0
SEQEND
  5
D5F
  8
0
  0
POLYLINE
  5
2A4
  8
0
 66
     1
 10
0.0
 20
0.0
 30
0.0
  0
VERTEX
  5
8A1
  8
0
 10
660.5232118072133
 20
932.3721230549389
 30
0.0
 42
0.0199682054813828
  0
VERTEX
  5
8A2
  8
0
 10
653.1585520376707
 20
928.366930637802
 30
0.0
  0
SEQEND
  5
D60
  8
0
  0
POLYLINE
  5
2A5
  8
0
 66
     1
 10
0.0
 20
0.0
 30
0.0
  0
VERTEX
  5
8A3
  8
0
 10
659.1174000258168
 20
923.00155980997
 30
0.0
 42
0.0199682054813772
  0
VERTEX
  5
8A4
  8
0
 10
662.3308350116249
 20
930.7445318111776
 30
0.0
  0
SEQEND
  5
D61
  8
0
  0
POLYLINE
  5
2A6
  8
0
 66
     1
 10
0.0
 20
0.0
 30
0.0
  0
VERTEX
  5
8A5
  8
0
 10
661.1537854583505
 20
921.0892666028236
 30
0.0
 42
0.0027056146697567
  0
VERTEX
  5
8A6
  8
0
 10
659.1174000256385
 20
923.0015598100762
 30
0.0
  0
SEQEND
  5
D62
  8
0
  0
POLYLINE
  5
2A7
  8
0
 66
     1
 10
0.0
 20
0.0
 30
0.0
  0
VERTEX
  5
8A7
  8
0
 10
668.6797052205652
 20
924.7825458435412
 30
0.0
 42
0.019968205481382
  0
VERTEX
  5
8A8
  8
0
 10
661.1537854581277
 20
921.0892666029846
 30
0.0
  0
SEQEND
  5
D63
  8
0
  0
POLYLINE
  5
2A8
  8
0
 66
     1
 10
0.0
 20
0.0
 30
0.0
  0
VERTEX
  5
8A9
  8
0
 10
666.8827281132844
 20
915.4790714619204
 30
0.0
 42
0.0199682054813815
  0
VERTEX
  5
8AA
  8
0
 10
670.4175863850023
 20
923.0806868703982
 30
0.0
  0
SEQEND
  5
D64
  8
0
  0
POLYLINE
  5
2A9
  8
0
 66
     1
 10
0.0
 20
0.0
 30
0.0
  0
VERTEX
  5
8AB
  8
0
 10
668.8372487616232
 20
913.4831806896742
 30
0.0
 42
0.0027056146697632
  0
VERTEX
  5
8AC
  8
0
 10
666.8827281130775
 20
915.4790714621414
 30
0.0
  0
SEQEND
  5
D65
  8
0
  0
POLYLINE
  5
2AA
  8
0
 66
     1
 10
0.0
 20
0.0
 30
0.0
  0
VERTEX
  5
8AD
  8
0
 10
676.5112254962633
 20
916.8580674870624
 30
0.0
 42
0.0199682054813837
  0
VERTEX
  5
8AE
  8
0
 10
668.837248761515
 20
913.4831806898568
 30
0.0
  0
SEQEND
  5
D66
  8
0
  0
POLYLINE
  5
2AB
  8
0
 66
     1
 10
0.0
 20
0.0
 30
0.0
  0
VERTEX
  5
8AF
  8
0
 10
674.3262355713996
 20
907.6380034243042
 30
0.0
 42
0.0199682054813767
  0
VERTEX
  5
8B0
  8
0
 10
678.1763157864623
 20
915.0849264235727
 30
0.0
  0
SEQEND
  5
D67
  8
0
  0
POLYLINE
  5
2AC
  8
0
 66
     1
 10
0.0
 20
0.0
 30
0.0
  0
VERTEX
  5
8B1
  8
0
 10
676.1954625423307
 20
905.5620165574438
 30
0.0
 42
0.0027056146697546
  0
VERTEX
  5
8B2
  8
0
 10
674.3262355713377
 20
907.638003424485
 30
0.0
  0
SEQEND
  5
D68
  8
0
  0
POLYLINE
  5
2AD
  8
0
 66
     1
 10
0.0
 20
0.0
 30
0.0
  0
VERTEX
  5
8B3
  8
0
 10
684.0040334863243
 20
908.6125902132106
 30
0.0
 42
0.0199682054813742
  0
VERTEX
  5
8B4
  8
0
 10
676.1954625420967
 20
905.5620165575943
 30
0.0
  0
SEQEND
  5
D69
  8
0
  0
POLYLINE
  5
2AE
  8
0
 66
     1
 10
0.0
 20
0.0
 30
0.0
  0
VERTEX
  5
8B5
  8
0
 10
681.4348639588984
 20
899.4921115945975
 30
0.0
 42
0.0199682054813813
  0
VERTEX
  5
8B6
  8
0
 10
685.5934117683457
 20
906.7712777512407
 30
0.0
  0
SEQEND
  5
D6A
  8
0
  0
POLYLINE
  5
2AF
  8
0
 66
     1
 10
0.0
 20
0.0
 30
0.0
  0
VERTEX
  5
8B7
  8
0
 10
683.215517992669
 20
897.3396706199011
 30
0.0
 42
0.002705614668878
  0
VERTEX
  5
8B8
  8
0
 10
681.4348639590642
 20
899.4921115944486
 30
0.0
  0
SEQEND
  5
D6B
  8
0
  0
POLYLINE
  5
2B0
  8
0
 66
     1
 10
0.0
 20
0.0
 30
0.0
  0
VERTEX
  5
8B9
  8
0
 10
691.144984259669
 20
900.0605793909139
 30
0.0
 42
0.0199682054813742
  0
VERTEX
  5
8BA
  8
0
 10
683.2155179927634
 20
897.3396706196687
 30
0.0
  0
SEQEND
  5
D6C
  8
0
  0
POLYLINE
  5
2B1
  8
0
 66
     1
 10
0.0
 20
0.0
 30
0.0
  0
VERTEX
  5
8BB
  8
0
 10
688.1961423259529
 20
891.0556866352384
 30
0.0
 42
0.0199682054813787
  0
VERTEX
  5
8BC
  8
0
 10
692.6558622238404
 20
898.1543258183361
 30
0.0
  0
SEQEND
  5
D6D
  8
0
  0
POLYLINE
  5
2B2
  8
0
 66
     1
 10
0.0
 20
0.0
 30
0.0
  0
VERTEX
  5
8BD
  8
0
 10
689.8850995506455
 20
888.8305676651609
 30
0.0
 42
0.0027056146693154
  0
VERTEX
  5
8BE
  8
0
 10
688.1961423258213
 20
891.0556866353392
 30
0.0
  0
SEQEND
  5
D6E
  8
0
  0
POLYLINE
  5
2B3
  8
0
 66
     1
 10
0.0
 20
0.0
 30
0.0
  0
VERTEX
  5
8BF
  8
0
 10
697.9215501620608
 20
891.2170381533857
 30
0.0
 42
0.0199682054813799
  0
VERTEX
  5
8C0
  8
0
 10
689.8850995507639
 20
888.830567665069
 30
0.0
  0
SEQEND
  5
D6F
  8
0
  0
POLYLINE
  5
2B4
  8
0
 66
     1
 10
0.0
 20
0.0
 30
0.0
  0
VERTEX
  5
8C1
  8
0
 10
694.5982090927357
 20
882.3435289022142
 30
0.0
 42
0.0199682054813851
  0
VERTEX
  5
8C2
  8
0
 10
699.351277214944
 20
889.2491876865125
 30
0.0
  0
SEQEND
  5
D70
  8
0
  0
POLYLINE
  5
2B5
  8
0
 66
     1
 10
0.0
 20
0.0
 30
0.0
  0
VERTEX
  5
8C3
  8
0
 10
696.1925065035432
 20
880.0496355516477
 30
0.0
 42
0.0027056146692883
  0
VERTEX
  5
8C4
  8
0
 10
694.598209092662
 20
882.3435289023495
 30
0.0
  0
SEQEND
  5
D71
  8
0
  0
POLYLINE
  5
2B6
  8
0
 66
     1
 10
0.0
 20
0.0
 30
0.0
  0
VERTEX
  5
8C5
  8
0
 10
704.3218427940888
 20
882.0974810766938
 30
0.0
 42
0.0199682054813802
  0
VERTEX
  5
8C6
  8
0
 10
696.192506503575
 20
880.0496355514696
 30
0.0
  0
SEQEND
  5
D72
  8
0
  0
POLYLINE
  5
2B7
  8
0
 66
     1
 10
0.0
 20
0.0
 30
0.0
  0
VERTEX
  5
8C7
  8
0
 10
700.6298328588571
 20
873.3709224806474
 30
0.0
 42
0.0199682054813778
  0
VERTEX
  5
8C8
  8
0
 10
705.6679107087914
 20
880.0714859940725
 30
0.0
  0
SEQEND
  5
D73
  8
0
  0
POLYLINE
  5
2B8
  8
0
 66
     1
 10
0.0
 20
0.0
 30
0.0
  0
VERTEX
  5
8C9
  8
0
 10
702.1266735163194
 20
871.0122790180536
 30
0.0
 42
0.0027056146693168
  0
VERTEX
  5
8CA
  8
0
 10
700.6298328587884
 20
873.3709224808674
 30
0.0
  0
SEQEND
  5
D74
  8
0
  0
POLYLINE
  5
2B9
  8
0
 66
     1
 10
0.0
 20
0.0
 30
0.0
  0
VERTEX
  5
8CB
  8
0
 10
710.3346338678386
 20
872.7179069630079
 30
0.0
 42
0.0199682054813787
  0
VERTEX
  5
8CC
  8
0
 10
702.1266735163333
 20
871.0122790177909
 30
0.0
  0
SEQEND
  5
D75
  8
0
  0
POLYLINE
  5
2BA
  8
0
 66
     1
 10
0.0
 20
0.0
 30
0.0
  0
VERTEX
  5
8CD
  8
0
 10
706.2804321065212
 20
864.1536083711327
 30
0.0
 42
0.0199682054813742
  0
VERTEX
  5
8CE
  8
0
 10
711.5946811836861
 20
870.6373215484201
 30
0.0
  0
SEQEND
  5
D76
  8
0
  0
POLYLINE
  5
2BB
  8
0
 66
     1
 10
0.0
 20
0.0
 30
0.0
  0
VERTEX
  5
8CF
  8
0
 10
707.6771900437054
 20
861.7343526581382
 30
0.0
 42
0.0027056146697601
  0
VERTEX
  5
8D0
  8
0
 10
706.2804321064498
 20
864.1536083713397
 30
0.0
  0
SEQEND
  5
D77
  8
0
  0
POLYLINE
  5
2BC
  8
0
 66
     1
 10
0.0
 20
0.0
 30
0.0
  0
VERTEX
  5
8D1
  8
0
 10
715.9493749045555
 20
863.0947707725495
 30
0.0
 42
0.0199682054813807
  0
VERTEX
  5
8D2
  8
0
 10
707.6771900435954
 20
861.7343526583312
 30
0.0
  0
SEQEND
  5
D78
  8
0
  0
POLYLINE
  5
2BD
  8
0
 66
     1
 10
0.0
 20
0.0
 30
0.0
  0
VERTEX
  5
8D3
  8
0
 10
711.5400937647628
 20
854.7077568746924
 30
0.0
 42
0.0199682054813829
  0
VERTEX
  5
8D4
  8
0
 10
717.1211910704806
 20
860.9632450797461
 30
0.0
  0
SEQEND
  5
D79
  8
0
  0
POLYLINE
  5
2BE
  8
0
 66
     1
 10
0.0
 20
0.0
 30
0.0
  0
VERTEX
  5
8D5
  8
0
 10
712.8343185934027
 20
852.2321331082031
 30
0.0
 42
0.0027056146697781
  0
VERTEX
  5
8D6
  8
0
 10
711.5400937647005
 20
854.7077568748279
 30
0.0
  0
SEQEND
  5
D7A
  8
0
  0
POLYLINE
  5
2BF
  8
0
 66
     1
 10
0.0
 20
0.0
 30
0.0
  0
VERTEX
  5
8D7
  8
0
 10
721.1562157404776
 20
853.2449547560365
 30
0.0
 42
0.0199682054813779
  0
VERTEX
  5
8D8
  8
0
 10
712.8343185932147
 20
852.2321331084623
 30
0.0
  0
SEQEND
  5
D7B
  8
0
  0
POLYLINE
  5
2C0
  8
0
 66
     1
 10
0.0
 20
0.0
 30
0.0
  0
VERTEX
  5
8D9
  8
0
 10
716.3995905995794
 20
845.0499392244992
 30
0.0
 42
0.0199682054813805
  0
VERTEX
  5
8DA
  8
0
 10
722.2377449927085
 20
851.0662282053804
 30
0.0
  0
SEQEND
  5
D7C
  8
0
  0
POLYLINE
  5
2C1
  8
0
 66
     1
 10
0.0
 20
0.0
 30
0.0
  0
VERTEX
  5
8DB
  8
0
 10
717.589011809566
 20
842.52229048988
 30
0.0
 42
0.0027056146697204
  0
VERTEX
  5
8DC
  8
0
 10
716.3995905995375
 20
845.0499392246385
 30
0.0
  0
SEQEND
  5
D7D
  8
0
  0
POLYLINE
  5
2C2
  8
0
 66
     1
 10
0.0
 20
0.0
 30
0.0
  0
VERTEX
  5
8DD
  8
0
 10
725.946021807569
 20
843.185738837696
 30
0.0
 42
0.01996820548138
  0
VERTEX
  5
8DE
  8
0
 10
717.589011809403
 20
842.5222904900953
 30
0.0
  0
SEQEND
  5
D7E
  8
0
  0
POLYLINE
  5
2C3
  8
0
 66
     1
 10
0.0
 20
0.0
 30
0.0
  0
VERTEX
  5
8DF
  8
0
 10
720.8503974023326
 20
835.1970985144571
 30
0.0
 42
0.0199682054813779
  0
VERTEX
  5
8E0
  8
0
 10
726.9353667762477
 20
840.9636336559432
 30
0.0
  0
SEQEND
  5
D7F
  8
0
  0
POLYLINE
  5
2C4
  8
0
 66
     1
 10
0.0
 20
0.0
 30
0.0
  0
VERTEX
  5
8E1
  8
0
 10
721.9329283447091
 20
832.6218591666569
 30
0.0
 42
0.0027056146697643
  0
VERTEX
  5
8E2
  8
0
 10
720.8503974023306
 20
835.1970985147558
 30
0.0
  0
SEQEND
  5
D80
  8
0
  0
POLYLINE
  5
2C5
  8
0
 66
     1
 10
0.0
 20
0.0
 30
0.0
  0
VERTEX
  5
8E3
  8
0
 10
730.3103901583709
 20
832.9347703006514
 30
0.0
 42
0.0199682054813761
  0
VERTEX
  5
8E4
  8
0
 10
721.932928344565
 20
832.6218591668668
 30
0.0
  0
SEQEND
  5
D81
  8
0
  0
POLYLINE
  5
2C6
  8
0
 66
     1
 10
0.0
 20
0.0
 30
0.0
  0
VERTEX
  5
8E5
  8
0
 10
724.8847059455513
 20
825.1665199752981
 30
0.0
 42
0.0199682054813787
  0
VERTEX
  5
8E6
  8
0
 10
731.2058151962842
 20
830.6731848152691
 30
0.0
  0
SEQEND
  5
D82
  8
0
  0
POLYLINE
  5
2C7
  8
0
 66
     1
 10
0.0
 20
0.0
 30
0.0
  0
VERTEX
  5
8E7
  8
0
 10
725.8584474929623
 20
822.5482078594337
 30
0.0
 42
0.0027056146693133
  0
VERTEX
  5
8E8
  8
0
 10
724.8847059455054
 20
825.1665199755691
 30
0.0
  0
SEQEND
  5
D83
  8
0
  0
POLYLINE
  5
2C8
  8
0
 66
     1
 10
0.0
 20
0.0
 30
0.0
  0
VERTEX
  5
8E9
  8
0
 10
734.2416642077492
 20
822.5100328267628
 30
0.0
 42
0.0199682054813806
  0
VERTEX
  5
8EA
  8
0
 10
725.8584474930092
 20
822.548207859251
 30
0.0
  0
SEQEND
  5
D84
  8
0
  0
POLYLINE
  5
2C9
  8
0
 66
     1
 10
0.0
 20
0.0
 30
0.0
  0
VERTEX
  5
8EB
  8
0
 10
728.4954386810989
 20
814.9758006501778
 30
0.0
 42
0.0199682054813813
  0
VERTEX
  5
8EC
  8
0
 10
735.0415984350957
 20
820.2129346273268
 30
0.0
  0
SEQEND
  5
D85
  8
0
  0
POLYLINE
  5
2CA
  8
0
 66
     1
 10
0.0
 20
0.0
 30
0.0
  0
VERTEX
  5
8ED
  8
0
 10
729.3586825603527
 20
812.3190091746002
 30
0.0
 42
0.0027056146697347
  0
VERTEX
  5
8EE
  8
0
 10
728.49543868107
 20
814.9758006504361
 30
0.0
  0
SEQEND
  5
D86
  8
0
  0
POLYLINE
  5
2CB
  8
0
 66
     1
 10
0.0
 20
0.0
 30
0.0
  0
VERTEX
  5
8EF
  8
0
 10
737.7329471651858
 20
811.9298149480353
 30
0.0
 42
0.0199682054813743
  0
VERTEX
  5
8F0
  8
0
 10
729.3586825602624
 20
812.3190091748173
 30
0.0
  0
SEQEND
  5
D87
  8
0
  0
POLYLINE
  5
2CC
  8
0
 66
     1
 10
0.0
 20
0.0
 30
0.0
  0
VERTEX
  5
8F1
  8
0
 10
731.6762611568588
 20
804.6428185235474
 30
0.0
 42
0.0199682054813813
  0
VERTEX
  5
8F2
  8
0
 10
738.4359872255127
 20
809.6012339252894
 30
0.0
  0
SEQEND
  5
D88
  8
0
  0
POLYLINE
  5
2CD
  8
0
 66
     1
 10
0.0
 20
0.0
 30
0.0
  0
VERTEX
  5
8F3
  8
0
 10
732.4274929446649
 20
801.9522086037219
 30
0.0
 42
0.002705614669778
  0
VERTEX
  5
8F4
  8
0
 10
731.6762611568013
 20
804.6428185238219
 30
0.0
  0
SEQEND
  5
D89
  8
0
  0
POLYLINE
  5
2CE
  8
0
 66
     1
 10
0.0
 20
0.0
 30
0.0
  0
VERTEX
  5
8F5
  8
0
 10
740.7781141339985
 20
801.2126779617697
 30
0.0
 42
0.0199682054813769
  0
VERTEX
  5
8F6
  8
0
 10
732.4274929446069
 20
801.9522086039226
 30
0.0
  0
SEQEND
  5
D8A
  8
0
  0
POLYLINE
  5
2CF
  8
0
 66
     1
 10
0.0
 20
0.0
 30
0.0
  0
VERTEX
  5
8F7
  8
0
 10
734.42159312934
 20
794.185701157221
 30
0.0
 42
0.0199682054813837
  0
VERTEX
  5
8F8
  8
0
 10
741.3830266561542
 20
798.8566992380596
 30
0.0
  0
SEQEND
  5
D8B
  8
0
  0
POLYLINE
  5
2D0
  8
0
 66
     1
 10
0.0
 20
0.0
 30
0.0
  0
VERTEX
  5
8F9
  8
0
 10
735.0594949100039
 20
791.4659930371814
 30
0.0
 42
0.0027056146697564
  0
VERTEX
  5
8FA
  8
0
 10
734.4215931293895
 20
794.1857011574549
 30
0.0
  0
SEQEND
  5
D8C
  8
0
  0
POLYLINE
  5
2D1
  8
0
 66
     1
 10
0.0
 20
0.0
 30
0.0
  0
VERTEX
  5
8FB
  8
0
 10
743.3718228566779
 20
790.377423367899
 30
0.0
 42
0.019968205481376
  0
VERTEX
  5
8FC
  8
0
 10
735.0594949099425
 20
791.4659930373822
 30
0.0
  0
SEQEND
  5
D8D
  8
0
  0
POLYLINE
  5
2D2
  8
0
 66
     1
 10
0.0
 20
0.0
 30
0.0
  0
VERTEX
  5
8FD
  8
0
 10
736.7266183534759
 20
783.6227938885273
 30
0.0
 42
0.0199682054813847
  0
VERTEX
  5
8FE
  8
0
 10
743.8775466185352
 20
787.9981801306136
 30
0.0
  0
SEQEND
  5
D8E
  8
0
  0
POLYLINE
  5
2D3
  8
0
 66
     1
 10
0.0
 20
0.0
 30
0.0
  0
VERTEX
  5
8FF
  8
0
 10
737.250071030259
 20
780.8787588609114
 30
0.0
 42
0.0027056146693205
  0
VERTEX
  5
900
  8
0
 10
736.7266183534543
 20
783.6227938887333
 30
0.0
  0
SEQEND
  5
D8F
  8
0
  0
POLYLINE
  5
2D4
  8
0
 66
     1
 10
0.0
 20
0.0
 30
0.0
  0
VERTEX
  5
901
  8
0
 10
745.5095230865797
 20
779.4430598849699
 30
0.0
 42
0.0199682054813771
  0
VERTEX
  5
902
  8
0
 10
737.2500710302661
 20
780.878758860685
 30
0.0
  0
SEQEND
  5
D90
  8
0
  0
POLYLINE
  5
2D5
  8
0
 66
     1
 10
0.0
 20
0.0
 30
0.0
  0
VERTEX
  5
903
  8
0
 10
738.5872930317084
 20
772.9726276459277
 30
0.0
 42
0.019968205481381
  0
VERTEX
  5
904
  8
0
 10
745.9151708769343
 20
777.0447261350272
 30
0.0
  0
SEQEND
  5
D91
  8
0
  0
POLYLINE
  5
2D6
  8
0
 66
     1
 10
0.0
 20
0.0
 30
0.0
  0
VERTEX
  5
905
  8
0
 10
738.9953782909197
 20
770.2090796802271
 30
0.0
 42
0.0027056146688775
  0
VERTEX
  5
906
  8
0
 10
738.5872930317576
 20
772.9726276457369
 30
0.0
  0
SEQEND
  5
D92
  8
0
  0
POLYLINE
  5
2D7
  8
0
 66
     1
 10
0.0
 20
0.0
 30
0.0
  0
VERTEX
  5
907
  8
0
 10
747.1874645713203
 20
768.4287701019301
 30
0.0
 42
0.0199682054813802
  0
VERTEX
  5
908
  8
0
 10
738.9953782909154
 20
770.20907968002
 30
0.0
  0
SEQEND
  5
D93
  8
0
  0
POLYLINE
  5
2D8
  8
0
 66
     1
 10
0.0
 20
0.0
 30
0.0
  0
VERTEX
  5
909
  8
0
 10
740.0003529083485
 20
762.2538864401885
 30
0.0
 42
0.019968205481379
  0
VERTEX
  5
90A
  8
0
 10
747.4923247459685
 20
766.0155533318414
 30
0.0
  0
SEQEND
  5
D94
  8
0
  0
POLYLINE
  5
2D9
  8
0
 66
     1
 10
0.0
 20
0.0
 30
0.0
  0
VERTEX
  5
90B
  8
0
 10
740.2923548298186
 20
759.4756737380957
 30
0.0
 42
0.002705614669759
  0
VERTEX
  5
90C
  8
0
 10
740.0003529083447
 20
762.2538864403316
 30
0.0
  0
SEQEND
  5
D95
  8
0
  0
POLYLINE
  5
2DA
  8
0
 66
     1
 10
0.0
 20
0.0
 30
0.0
  0
VERTEX
  5
90D
  8
0
 10
748.402703631162
 20
757.3538768257912
 30
0.0
 42
0.0199682054813794
  0
VERTEX
  5
90E
  8
0
 10
740.2923548296949
 20
759.4756737383019
 30
0.0
  0
SEQEND
  5
D96
  8
0
  0
POLYLINE
  5
2DB
  8
0
 66
     1
 10
0.0
 20
0.0
 30
0.0
  0
VERTEX
  5
90F
  8
0
 10
740.9633189962467
 20
751.4853745854201
 30
0.0
 42
0.0199682054813765
  0
VERTEX
  5
910
  8
0
 10
748.6062413618727
 20
754.9300106376776
 30
0.0
  0
SEQEND
  5
D97
  8
0
  0
POLYLINE
  5
2DC
  8
0
 66
     1
 10
0.0
 20
0.0
 30
0.0
  0
VERTEX
  5
911
  8
0
 10
741.1387253092632
 20
748.6973710770151
 30
0.0
 42
0.0027056146688674
  0
VERTEX
  5
912
  8
0
 10
740.9633189962435
 20
751.4853745852037
 30
0.0
  0
SEQEND
  5
D98
  8
0
  0
POLYLINE
  5
2DD
  8
0
 66
     1
 10
0.0
 20
0.0
 30
0.0
  0
VERTEX
  5
913
  8
0
 10
749.1531083240441
 20
746.2378091826363
 30
0.0
 42
0.0199682054813818
  0
VERTEX
  5
914
  8
0
 10
741.1387253092253
 20
748.6973710767924
 30
0.0
  0
SEQEND
  5
D99
  8
0
  0
POLYLINE
  5
2DE
  8
0
 66
     1
 10
0.0
 20
0.0
 30
0.0
  0
VERTEX
  5
915
  8
0
 10
741.4745019256477
 20
740.6859837107879
 30
0.0
 42
0.0199682054813753
  0
VERTEX
  5
916
  8
0
 10
749.254966536362
 20
743.8075458615166
 30
0.0
  0
SEQEND
  5
D9A
  8
0
  0
POLYLINE
  5
2DF
  8
0
 66
     1
 10
0.0
 20
0.0
 30
0.0
  0
VERTEX
  5
917
  8
0
 10
741.5330049080246
 20
737.8930805010569
 30
0.0
 42
0.0027056146693319
  0
VERTEX
  5
918
  8
0
 10
741.4745019256361
 20
740.6859837109483
 30
0.0
  0
SEQEND
  5
D9B
  8
0
  0
POLYLINE
  5
2E0
  8
0
 66
     1
 10
0.0
 20
0.0
 30
0.0
  0
VERTEX
  5
919
  8
0
 10
749.4373621850953
 20
735.1000685324026
 30
0.0
 42
0.0199682054813809
  0
VERTEX
  5
91A
  8
0
 10
741.5330049080378
 20
737.8930805008771
 30
0.0
  0
SEQEND
  5
D9C
  8
0
  0
POLYLINE
  5
2E1
  8
0
 66
     1
 10
0.0
 20
0.0
 30
0.0
  0
VERTEX
  5
91B
  8
0
 10
741.5330049080455
 20
729.8746596173049
 30
0.0
 42
0.0199682054813823
  0
VERTEX
  5
91C
  8
0
 10
749.4373621851048
 20
732.6676715857801
 30
0.0
  0
SEQEND
  5
D9D
  8
0
  0
POLYLINE
  5
2E2
  8
0
 66
     1
 10
0.0
 20
0.0
 30
0.0
  0
VERTEX
  5
91D
  8
0
 10
741.4745019256168
 20
727.0817564072374
 30
0.0
 42
0.0027056146697616
  0
VERTEX
  5
91E
  8
0
 10
741.5330049080114
 20
729.8746596175466
 30
0.0
  0
SEQEND
  5
D9E
  8
0
  0
POLYLINE
  5
2E3
  8
0
 66
     1
 10
0.0
 20
0.0
 30
0.0
  0
VERTEX
  5
91F
  8
0
 10
749.2549665363565
 20
723.960194256778
 30
0.0
 42
0.0199682054813779
  0
VERTEX
  5
920
  8
0
 10
741.4745019256434
 20
727.0817564075063
 30
0.0
  0
SEQEND
  5
D9F
  8
0
  0
POLYLINE
  5
2E4
  8
0
 66
     1
 10
0.0
 20
0.0
 30
0.0
  0
VERTEX
  5
921
  8
0
 10
741.138725309238
 20
719.0703690413657
 30
0.0
 42
0.01996820548138
  0
VERTEX
  5
922
  8
0
 10
749.1531083240607
 20
721.5299309355229
 30
0.0
  0
SEQEND
  5
DA0
  8
0
  0
POLYLINE
  5
2E5
  8
0
 66
     1
 10
0.0
 20
0.0
 30
0.0
  0
VERTEX
  5
923
  8
0
 10
740.9633189962296
 20
716.2823655325211
 30
0.0
 42
0.0027056146697637
  0
VERTEX
  5
924
  8
0
 10
741.1387253093023
 20
719.0703690415507
 30
0.0
  0
SEQEND
  5
DA1
  8
0
  0
POLYLINE
  5
2E6
  8
0
 66
     1
 10
0.0
 20
0.0
 30
0.0
  0
VERTEX
  5
925
  8
0
 10
748.6062413618527
 20
712.837729480489
 30
0.0
 42
0.019968205481382
  0
VERTEX
  5
926
  8
0
 10
740.9633189962299
 20
716.2823655327451
 30
0.0
  0
SEQEND
  5
DA2
  8
0
  0
POLYLINE
  5
2E7
  8
0
 66
     1
 10
0.0
 20
0.0
 30
0.0
  0
VERTEX
  5
927
  8
0
 10
740.2923548297033
 20
708.2920663798659
 30
0.0
 42
0.0199682054813767
  0
VERTEX
  5
928
  8
0
 10
748.4027036311734
 20
710.4138632923775
 30
0.0
  0
SEQEND
  5
DA3
  8
0
  0
POLYLINE
  5
2E8
  8
0
 66
     1
 10
0.0
 20
0.0
 30
0.0
  0
VERTEX
  5
929
  8
0
 10
740.0003529083665
 20
705.5138536782725
 30
0.0
 42
0.0027056146693053
  0
VERTEX
  5
92A
  8
0
 10
740.2923548297954
 20
708.2920663801042
 30
0.0
  0
SEQEND
  5
DA4
  8
0
  0
POLYLINE
  5
2E9
  8
0
 66
     1
 10
0.0
 20
0.0
 30
0.0
  0
VERTEX
  5
92B
  8
0
 10
747.4923247459651
 20
701.7521867863588
 30
0.0
 42
0.0199682054813759
  0
VERTEX
  5
92C
  8
0
 10
740.0003529083458
 20
705.5138536780115
 30
0.0
  0
SEQEND
  5
DA5
  8
0
  0
POLYLINE
  5
2EA
  8
0
 66
     1
 10
0.0
 20
0.0
 30
0.0
  0
VERTEX
  5
92D
  8
0
 10
738.9953782909199
 20
697.5586604381613
 30
0.0
 42
0.0199682054813798
  0
VERTEX
  5
92E
  8
0
 10
747.1874645713267
 20
699.3389700162517
 30
0.0
  0
SEQEND
  5
DA6
  8
0
  0
POLYLINE
  5
2EB
  8
0
 66
     1
 10
0.0
 20
0.0
 30
0.0
  0
VERTEX
  5
92F
  8
0
 10
738.5872930317826
 20
694.7951124724856
 30
0.0
 42
0.002705614669333
  0
VERTEX
  5
930
  8
0
 10
738.9953782910006
 20
697.5586604383906
 30
0.0
  0
SEQEND
  5
DA7
  8
0
  0
POLYLINE
  5
2EC
  8
0
 66
     1
 10
0.0
 20
0.0
 30
0.0
  0
VERTEX
  5
931
  8
0
 10
745.9151708769039
 20
690.7230139831291
 30
0.0
 42
0.0199682054813791
  0
VERTEX
  5
932
  8
0
 10
738.5872930316818
 20
694.7951124722263
 30
0.0
  0
SEQEND
  5
DA8
  8
0
  0
POLYLINE
  5
2ED
  8
0
 66
     1
 10
0.0
 20
0.0
 30
0.0
  0
VERTEX
  5
933
  8
0
 10
737.2500710302711
 20
686.8889812574819
 30
0.0
 42
0.0199682054813801
  0
VERTEX
  5
934
  8
0
 10
745.5095230865879
 20
688.3246802331976
 30
0.0
  0
SEQEND
  5
DA9
  8
0
  0
POLYLINE
  5
2EE
  8
0
 66
     1
 10
0.0
 20
0.0
 30
0.0
  0
VERTEX
  5
935
  8
0
 10
736.7266183535032
 20
684.1449462298759
 30
0.0
 42
0.0027056146693153
  0
VERTEX
  5
936
  8
0
 10
737.2500710302993
 20
686.8889812576789
 30
0.0
  0
SEQEND
  5
DAA
  8
0
  0
POLYLINE
  5
2EF
  8
0
 66
     1
 10
0.0
 20
0.0
 30
0.0
  0
VERTEX
  5
937
  8
0
 10
743.8775466185032
 20
679.7695599876446
 30
0.0
 42
0.0199682054813797
  0
VERTEX
  5
938
  8
0
 10
736.726618353448
 20
684.1449462297285
 30
0.0
  0
SEQEND
  5
DAB
  8
0
  0
POLYLINE
  5
2F0
  8
0
 66
     1
 10
0.0
 20
0.0
 30
0.0
  0
VERTEX
  5
939
  8
0
 10
735.0594949099468
 20
676.3017470807779
 30
0.0
 42
0.019968205481379
  0
VERTEX
  5
93A
  8
0
 10
743.3718228566856
 20
677.3903167502616
 30
0.0
  0
SEQEND
  5
DAC
  8
0
  0
POLYLINE
  5
2F1
  8
0
 66
     1
 10
0.0
 20
0.0
 30
0.0
  0
VERTEX
  5
93B
  8
0
 10
734.421593129467
 20
673.5820389611839
 30
0.0
 42
0.0027056146693108
  0
VERTEX
  5
93C
  8
0
 10
735.0594949099793
 20
676.3017470810329
 30
0.0
  0
SEQEND
  5
DAD
  8
0
  0
POLYLINE
  5
2F2
  8
0
 66
     1
 10
0.0
 20
0.0
 30
0.0
  0
VERTEX
  5
93D
  8
0
 10
741.3830266562402
 20
668.9110408801276
 30
0.0
 42
0.0199682054813759
  0
VERTEX
  5
93E
  8
0
 10
734.4215931294275
 20
673.5820389609651
 30
0.0
  0
SEQEND
  5
DAE
  8
0
  0
POLYLINE
  5
2F3
  8
0
 66
     1
 10
0.0
 20
0.0
 30
0.0
  0
VERTEX
  5
93F
  8
0
 10
732.4274929446078
 20
665.8155315143649
 30
0.0
 42
0.0199682054813811
  0
VERTEX
  5
940
  8
0
 10
740.778114134001
 20
666.5550621565179
 30
0.0
  0
SEQEND
  5
DAF
  8
0
  0
POLYLINE
  5
2F4
  8
0
 66
     1
 10
0.0
 20
0.0
 30
0.0
  0
VERTEX
  5
941
  8
0
 10
731.6762611567981
 20
663.1249215944696
 30
0.0
 42
0.0027056146697456
  0
VERTEX
  5
942
  8
0
 10
732.4274929446567
 20
665.8155315145513
 30
0.0
  0
SEQEND
  5
DB0
  8
0
  0
POLYLINE
  5
2F5
  8
0
 66
     1
 10
0.0
 20
0.0
 30
0.0
  0
VERTEX
  5
943
  8
0
 10
738.435987225583
 20
658.1665061928794
 30
0.0
 42
0.0199682054813786
  0
VERTEX
  5
944
  8
0
 10
731.6762611569322
 20
663.1249215946194
 30
0.0
  0
SEQEND
  5
DB1
  8
0
  0
POLYLINE
  5
2F6
  8
0
 66
     1
 10
0.0
 20
0.0
 30
0.0
  0
VERTEX
  5
945
  8
0
 10
729.3586825602624
 20
655.4487309434745
 30
0.0
 42
0.0199682054813784
  0
VERTEX
  5
946
  8
0
 10
737.7329471651872
 20
655.8379251702567
 30
0.0
  0
SEQEND
  5
DB2
  8
0
  0
POLYLINE
  5
2F7
  8
0
 66
     1
 10
0.0
 20
0.0
 30
0.0
  0
VERTEX
  5
947
  8
0
 10
728.495438681156
 20
652.7919394681832
 30
0.0
 42
0.002705614669298
  0
VERTEX
  5
948
  8
0
 10
729.3586825602972
 20
655.4487309435918
 30
0.0
  0
SEQEND
  5
DB3
  8
0
  0
POLYLINE
  5
2F8
  8
0
 66
     1
 10
0.0
 20
0.0
 30
0.0
  0
VERTEX
  5
949
  8
0
 10
735.0415984350602
 20
647.5548054908388
 30
0.0
 42
0.0199682054813772
  0
VERTEX
  5
94A
  8
0
 10
728.4954386810668
 20
652.7919394679851
 30
0.0
  0
SEQEND
  5
DB4
  8
0
  0
POLYLINE
  5
2F9
  8
0
 66
     1
 10
0.0
 20
0.0
 30
0.0
  0
VERTEX
  5
94B
  8
0
 10
725.858447493008
 20
645.2195322590247
 30
0.0
 42
0.019968205481375
  0
VERTEX
  5
94C
  8
0
 10
734.2416642077505
 20
645.2577072915129
 30
0.0
  0
SEQEND
  5
DB5
  8
0
  0
POLYLINE
  5
2FA
  8
0
 66
     1
 10
0.0
 20
0.0
 30
0.0
  0
VERTEX
  5
94D
  8
0
 10
724.884705945499
 20
642.6012201426628
 30
0.0
 42
0.0027056146697551
  0
VERTEX
  5
94E
  8
0
 10
725.8584474930965
 20
645.2195322591836
 30
0.0
  0
SEQEND
  5
DB6
  8
0
  0
POLYLINE
  5
2FB
  8
0
 66
     1
 10
0.0
 20
0.0
 30
0.0
  0
VERTEX
  5
94F
  8
0
 10
731.2058151962503
 20
637.0945553029013
 30
0.0
 42
0.0199682054813816
  0
VERTEX
  5
950
  8
0
 10
724.8847059455204
 20
642.6012201428698
 30
0.0
  0
SEQEND
  5
DB7
  8
0
  0
POLYLINE
  5
2FC
  8
0
 66
     1
 10
0.0
 20
0.0
 30
0.0
  0
VERTEX
  5
951
  8
0
 10
721.9329283445616
 20
635.1458809513967
 30
0.0
 42
0.0199682054813804
  0
VERTEX
  5
952
  8
0
 10
730.3103901583709
 20
634.8329698176119
 30
0.0
  0
SEQEND
  5
DB8
  8
0
  0
POLYLINE
  5
2FD
  8
0
 66
     1
 10
0.0
 20
0.0
 30
0.0
  0
VERTEX
  5
953
  8
0
 10
720.8503974023004
 20
632.5706416034892
 30
0.0
 42
0.0027056146697539
  0
VERTEX
  5
954
  8
0
 10
721.9329283446707
 20
635.1458809515692
 30
0.0
  0
SEQEND
  5
DB9
  8
0
  0
POLYLINE
  5
2FE
  8
0
 66
     1
 10
0.0
 20
0.0
 30
0.0
  0
VERTEX
  5
955
  8
0
 10
726.9353667763132
 20
626.8041064622295
 30
0.0
 42
0.01996820548138
  0
VERTEX
  5
956
  8
0
 10
720.8503974024009
 20
632.5706416037129
 30
0.0
  0
SEQEND
  5
DBA
  8
0
  0
POLYLINE
  5
2FF
  8
0
 66
     1
 10
0.0
 20
0.0
 30
0.0
  0
VERTEX
  5
957
  8
0
 10
717.5890118093982
 20
625.2454496280708
 30
0.0
 42
0.0199682054813809
  0
VERTEX
  5
958
  8
0
 10
725.9460218075674
 20
624.5820012804699
 30
0.0
  0
SEQEND
  5
DBB
  8
0
  0
POLYLINE
  5
300
  8
0
 66
     1
 10
0.0
 20
0.0
 30
0.0
  0
VERTEX
  5
959
  8
0
 10
716.3995905997053
 20
622.7178008939096
 30
0.0
 42
0.0027056146693125
  0
VERTEX
  5
95A
  8
0
 10
717.5890118095451
 20
625.245449628272
 30
0.0
  0
SEQEND
  5
DBC
  8
0
  0
POLYLINE
  5
301
  8
0
 66
     1
 10
0.0
 20
0.0
 30
0.0
  0
VERTEX
  5
95B
  8
0
 10
722.2377449926717
 20
616.7015119128928
 30
0.0
 42
0.0199682054813756
  0
VERTEX
  5
95C
  8
0
 10
716.3995905995453
 20
622.7178008937711
 30
0.0
  0
SEQEND
  5
DBD
  8
0
  0
POLYLINE
  5
302
  8
0
 66
     1
 10
0.0
 20
0.0
 30
0.0
  0
VERTEX
  5
95D
  8
0
 10
712.834318593206
 20
615.5356070097918
 30
0.0
 42
0.0199682054813802
  0
VERTEX
  5
95E
  8
0
 10
721.1562157404733
 20
614.5227853622171
 30
0.0
  0
SEQEND
  5
DBE
  8
0
  0
POLYLINE
  5
303
  8
0
 66
     1
 10
0.0
 20
0.0
 30
0.0
  0
VERTEX
  5
95F
  8
0
 10
711.5400937648421
 20
613.0599832437359
 30
0.0
 42
0.002705614669315
  0
VERTEX
  5
960
  8
0
 10
712.8343185933479
 20
615.5356070099903
 30
0.0
  0
SEQEND
  5
DBF
  8
0
  0
POLYLINE
  5
304
  8
0
 66
     1
 10
0.0
 20
0.0
 30
0.0
  0
VERTEX
  5
961
  8
0
 10
717.121191070459
 20
606.8044950385423
 30
0.0
 42
0.0199682054813801
  0
VERTEX
  5
962
  8
0
 10
711.5400937647426
 20
613.0599832435943
 30
0.0
  0
SEQEND
  5
DC0
  8
0
  0
POLYLINE
  5
305
  8
0
 66
     1
 10
0.0
 20
0.0
 30
0.0
  0
VERTEX
  5
963
  8
0
 10
707.6771900435872
 20
606.0333874599361
 30
0.0
 42
0.0199682054813746
  0
VERTEX
  5
964
  8
0
 10
715.9493749045505
 20
604.6729693457174
 30
0.0
  0
SEQEND
  5
DC1
  8
0
  0
POLYLINE
  5
306
  8
0
 66
     1
 10
0.0
 20
0.0
 30
0.0
  0
VERTEX
  5
965
  8
0
 10
706.2804321065023
 20
603.6141317469193
 30
0.0
 42
0.0027056146697455
  0
VERTEX
  5
966
  8
0
 10
707.6771900437591
 20
606.0333874601233
 30
0.0
  0
SEQEND
  5
DC2
  8
0
  0
POLYLINE
  5
307
  8
0
 66
     1
 10
0.0
 20
0.0
 30
0.0
  0
VERTEX
  5
967
  8
0
 10
711.5946811837528
 20
597.1304185697609
 30
0.0
 42
0.0199682054813763
  0
VERTEX
  5
968
  8
0
 10
706.2804321065898
 20
603.6141317470459
 30
0.0
  0
SEQEND
  5
DC3
  8
0
  0
POLYLINE
  5
308
  8
0
 66
     1
 10
0.0
 20
0.0
 30
0.0
  0
VERTEX
  5
969
  8
0
 10
702.1266735164215
 20
596.7554611003687
 30
0.0
 42
0.0199682054813818
  0
VERTEX
  5
96A
  8
0
 10
710.3346338679305
 20
595.049833155151
 30
0.0
  0
SEQEND
  5
DC4
  8
0
  0
POLYLINE
  5
309
  8
0
 66
     1
 10
0.0
 20
0.0
 30
0.0
  0
VERTEX
  5
96B
  8
0
 10
700.6298328587402
 20
594.3968176373616
 30
0.0
 42
0.0027056146697403
  0
VERTEX
  5
96C
  8
0
 10
702.1266735164984
 20
596.7554611005381
 30
0.0
  0
SEQEND
  5
DC5
  8
0
  0
POLYLINE
  5
30A
  8
0
 66
     1
 10
0.0
 20
0.0
 30
0.0
  0
VERTEX
  5
96D
  8
0
 10
705.6679107088012
 20
587.6962541241405
 30
0.0
 42
0.0199682054813775
  0
VERTEX
  5
96E
  8
0
 10
700.6298328588662
 20
594.3968176375664
 30
0.0
  0
SEQEND
  5
DC6
  8
0
  0
POLYLINE
  5
30B
  8
0
 66
     1
 10
0.0
 20
0.0
 30
0.0
  0
VERTEX
  5
96F
  8
0
 10
696.192506503673
 20
587.7181045667309
 30
0.0
 42
0.0199682054813755
  0
VERTEX
  5
970
  8
0
 10
704.3218427941874
 20
585.6702590415064
 30
0.0
  0
SEQEND
  5
DC7
  8
0
  0
POLYLINE
  5
30C
  8
0
 66
     1
 10
0.0
 20
0.0
 30
0.0
  0
VERTEX
  5
971
  8
0
 10
694.598209092901
 20
585.4242112162316
 30
0.0
 42
0.0027056146693165
  0
VERTEX
  5
972
  8
0
 10
696.1925065037728
 20
587.7181045669284
 30
0.0
  0
SEQEND
  5
DC8
  8
0
  0
POLYLINE
  5
30D
  8
0
 66
     1
 10
0.0
 20
0.0
 30
0.0
  0
VERTEX
  5
973
  8
0
 10
699.3512772149832
 20
578.5185524317554
 30
0.0
 42
0.0199682054813786
  0
VERTEX
  5
974
  8
0
 10
694.598209092778
 20
585.4242112160489
 30
0.0
  0
SEQEND
  5
DC9
  8
0
  0
POLYLINE
  5
30E
  8
0
 66
     1
 10
0.0
 20
0.0
 30
0.0
  0
VERTEX
  5
975
  8
0
 10
689.8850995507585
 20
578.9371724532215
 30
0.0
 42
0.0199682054813795
  0
VERTEX
  5
976
  8
0
 10
697.9215501620567
 20
576.5507019649043
 30
0.0
  0
SEQEND
  5
DCA
  8
0
  0
POLYLINE
  5
30F
  8
0
 66
     1
 10
0.0
 20
0.0
 30
0.0
  0
VERTEX
  5
977
  8
0
 10
688.1961423260418
 20
576.7120534831893
 30
0.0
 42
0.0027056146693165
  0
VERTEX
  5
978
  8
0
 10
689.8850995508624
 20
578.9371724533709
 30
0.0
  0
SEQEND
  5
DCB
  8
0
  0
POLYLINE
  5
310
  8
0
 66
     1
 10
0.0
 20
0.0
 30
0.0
  0
VERTEX
  5
979
  8
0
 10
692.655862223849
 20
569.6134142998751
 30
0.0
 42
0.0199682054813744
  0
VERTEX
  5
97A
  8
0
 10
688.1961423259611
 20
576.7120534829735
 30
0.0
  0
SEQEND
  5
DCC
  8
0
  0
POLYLINE
  5
311
  8
0
 66
     1
 10
0.0
 20
0.0
 30
0.0
  0
VERTEX
  5
97B
  8
0
 10
683.2155179927681
 20
570.4280694985497
 30
0.0
 42
0.0199682054813802
  0
VERTEX
  5
97C
  8
0
 10
691.1449842596726
 20
567.707160727305
 30
0.0
  0
SEQEND
  5
DCD
  8
0
  0
POLYLINE
  5
312
  8
0
 66
     1
 10
0.0
 20
0.0
 30
0.0
  0
VERTEX
  5
97D
  8
0
 10
681.4348639591035
 20
568.2756285238142
 30
0.0
 42
0.0027056146693136
  0
VERTEX
  5
97E
  8
0
 10
683.2155179929769
 20
570.4280694986902
 30
0.0
  0
SEQEND
  5
DCE
  8
0
  0
POLYLINE
  5
313
  8
0
 66
     1
 10
0.0
 20
0.0
 30
0.0
  0
VERTEX
  5
97F
  8
0
 10
685.5934117683144
 20
560.9964623669492
 30
0.0
 42
0.0199682054813788
  0
VERTEX
  5
980
  8
0
 10
681.4348639588684
 20
568.2756285235902
 30
0.0
  0
SEQEND
  5
DCF
  8
0
  0
POLYLINE
  5
314
  8
0
 66
     1
 10
0.0
 20
0.0
 30
0.0
  0
VERTEX
  5
981
  8
0
 10
676.1954625421697
 20
562.2057235606502
 30
0.0
 42
0.0199682054813764
  0
VERTEX
  5
982
  8
0
 10
684.0040334864022
 20
559.1551499050319
 30
0.0
  0
SEQEND
  5
DD0
  8
0
  0
POLYLINE
  5
315
  8
0
 66
     1
 10
0.0
 20
0.0
 30
0.0
  0
VERTEX
  5
983
  8
0
 10
674.3262355712848
 20
560.1297366937707
 30
0.0
 42
0.0027056146697673
  0
VERTEX
  5
984
  8
0
 10
676.1954625422666
 20
562.2057235607992
 30
0.0
  0
SEQEND
  5
DD1
  8
0
  0
POLYLINE
  5
316
  8
0
 66
     1
 10
0.0
 20
0.0
 30
0.0
  0
VERTEX
  5
985
  8
0
 10
678.1763157865419
 20
552.6828136947242
 30
0.0
 42
0.0199682054813764
  0
VERTEX
  5
986
  8
0
 10
674.3262355714801
 20
560.129736693991
 30
0.0
  0
SEQEND
  5
DD2
  8
0
  0
POLYLINE
  5
317
  8
0
 66
     1
 10
0.0
 20
0.0
 30
0.0
  0
VERTEX
  5
987
  8
0
 10
668.8372487615109
 20
554.2845594283414
 30
0.0
 42
0.0199682054813774
  0
VERTEX
  5
988
  8
0
 10
676.5112254962598
 20
550.9096726311354
 30
0.0
  0
SEQEND
  5
DD3
  8
0
  0
POLYLINE
  5
318
  8
0
 66
     1
 10
0.0
 20
0.0
 30
0.0
  0
VERTEX
  5
989
  8
0
 10
666.8827281133965
 20
552.2886686563827
 30
0.0
 42
0.0027056146693146
  0
VERTEX
  5
98A
  8
0
 10
668.8372487616255
 20
554.2845594285299
 30
0.0
  0
SEQEND
  5
DD4
  8
0
  0
POLYLINE
  5
319
  8
0
 66
     1
 10
0.0
 20
0.0
 30
0.0
  0
VERTEX
  5
98B
  8
0
 10
670.417586385003
 20
544.6870532477666
 30
0.0
 42
0.0199682054813726
  0
VERTEX
  5
98C
  8
0
 10
666.8827281132887
 20
552.2886686562366
 30
0.0
  0
SEQEND
  5
DD5
  8
0
  0
POLYLINE
  5
31A
  8
0
 66
     1
 10
0.0
 20
0.0
 30
0.0
  0
VERTEX
  5
98D
  8
0
 10
661.1537854581923
 20
546.6784735152561
 30
0.0
 42
0.0199682054813816
  0
VERTEX
  5
98E
  8
0
 10
668.6797052206348
 20
542.9851942746969
 30
0.0
  0
SEQEND
  5
DD6
  8
0
  0
POLYLINE
  5
31B
  8
0
 66
     1
 10
0.0
 20
0.0
 30
0.0
  0
VERTEX
  5
98F
  8
0
 10
659.1174000255994
 20
544.7661803081415
 30
0.0
 42
0.0027056146697655
  0
VERTEX
  5
990
  8
0
 10
661.1537854583155
 20
546.6784735153982
 30
0.0
  0
SEQEND
  5
DD7
  8
0
  0
POLYLINE
  5
31C
  8
0
 66
     1
 10
0.0
 20
0.0
 30
0.0
  0
VERTEX
  5
991
  8
0
 10
662.3308350115635
 20
537.0232083071061
 30
0.0
 42
0.0199682054813744
  0
VERTEX
  5
992
  8
0
 10
659.1174000257572
 20
544.7661803083089
 30
0.0
  0
SEQEND
  5
DD8
  8
0
  0
POLYLINE
  5
31D
  8
0
 66
     1
 10
0.0
 20
0.0
 30
0.0
  0
VERTEX
  5
993
  8
0
 10
653.1585520376732
 20
539.4008094804085
 30
0.0
 42
0.0199682054813815
  0
VERTEX
  5
994
  8
0
 10
660.5232118072154
 20
535.3956170632719
 30
0.0
  0
SEQEND
  5
DD9
  8
0
  0
POLYLINE
  5
31E
  8
0
 66
     1
 10
0.0
 20
0.0
 30
0.0
  0
VERTEX
  5
995
  8
0
 10
651.0438743329412
 20
537.5754686505907
 30
0.0
 42
0.0027056146697574
  0
VERTEX
  5
996
  8
0
 10
653.1585520378312
 20
539.40080948057
 30
0.0
  0
SEQEND
  5
DDA
  8
0
  0
POLYLINE
  5
31F
  8
0
 66
     1
 10
0.0
 20
0.0
 30
0.0
  0
VERTEX
  5
997
  8
0
 10
653.9302485761323
 20
529.7047238607673
 30
0.0
 42
0.0199682054813827
  0
VERTEX
  5
998
  8
0
 10
651.0438743331317
 20
537.575468650733
 30
0.0
  0
SEQEND
  5
DDB
  8
0
  0
POLYLINE
  5
320
  8
0
 66
     1
 10
0.0
 20
0.0
 30
0.0
  0
VERTEX
  5
999
  8
0
 10
644.8655748562376
 20
532.4643348196734
 30
0.0
 42
0.0199682054813791
  0
VERTEX
  5
99A
  8
0
 10
652.0560545171202
 20
528.1542556944298
 30
0.0
  0
SEQEND
  5
DDC
  8
0
  0
POLYLINE
  5
321
  8
0
 66
     1
 10
0.0
 20
0.0
 30
0.0
  0
VERTEX
  5
99B
  8
0
 10
642.6763147429501
 20
530.7291486354494
 30
0.0
 42
0.0027056146693314
  0
VERTEX
  5
99C
  8
0
 10
644.865574856392
 20
532.4643348198013
 30
0.0
  0
SEQEND
  5
DDD
  8
0
  0
POLYLINE
  5
322
  8
0
 66
     1
 10
0.0
 20
0.0
 30
0.0
  0
VERTEX
  5
99D
  8
0
 10
645.2305645617678
 20
522.7444390174354
 30
0.0
 42
0.0199682054813811
  0
VERTEX
  5
99E
  8
0
 10
642.6763147427926
 20
530.7291486353032
 30
0.0
  0
SEQEND
  5
DDE
  8
0
  0
POLYLINE
  5
323
  8
0
 66
     1
 10
0.0
 20
0.0
 30
0.0
  0
VERTEX
  5
99F
  8
0
 10
636.2894026136603
 20
525.8812184665206
 30
0.0
 42
0.0199682054813771
  0
VERTEX
  5
9A0
  8
0
 10
643.2930876212172
 20
521.2738139765303
 30
0.0
  0
SEQEND
  5
DDF
  8
0
  0
POLYLINE
  5
324
  8
0
 66
     1
 10
0.0
 20
0.0
 30
0.0
  0
VERTEX
  5
9A1
  8
0
 10
634.0294007973323
 20
524.2392310336015
 30
0.0
 42
0.0027056146697534
  0
VERTEX
  5
9A2
  8
0
 10
636.2894026138661
 20
525.8812184666828
 30
0.0
  0
SEQEND
  5
DE0
  8
0
  0
POLYLINE
  5
325
  8
0
 66
     1
 10
0.0
 20
0.0
 30
0.0
  0
VERTEX
  5
9A3
  8
0
 10
636.2470451703139
 20
516.1545644818731
 30
0.0
 42
0.0199682054813746
  0
VERTEX
  5
9A4
  8
0
 10
634.029400797486
 20
524.2392310337522
 30
0.0
  0
SEQEND
  5
DE1
  8
0
  0
POLYLINE
  5
326
  8
0
 66
     1
 10
0.0
 20
0.0
 30
0.0
  0
VERTEX
  5
9A5
  8
0
 10
627.4450808305071
 20
519.6630094440756
 30
0.0
 42
0.01996820548138
  0
VERTEX
  5
9A6
  8
0
 10
634.2496843413687
 20
514.7663625424186
 30
0.0
  0
SEQEND
  5
DE2
  8
0
  0
POLYLINE
  5
327
  8
0
 66
     1
 10
0.0
 20
0.0
 30
0.0
  0
VERTEX
  5
9A7
  8
0
 10
625.118302122572
 20
518.1171013664931
 30
0.0
 42
0.002705614669763
  0
VERTEX
  5
9A8
  8
0
 10
627.4450808307049
 20
519.6630094441192
 30
0.0
  0
SEQEND
  5
DE3
  8
0
  0
POLYLINE
  5
328
  8
0
 66
     1
 10
0.0
 20
0.0
 30
0.0
  0
VERTEX
  5
9A9
  8
0
 10
626.9954505475978
 20
509.9466611330857
 30
0.0
 42
0.0199682054813715
  0
VERTEX
  5
9AA
  8
0
 10
625.1183021227068
 20
518.1171013666582
 30
0.0
  0
SEQEND
  5
DE4
  8
0
  0
POLYLINE
  5
329
  8
0
 66
     1
 10
0.0
 20
0.0
 30
0.0
  0
VERTEX
  5
9AB
  8
0
 10
618.3481254522846
 20
513.8206166038808
 30
0.0
 42
0.0199682054813836
  0
VERTEX
  5
9AC
  8
0
 10
624.941709879665
 20
508.6433176731206
 30
0.0
  0
SEQEND
  5
DE5
  8
0
  0
POLYLINE
  5
32A
  8
0
 66
     1
 10
0.0
 20
0.0
 30
0.0
  0
VERTEX
  5
9AD
  8
0
 10
615.9586518136571
 20
512.3734999300633
 30
0.0
 42
0.002705614669314
  0
VERTEX
  5
9AE
  8
0
 10
618.3481254525279
 20
513.8206166039472
 30
0.0
  0
SEQEND
  5
DE6
  8
0
  0
POLYLINE
  5
32B
  8
0
 66
     1
 10
0.0
 20
0.0
 30
0.0
  0
VERTEX
  5
9AF
  8
0
 10
617.4920111342572
 20
504.1316197431919
 30
0.0
 42
0.019968205481377
  0
VERTEX
  5
9B0
  8
0
 10
615.9586518135013
 20
512.373499929949
 30
0.0
  0
SEQEND
  5
DE7
  8
0
  0
POLYLINE
  5
32C
  8
0
 66
     1
 10
0.0
 20
0.0
 30
0.0
  0
VERTEX
  5
9B1
  8
0
 10
609.0144956300519
 20
508.3642894881622
 30
0.0
 42
0.019968205481383
  0
VERTEX
  5
9B2
  8
0
 10
615.3854935863544
 20
502.9154212698785
 30
0.0
  0
SEQEND
  5
DE8
  8
0
  0
POLYLINE
  5
32D
  8
0
 66
     1
 10
0.0
 20
0.0
 30
0.0
  0
VERTEX
  5
9B3
  8
0
 10
606.5665190086227
 20
507.0185029521094
 30
0.0
 42
0.0027056146697685
  0
VERTEX
  5
9B4
  8
0
 10
609.0144956302688
 20
508.3642894883186
 30
0.0
  0
SEQEND
  5
DE9
  8
0
  0
POLYLINE
  5
32E
  8
0
 66
     1
 10
0.0
 20
0.0
 30
0.0
  0
VERTEX
  5
9B5
  8
0
 10
607.7533991921134
 20
498.7196418707122
 30
0.0
 42
0.0199682054813784
  0
VERTEX
  5
9B6
  8
0
 10
606.5665190087796
 20
507.0185029522
 30
0.0
  0
SEQEND
  5
DEA
  8
0
  0
POLYLINE
  5
32F
  8
0
 66
     1
 10
0.0
 20
0.0
 30
0.0
  0
VERTEX
  5
9B7
  8
0
 10
599.4605657220498
 20
503.3036003489281
 30
0.0
 42
0.0199682054813754
  0
VERTEX
  5
9B8
  8
0
 10
605.5978003119812
 20
497.5927220095119
 30
0.0
  0
SEQEND
  5
DEB
  8
0
  0
POLYLINE
  5
330
  8
0
 66
     1
 10
0.0
 20
0.0
 30
0.0
  0
VERTEX
  5
9B9
  8
0
 10
596.9583807010163
 20
502.0615049176012
 30
0.0
 42
0.0027056146697488
  0
VERTEX
  5
9BA
  8
0
 10
599.460565722221
 20
503.3036003490151
 30
0.0
  0
SEQEND
  5
DEC
  8
0
  0
POLYLINE
  5
331
  8
0
 66
     1
 10
0.0
 20
0.0
 30
0.0
  0
VERTEX
  5
9BB
  8
0
 10
597.7966995559802
 20
493.7202219637667
 30
0.0
 42
0.0199682054813792
  0
VERTEX
  5
9BC
  8
0
 10
596.9583807012143
 20
502.0615049176769
 30
0.0
  0
SEQEND
  5
DED
  8
0
  0
POLYLINE
  5
332
  8
0
 66
     1
 10
0.0
 20
0.0
 30
0.0
  0
VERTEX
  5
9BD
  8
0
 10
589.7030965676954
 20
498.6474273545085
 30
0.0
 42
0.0199682054813806
  0
VERTEX
  5
9BE
  8
0
 10
595.5958009963383
 20
492.684557715137
 30
0.0
  0
SEQEND
  5
DEE
  8
0
  0
POLYLINE
  5
333
  8
0
 66
     1
 10
0.0
 20
0.0
 30
0.0
  0
VERTEX
  5
9BF
  8
0
 10
587.1510928303458
 20
497.5112020855636
 30
0.0
 42
0.0027056146693406
  0
VERTEX
  5
9C0
  8
0
 10
589.7030965679526
 20
498.6474273545634
 30
0.0
  0
SEQEND
  5
DEF
  8
0
  0
POLYLINE
  5
334
  8
0
 66
     1
 10
0.0
 20
0.0
 30
0.0
  0
VERTEX
  5
9C1
  8
0
 10
587.6393796602388
 20
489.1421307037984
 30
0.0
 42
0.0199682054813808
  0
VERTEX
  5
9C2
  8
0
 10
587.1510928301752
 20
497.5112020854384
 30
0.0
  0
SEQEND
  5
DF0
  8
0
  0
POLYLINE
  5
335
  8
0
 66
     1
 10
0.0
 20
0.0
 30
0.0
  0
VERTEX
  5
9C3
  8
0
 10
579.7592060837183
 20
494.4039390143865
 30
0.0
 42
0.0199682054813851
  0
VERTEX
  5
9C4
  8
0
 10
585.397042545148
 20
488.1995389746062
 30
0.0
  0
SEQEND
  5
DF1
  8
0
  0
POLYLINE
  5
336
  8
0
 66
     1
 10
0.0
 20
0.0
 30
0.0
  0
VERTEX
  5
9C5
  8
0
 10
577.1618607107603
 20
493.3755772326558
 30
0.0
 42
0.0027056146697389
  0
VERTEX
  5
9C6
  8
0
 10
579.7592060838365
 20
494.4039390143779
 30
0.0
  0
SEQEND
  5
DF2
  8
0
  0
POLYLINE
  5
337
  8
0
 66
     1
 10
0.0
 20
0.0
 30
0.0
  0
VERTEX
  5
9C7
  8
0
 10
577.2992588953246
 20
484.993399618471
 30
0.0
 42
0.0199682054813763
  0
VERTEX
  5
9C8
  8
0
 10
577.161860710984
 20
493.3755772328125
 30
0.0
  0
SEQEND
  5
DF3
  8
0
  0
POLYLINE
  5
338
  8
0
 66
     1
 10
0.0
 20
0.0
 30
0.0
  0
VERTEX
  5
9C9
  8
0
 10
569.6463392327398
 20
490.5805798491193
 30
0.0
 42
0.0199682054813757
  0
VERTEX
  5
9CA
  8
0
 10
575.0194170460554
 20
484.145534034867
 30
0.0
  0
SEQEND
  5
DF4
  8
0
  0
POLYLINE
  5
339
  8
0
 66
     1
 10
0.0
 20
0.0
 30
0.0
  0
VERTEX
  5
9CB
  8
0
 10
567.0082088510985
 20
489.6618856509737
 30
0.0
 42
0.0027056146697796
  0
VERTEX
  5
9CC
  8
0
 10
569.6463392328621
 20
490.5805798492324
 30
0.0
  0
SEQEND
  5
DF5
  8
0
  0
POLYLINE
  5
33A
  8
0
 66
     1
 10
0.0
 20
0.0
 30
0.0
  0
VERTEX
  5
9CD
  8
0
 10
566.794477346836
 20
481.2813069918255
 30
0.0
 42
0.0199682054813805
  0
VERTEX
  5
9CE
  8
0
 10
567.008208851322
 20
489.6618856510474
 30
0.0
  0
SEQEND
  5
DF6
  8
0
  0
POLYLINE
  5
33B
  8
0
 66
     1
 10
0.0
 20
0.0
 30
0.0
  0
VERTEX
  5
9CF
  8
0
 10
559.3822374197014
 20
487.1840573299054
 30
0.0
 42
0.0199682054813789
  0
VERTEX
  5
9D0
  8
0
 10
564.4811303806323
 20
480.5296549981849
 30
0.0
  0
SEQEND
  5
DF7
  8
0
  0
POLYLINE
  5
33C
  8
0
 66
     1
 10
0.0
 20
0.0
 30
0.0
  0
VERTEX
  5
9D1
  8
0
 10
556.7079502069214
 20
486.3766424171054
 30
0.0
 42
0.0027056146693302
  0
VERTEX
  5
9D2
  8
0
 10
559.3822374198455
 20
487.1840573299868
 30
0.0
  0
SEQEND
  5
DF8
  8
0
  0
POLYLINE
  5
33D
  8
0
 66
     1
 10
0.0
 20
0.0
 30
0.0
  0
VERTEX
  5
9D3
  8
0
 10
556.1434639711247
 20
478.0123650956549
 30
0.0
 42
0.0199682054813777
  0
VERTEX
  5
9D4
  8
0
 10
556.7079502067518
 20
486.3766424170507
 30
0.0
  0
SEQEND
  5
DF9
  8
0
  0
POLYLINE
  5
33E
  8
0
 66
     1
 10
0.0
 20
0.0
 30
0.0
  0
VERTEX
  5
9D5
  8
0
 10
548.9849073668879
 20
484.2203301114835
 30
0.0
 42
0.0199682054813768
  0
VERTEX
  5
9D6
  8
0
 10
553.8006702845685
 20
477.3582453451617
 30
0.0
  0
SEQEND
  5
DFA
  8
0
  0
POLYLINE
  5
33F
  8
0
 66
     1
 10
0.0
 20
0.0
 30
0.0
  0
VERTEX
  5
9D7
  8
0
 10
546.2791549311178
 20
483.5256109640034
 30
0.0
 42
0.0027056146693337
  0
VERTEX
  5
9D8
  8
0
 10
548.9849073670844
 20
484.2203301115208
 30
0.0
  0
SEQEND
  5
DFB
  8
0
  0
POLYLINE
  5
340
  8
0
 66
     1
 10
0.0
 20
0.0
 30
0.0
  0
VERTEX
  5
9D9
  8
0
 10
545.364904264866
 20
475.1923087650181
 30
0.0
 42
0.0199682054813772
  0
VERTEX
  5
9DA
  8
0
 10
546.2791549309634
 20
483.5256109639648
 30
0.0
  0
SEQEND
  5
DFC
  8
0
  0
POLYLINE
  5
341
  8
0
 66
     1
 10
0.0
 20
0.0
 30
0.0
  0
VERTEX
  5
9DB
  8
0
 10
538.4725895243662
 20
481.6945975782631
 30
0.0
 42
0.0199682054813725
  0
VERTEX
  5
9DC
  8
0
 10
542.9967739142294
 20
474.6368688057748
 30
0.0
  0
SEQEND
  5
DFD
  8
0
  0
POLYLINE
  5
342
  8
0
 66
     1
 10
0.0
 20
0.0
 30
0.0
  0
VERTEX
  5
9DD
  8
0
 10
535.7401186743555
 20
481.1137929694531
 30
0.0
 42
0.0027056146697438
  0
VERTEX
  5
9DE
  8
0
 10
538.4725895246027
 20
481.6945975782453
 30
0.0
  0
SEQEND
  5
DFE
  8
0
  0
POLYLINE
  5
343
  8
0
 66
     1
 10
0.0
 20
0.0
 30
0.0
  0
VERTEX
  5
9DF
  8
0
 10
534.4777074842921
 20
472.8260853368193
 30
0.0
 42
0.0199682054813812
  0
VERTEX
  5
9E0
  8
0
 10
535.7401186745269
 20
481.113792969584
 30
0.0
  0
SEQEND
  5
DFF
  8
0
  0
POLYLINE
  5
344
  8
0
 66
     1
 10
0.0
 20
0.0
 30
0.0
  0
VERTEX
  5
9E1
  8
0
 10
527.8637260696667
 20
479.6112907235198
 30
0.0
 42
0.0199682054813807
  0
VERTEX
  5
9E2
  8
0
 10
532.0883949749627
 20
472.3702995993668
 30
0.0
  0
SEQEND
  5
E00
  8
0
  0
POLYLINE
  5
345
  8
0
 66
     1
 10
0.0
 20
0.0
 30
0.0
  0
VERTEX
  5
9E3
  8
0
 10
525.1093304881335
 20
479.145419582234
 30
0.0
 42
0.0027056146697236
  0
VERTEX
  5
9E4
  8
0
 10
527.8637260698945
 20
479.6112907235578
 30
0.0
  0
SEQEND
  5
E01
  8
0
  0
POLYLINE
  5
346
  8
0
 66
     1
 10
0.0
 20
0.0
 30
0.0
  0
VERTEX
  5
9E5
  8
0
 10
523.5009734721166
 20
470.9178459710027
 30
0.0
 42
0.0199682054813799
  0
VERTEX
  5
9E6
  8
0
 10
525.1093304882911
 20
479.1454195822166
 30
0.0
  0
SEQEND
  5
E02
  8
0
  0
POLYLINE
  5
347
  8
0
 66
     1
 10
0.0
 20
0.0
 30
0.0
  0
VERTEX
  5
9E7
  8
0
 10
517.1769285541968
 20
477.9740643752815
 30
0.0
 42
0.0199682054813805
  0
VERTEX
  5
9E8
  8
0
 10
521.0946704701171
 20
470.5625140583958
 30
0.0
  0
SEQEND
  5
E03
  8
0
  0
POLYLINE
  5
348
  8
0
 66
     1
 10
0.0
 20
0.0
 30
0.0
  0
VERTEX
  5
9E9
  8
0
 10
514.4054403873536
 20
477.6239439977649
 30
0.0
 42
0.0027056146693482
  0
VERTEX
  5
9EA
  8
0
 10
517.1769285543787
 20
477.9740643752783
 30
0.0
  0
SEQEND
  5
E04
  8
0
  0
POLYLINE
  5
349
  8
0
 66
     1
 10
0.0
 20
0.0
 30
0.0
  0
VERTEX
  5
9EB
  8
0
 10
512.4539591497755
 20
469.4709383679526
 30
0.0
 42
0.0199682054813782
  0
VERTEX
  5
9EC
  8
0
 10
514.4054403871596
 20
477.6239439977522
 30
0.0
  0
SEQEND
  5
E05
  8
0
  0
POLYLINE
  5
34A
  8
0
 66
     1
 10
0.0
 20
0.0
 30
0.0
  0
VERTEX
  5
9ED
  8
0
 10
506.4309452522132
 20
476.7857907850164
 30
0.0
 42
0.019968205481381
  0
VERTEX
  5
9EE
  8
0
 10
510.0348871281774
 20
469.216683653119
 30
0.0
  0
SEQEND
  5
E06
  8
0
  0
POLYLINE
  5
34B
  8
0
 66
     1
 10
0.0
 20
0.0
 30
0.0
  0
VERTEX
  5
9EF
  8
0
 10
503.6472266317174
 20
476.5520354013764
 30
0.0
 42
0.0027056146693527
  0
VERTEX
  5
9F0
  8
0
 10
506.4309452524229
 20
476.7857907850351
 30
0.0
  0
SEQEND
  5
E07
  8
0
  0
POLYLINE
  5
34C
  8
0
 66
     1
 10
0.0
 20
0.0
 30
0.0
  0
VERTEX
  5
9F1
  8
0
 10
501.3560447341216
 20
468.4879008952176
 30
0.0
 42
0.0199682054813783
  0
VERTEX
  5
9F2
  8
0
 10
503.6472266315077
 20
476.5520354013212
 30
0.0
  0
SEQEND
  5
E08
  8
0
  0
POLYLINE
  5
34D
  8
0
 66
     1
 10
0.0
 20
0.0
 30
0.0
  0
VERTEX
  5
9F3
  8
0
 10
495.6446282699661
 20
476.0485545882736
 30
0.0
 42
0.0199682054813758
  0
VERTEX
  5
9F4
  8
0
 10
498.9284475672969
 20
468.3351694272727
 30
0.0
  0
SEQEND
  5
E09
  8
0
  0
POLYLINE
  5
34E
  8
0
 66
     1
 10
0.0
 20
0.0
 30
0.0
  0
VERTEX
  5
9F5
  8
0
 10
492.8535627841559
 20
475.9315742848396
 30
0.0
 42
0.0027056146693024
  0
VERTEX
  5
9F6
  8
0
 10
495.6446282702007
 20
476.0485545882724
 30
0.0
  0
SEQEND
  5
E0A
  8
0
  0
POLYLINE
  5
34F
  8
0
 66
     1
 10
0.0
 20
0.0
 30
0.0
  0
VERTEX
  5
9F7
  8
0
 10
490.2266997381356
 20
467.970458134523
 30
0.0
 42
0.0199682054813785
  0
VERTEX
  5
9F8
  8
0
 10
492.8535627839258
 20
475.9315742847908
 30
0.0
  0
SEQEND
  5
E0B
  8
0
  0
POLYLINE
  5
350
  8
0
 66
     1
 10
0.0
 20
0.0
 30
0.0
  0
VERTEX
  5
9F9
  8
0
 10
484.8369004725815
 20
475.7636491478785
 30
0.0
 42
0.0199682054813773
  0
VERTEX
  5
9FA
  8
0
 10
487.7948362563823
 20
467.9195178563712
 30
0.0
  0
SEQEND
  5
E0C
  8
0
  0
POLYLINE
  5
351
  8
0
 66
     1
 10
0.0
 20
0.0
 30
0.0
  0
VERTEX
  5
9FB
  8
0
 10
482.0433845982748
 20
475.7636491478335
 30
0.0
 42
0.0027056146697322
  0
VERTEX
  5
9FC
  8
0
 10
484.8369004727834
 20
475.7636491478335
 30
0.0
  0
SEQEND
  5
E0D
  8
0
  0
POLYLINE
  5
352
  8
0
 66
     1
 10
0.0
 20
0.0
 30
0.0
  0
VERTEX
  5
9FD
  8
0
 10
479.0854488147336
 20
467.9195178563892
 30
0.0
 42
0.0199682054813851
  0
VERTEX
  5
9FE
  8
0
 10
482.0433845985331
 20
475.763649147893
 30
0.0
  0
SEQEND
  5
E0E
  8
0
  0
POLYLINE
  5
353
  8
0
 66
     1
 10
0.0
 20
0.0
 30
0.0
  0
VERTEX
  5
9FF
  8
0
 10
474.0267222871783
 20
475.9315742848752
 30
0.0
 42
0.0199682054813785
  0
VERTEX
  5
A00
  8
0
 10
476.65358533297
 20
467.9704581346032
 30
0.0
  0
SEQEND
  5
E0F
  8
0
  0
POLYLINE
  5
354
  8
0
 66
     1
 10
0.0
 20
0.0
 30
0.0
  0
VERTEX
  5
A01
  8
0
 10
471.2356568013693
 20
476.0485545882451
 30
0.0
 42
0.002705614669309
  0
VERTEX
  5
A02
  8
0
 10
474.0267222874
 20
475.9315742848179
 30
0.0
  0
SEQEND
  5
E10
  8
0
  0
POLYLINE
  5
355
  8
0
 66
     1
 10
0.0
 20
0.0
 30
0.0
  0
VERTEX
  5
A03
  8
0
 10
467.951837503824
 20
468.3351694272907
 30
0.0
 42
0.019968205481381
  0
VERTEX
  5
A04
  8
0
 10
471.2356568011533
 20
476.0485545882884
 30
0.0
  0
SEQEND
  5
E11
  8
0
  0
POLYLINE
  5
356
  8
0
 66
     1
 10
0.0
 20
0.0
 30
0.0
  0
VERTEX
  5
A05
  8
0
 10
463.2330584395255
 20
476.552035401315
 30
0.0
 42
0.0199682054813788
  0
VERTEX
  5
A06
  8
0
 10
465.5242403369123
 20
468.4879008952097
 30
0.0
  0
SEQEND
  5
E12
  8
0
  0
POLYLINE
  5
357
  8
0
 66
     1
 10
0.0
 20
0.0
 30
0.0
  0
VERTEX
  5
A07
  8
0
 10
460.4493398186897
 20
476.7857907849544
 30
0.0
 42
0.0027056146697379
  0
VERTEX
  5
A08
  8
0
 10
463.2330584398256
 20
476.5520354012618
 30
0.0
  0
SEQEND
  5
E13
  8
0
  0
POLYLINE
  5
358
  8
0
 66
     1
 10
0.0
 20
0.0
 30
0.0
  0
VERTEX
  5
A09
  8
0
 10
456.8453979428555
 20
469.2166836531322
 30
0.0
 42
0.0199682054813811
  0
VERTEX
  5
A0A
  8
0
 10
460.4493398188188
 20
476.7857907850276
 30
0.0
  0
SEQEND
  5
E14
  8
0
  0
POLYLINE
  5
359
  8
0
 66
     1
 10
0.0
 20
0.0
 30
0.0
  0
VERTEX
  5
A0B
  8
0
 10
452.4748446838699
 20
477.6239439977466
 30
0.0
 42
0.0199682054813771
  0
VERTEX
  5
A0C
  8
0
 10
454.4263259212547
 20
469.4709383679445
 30
0.0
  0
SEQEND
  5
E15
  8
0
  0
POLYLINE
  5
35A
  8
0
 66
     1
 10
0.0
 20
0.0
 30
0.0
  0
VERTEX
  5
A0D
  8
0
 10
449.7033565170946
 20
477.9740643752348
 30
0.0
 42
0.0027056146693026
  0
VERTEX
  5
A0E
  8
0
 10
452.4748446841145
 20
477.6239439977268
 30
0.0
  0
SEQEND
  5
E16
  8
0
  0
POLYLINE
  5
35B
  8
0
 66
     1
 10
0.0
 20
0.0
 30
0.0
  0
VERTEX
  5
A0F
  8
0
 10
445.7856146010104
 20
470.5625140584136
 30
0.0
 42
0.0199682054813798
  0
VERTEX
  5
A10
  8
0
 10
449.7033565169295
 20
477.974064375297
 30
0.0
  0
SEQEND
  5
E17
  8
0
  0
POLYLINE
  5
35C
  8
0
 66
     1
 10
0.0
 20
0.0
 30
0.0
  0
VERTEX
  5
A11
  8
0
 10
441.7709545827254
 20
479.1454195823103
 30
0.0
 42
0.0199682054813783
  0
VERTEX
  5
A12
  8
0
 10
443.3793115989006
 20
470.9178459710929
 30
0.0
  0
SEQEND
  5
E18
  8
0
  0
POLYLINE
  5
35D
  8
0
 66
     1
 10
0.0
 20
0.0
 30
0.0
  0
VERTEX
  5
A13
  8
0
 10
439.0165590012146
 20
479.611290723503
 30
0.0
 42
0.0027056146697685
  0
VERTEX
  5
A14
  8
0
 10
441.7709545829851
 20
479.1454195821776
 30
0.0
  0
SEQEND
  5
E19
  8
0
  0
POLYLINE
  5
35E
  8
0
 66
     1
 10
0.0
 20
0.0
 30
0.0
  0
VERTEX
  5
A15
  8
0
 10
434.7918900960906
 20
472.3702995993701
 30
0.0
 42
0.0199682054813806
  0
VERTEX
  5
A16
  8
0
 10
439.0165590013865
 20
479.6112907235226
 30
0.0
  0
SEQEND
  5
E1A
  8
0
  0
POLYLINE
  5
35F
  8
0
 66
     1
 10
0.0
 20
0.0
 30
0.0
  0
VERTEX
  5
A17
  8
0
 10
431.1401663965917
 20
481.1137929695795
 30
0.0
 42
0.0199682054813794
  0
VERTEX
  5
A18
  8
0
 10
432.402577586827
 20
472.8260853368117
 30
0.0
  0
SEQEND
  5
E1B
  8
0
  0
POLYLINE
  5
360
  8
0
 66
     1
 10
0.0
 20
0.0
 30
0.0
  0
VERTEX
  5
A19
  8
0
 10
428.4076955465162
 20
481.6945975782473
 30
0.0
 42
0.002705614669754
  0
VERTEX
  5
A1A
  8
0
 10
431.1401663967754
 20
481.1137929694527
 30
0.0
  0
SEQEND
  5
E1C
  8
0
  0
POLYLINE
  5
361
  8
0
 66
     1
 10
0.0
 20
0.0
 30
0.0
  0
VERTEX
  5
A1B
  8
0
 10
423.8835111568119
 20
474.6368688057868
 30
0.0
 42
0.0199682054813765
  0
VERTEX
  5
A1C
  8
0
 10
428.407695546674
 20
481.6945975782738
 30
0.0
  0
SEQEND
  5
E1D
  8
0
  0
POLYLINE
  5
362
  8
0
 66
     1
 10
0.0
 20
0.0
 30
0.0
  0
VERTEX
  5
A1D
  8
0
 10
420.6011301401732
 20
483.5256109639633
 30
0.0
 42
0.0199682054813794
  0
VERTEX
  5
A1E
  8
0
 10
421.5153808062708
 20
475.1923087650148
 30
0.0
  0
SEQEND
  5
E1E
  8
0
  0
POLYLINE
  5
363
  8
0
 66
     1
 10
0.0
 20
0.0
 30
0.0
  0
VERTEX
  5
A1F
  8
0
 10
417.8953777039772
 20
484.220330111514
 30
0.0
 42
0.002705614669742
  0
VERTEX
  5
A20
  8
0
 10
420.6011301403765
 20
483.5256109638881
 30
0.0
  0
SEQEND
  5
E1F
  8
0
  0
POLYLINE
  5
364
  8
0
 66
     1
 10
0.0
 20
0.0
 30
0.0
  0
VERTEX
  5
A21
  8
0
 10
413.0796147865122
 20
477.3582453451212
 30
0.0
 42
0.019968205481381
  0
VERTEX
  5
A22
  8
0
 10
417.895377704188
 20
484.2203301114365
 30
0.0
  0
SEQEND
  5
E20
  8
0
  0
POLYLINE
  5
365
  8
0
 66
     1
 10
0.0
 20
0.0
 30
0.0
  0
VERTEX
  5
A23
  8
0
 10
410.1723348643496
 20
486.376642417049
 30
0.0
 42
0.01996820548138
  0
VERTEX
  5
A24
  8
0
 10
410.7368210999771
 20
478.0123650956489
 30
0.0
  0
SEQEND
  5
E21
  8
0
  0
POLYLINE
  5
366
  8
0
 66
     1
 10
0.0
 20
0.0
 30
0.0
  0
VERTEX
  5
A25
  8
0
 10
407.4980476516551
 20
487.1840573298165
 30
0.0
 42
0.0027056146693271
  0
VERTEX
  5
A26
  8
0
 10
410.1723348645631
 20
486.3766424169451
 30
0.0
  0
SEQEND
  5
E22
  8
0
  0
POLYLINE
  5
367
  8
0
 66
     1
 10
0.0
 20
0.0
 30
0.0
  0
VERTEX
  5
A27
  8
0
 10
402.3991546904898
 20
480.5296549982154
 30
0.0
 42
0.0199682054813782
  0
VERTEX
  5
A28
  8
0
 10
407.4980476514182
 20
487.1840573299328
 30
0.0
  0
SEQEND
  5
E23
  8
0
  0
POLYLINE
  5
368
  8
0
 66
     1
 10
0.0
 20
0.0
 30
0.0
  0
VERTEX
  5
A29
  8
0
 10
399.872076219685
 20
489.6618856510484
 30
0.0
 42
0.0199682054813769
  0
VERTEX
  5
A2A
  8
0
 10
400.085807724171
 20
481.2813069918221
 30
0.0
  0
SEQEND
  5
E24
  8
0
  0
POLYLINE
  5
369
  8
0
 66
     1
 10
0.0
 20
0.0
 30
0.0
  0
VERTEX
  5
A2B
  8
0
 10
397.2339458381624
 20
490.5805798492249
 30
0.0
 42
0.0027056146697594
  0
VERTEX
  5
A2C
  8
0
 10
399.8720762199424
 20
489.6618856509607
 30
0.0
  0
SEQEND
  5
E25
  8
0
  0
POLYLINE
  5
36A
  8
0
 66
     1
 10
0.0
 20
0.0
 30
0.0
  0
VERTEX
  5
A2D
  8
0
 10
391.8608680250862
 20
484.1455340348823
 30
0.0
 42
0.0199682054813764
  0
VERTEX
  5
A2E
  8
0
 10
397.2339458384006
 20
490.5805798491333
 30
0.0
  0
SEQEND
  5
E26
  8
0
  0
POLYLINE
  5
36B
  8
0
 66
     1
 10
0.0
 20
0.0
 30
0.0
  0
VERTEX
  5
A2F
  8
0
 10
389.7184243600375
 20
493.3755772328146
 30
0.0
 42
0.0199682054813791
  0
VERTEX
  5
A30
  8
0
 10
389.581026175697
 20
484.9933996184701
 30
0.0
  0
SEQEND
  5
E27
  8
0
  0
POLYLINE
  5
36C
  8
0
 66
     1
 10
0.0
 20
0.0
 30
0.0
  0
VERTEX
  5
A31
  8
0
 10
387.1210789875998
 20
494.4039390142146
 30
0.0
 42
0.0027056146693293
  0
VERTEX
  5
A32
  8
0
 10
389.7184243602697
 20
493.375577232656
 30
0.0
  0
SEQEND
  5
E28
  8
0
  0
POLYLINE
  5
36D
  8
0
 66
     1
 10
0.0
 20
0.0
 30
0.0
  0
VERTEX
  5
A33
  8
0
 10
381.4832425260036
 20
488.1995389746131
 30
0.0
 42
0.0199682054813798
  0
VERTEX
  5
A34
  8
0
 10
387.1210789874329
 20
494.403939014393
 30
0.0
  0
SEQEND
  5
E29
  8
0
  0
POLYLINE
  5
36E
  8
0
 66
     1
 10
0.0
 20
0.0
 30
0.0
  0
VERTEX
  5
A35
  8
0
 10
379.7291922409359
 20
497.5112020854432
 30
0.0
 42
0.0199682054813806
  0
VERTEX
  5
A36
  8
0
 10
379.2409054108721
 20
489.1421307037994
 30
0.0
  0
SEQEND
  5
E2A
  8
0
  0
POLYLINE
  5
36F
  8
0
 66
     1
 10
0.0
 20
0.0
 30
0.0
  0
VERTEX
  5
A37
  8
0
 10
377.1771885031051
 20
498.6474273545615
 30
0.0
 42
0.0027056146697544
  0
VERTEX
  5
A38
  8
0
 10
379.7291922411244
 20
497.5112020853807
 30
0.0
  0
SEQEND
  5
E2B
  8
0
  0
POLYLINE
  5
370
  8
0
 66
     1
 10
0.0
 20
0.0
 30
0.0
  0
VERTEX
  5
A39
  8
0
 10
371.2844840746821
 20
492.6845577150776
 30
0.0
 42
0.0199682054813778
  0
VERTEX
  5
A3A
  8
0
 10
377.1771885033218
 20
498.6474273544461
 30
0.0
  0
SEQEND
  5
E2C
  8
0
  0
POLYLINE
  5
371
  8
0
 66
     1
 10
0.0
 20
0.0
 30
0.0
  0
VERTEX
  5
A3B
  8
0
 10
369.9219043698361
 20
502.061504917678
 30
0.0
 42
0.0199682054813788
  0
VERTEX
  5
A3C
  8
0
 10
369.0835855150702
 20
493.7202219637671
 30
0.0
  0
SEQEND
  5
E2D
  8
0
  0
POLYLINE
  5
372
  8
0
 66
     1
 10
0.0
 20
0.0
 30
0.0
  0
VERTEX
  5
A3D
  8
0
 10
367.4197193487551
 20
503.3036003490596
 30
0.0
 42
0.0027056146697465
  0
VERTEX
  5
A3E
  8
0
 10
369.9219043699748
 20
502.0615049176382
 30
0.0
  0
SEQEND
  5
E2E
  8
0
  0
POLYLINE
  5
373
  8
0
 66
     1
 10
0.0
 20
0.0
 30
0.0
  0
VERTEX
  5
A3F
  8
0
 10
361.2824847590617
 20
497.5927220095303
 30
0.0
 42
0.019968205481375
  0
VERTEX
  5
A40
  8
0
 10
367.4197193489916
 20
503.303600348945
 30
0.0
  0
SEQEND
  5
E2F
  8
0
  0
POLYLINE
  5
374
  8
0
 66
     1
 10
0.0
 20
0.0
 30
0.0
  0
VERTEX
  5
A41
  8
0
 10
360.3137660622352
 20
507.0185029522081
 30
0.0
 42
0.0199682054813801
  0
VERTEX
  5
A42
  8
0
 10
359.1268858789006
 20
498.7196418707168
 30
0.0
  0
SEQEND
  5
E30
  8
0
  0
POLYLINE
  5
375
  8
0
 66
     1
 10
0.0
 20
0.0
 30
0.0
  0
VERTEX
  5
A43
  8
0
 10
357.8657894407868
 20
508.3642894883337
 30
0.0
 42
0.0027056146697474
  0
VERTEX
  5
A44
  8
0
 10
360.3137660624348
 20
507.0185029521235
 30
0.0
  0
SEQEND
  5
E31
  8
0
  0
POLYLINE
  5
376
  8
0
 66
     1
 10
0.0
 20
0.0
 30
0.0
  0
VERTEX
  5
A45
  8
0
 10
351.4947914846962
 20
502.9154212698883
 30
0.0
 42
0.0199682054813786
  0
VERTEX
  5
A46
  8
0
 10
357.8657894409981
 20
508.3642894881715
 30
0.0
  0
SEQEND
  5
E32
  8
0
  0
POLYLINE
  5
377
  8
0
 66
     1
 10
0.0
 20
0.0
 30
0.0
  0
VERTEX
  5
A47
  8
0
 10
350.9216332576059
 20
512.3734999299608
 30
0.0
 42
0.0199682054813785
  0
VERTEX
  5
A48
  8
0
 10
349.3882739368494
 20
504.1316197431994
 30
0.0
  0
SEQEND
  5
E33
  8
0
  0
POLYLINE
  5
378
  8
0
 66
     1
 10
0.0
 20
0.0
 30
0.0
  0
VERTEX
  5
A49
  8
0
 10
348.5321596189272
 20
513.8206166037425
 30
0.0
 42
0.0027056146693245
  0
VERTEX
  5
A4A
  8
0
 10
350.9216332578056
 20
512.3734999298597
 30
0.0
  0
SEQEND
  5
E34
  8
0
  0
POLYLINE
  5
379
  8
0
 66
     1
 10
0.0
 20
0.0
 30
0.0
  0
VERTEX
  5
A4B
  8
0
 10
341.9385751913963
 20
508.6433176731165
 30
0.0
 42
0.0199682054813779
  0
VERTEX
  5
A4C
  8
0
 10
348.5321596187771
 20
513.820616603877
 30
0.0
  0
SEQEND
  5
E35
  8
0
  0
POLYLINE
  5
37A
  8
0
 66
     1
 10
0.0
 20
0.0
 30
0.0
  0
VERTEX
  5
A4D
  8
0
 10
341.7619829483331
 20
518.1171013666632
 30
0.0
 42
0.0199682054813803
  0
VERTEX
  5
A4E
  8
0
 10
339.8848345234422
 20
509.9466611330893
 30
0.0
  0
SEQEND
  5
E36
  8
0
  0
POLYLINE
  5
37B
  8
0
 66
     1
 10
0.0
 20
0.0
 30
0.0
  0
VERTEX
  5
A4F
  8
0
 10
339.4352042403314
 20
519.6630094441911
 30
0.0
 42
0.0027056146697663
  0
VERTEX
  5
A50
  8
0
 10
341.7619829484711
 20
518.1171013665605
 30
0.0
  0
SEQEND
  5
E37
  8
0
  0
POLYLINE
  5
37C
  8
0
 66
     1
 10
0.0
 20
0.0
 30
0.0
  0
VERTEX
  5
A51
  8
0
 10
332.6306007296578
 20
514.7663625423675
 30
0.0
 42
0.0199682054813767
  0
VERTEX
  5
A52
  8
0
 10
339.4352042405156
 20
519.6630094440217
 30
0.0
  0
SEQEND
  5
E38
  8
0
  0
POLYLINE
  5
37D
  8
0
 66
     1
 10
0.0
 20
0.0
 30
0.0
  0
VERTEX
  5
A53
  8
0
 10
332.8508842735526
 20
524.2392310336585
 30
0.0
 42
0.0199682054813867
  0
VERTEX
  5
A54
  8
0
 10
330.633239900724
 20
516.1545644817778
 30
0.0
  0
SEQEND
  5
E39
  8
0
  0
POLYLINE
  5
37E
  8
0
 66
     1
 10
0.0
 20
0.0
 30
0.0
  0
VERTEX
  5
A55
  8
0
 10
330.5908824575332
 20
525.881218466333
 30
0.0
 42
0.0027056146693276
  0
VERTEX
  5
A56
  8
0
 10
332.8508842737149
 20
524.2392310335107
 30
0.0
  0
SEQEND
  5
E3A
  8
0
  0
POLYLINE
  5
37F
  8
0
 66
     1
 10
0.0
 20
0.0
 30
0.0
  0
VERTEX
  5
A57
  8
0
 10
323.5871974497621
 20
521.2738139764961
 30
0.0
 42
0.0199682054813781
  0
VERTEX
  5
A58
  8
0
 10
330.5908824573215
 20
525.8812184664882
 30
0.0
  0
SEQEND
  5
E3B
  8
0
  0
POLYLINE
  5
380
  8
0
 66
     1
 10
0.0
 20
0.0
 30
0.0
  0
VERTEX
  5
A59
  8
0
 10
324.2039703283347
 20
530.7291486353147
 30
0.0
 42
0.0199682054813779
  0
VERTEX
  5
A5A
  8
0
 10
321.6497205093586
 20
522.7444390174444
 30
0.0
  0
SEQEND
  5
E3C
  8
0
  0
POLYLINE
  5
381
  8
0
 66
     1
 10
0.0
 20
0.0
 30
0.0
  0
VERTEX
  5
A5B
  8
0
 10
322.0147102146437
 20
532.4643348197968
 30
0.0
 42
0.0027056146697519
  0
VERTEX
  5
A5C
  8
0
 10
324.2039703284336
 20
530.7291486351722
 30
0.0
  0
SEQEND
  5
E3D
  8
0
  0
POLYLINE
  5
382
  8
0
 66
     1
 10
0.0
 20
0.0
 30
0.0
  0
VERTEX
  5
A5D
  8
0
 10
314.8242305539373
 20
528.1542556944319
 30
0.0
 42
0.0199682054813774
  0
VERTEX
  5
A5E
  8
0
 10
322.0147102148197
 20
532.4643348196753
 30
0.0
  0
SEQEND
  5
E3E
  8
0
  0
POLYLINE
  5
383
  8
0
 66
     1
 10
0.0
 20
0.0
 30
0.0
  0
VERTEX
  5
A5F
  8
0
 10
315.8364107379908
 20
537.5754686507479
 30
0.0
 42
0.0199682054813775
  0
VERTEX
  5
A60
  8
0
 10
312.9500364949893
 20
529.7047238607793
 30
0.0
  0
SEQEND
  5
E3F
  8
0
  0
POLYLINE
  5
384
  8
0
 66
     1
 10
0.0
 20
0.0
 30
0.0
  0
VERTEX
  5
A61
  8
0
 10
313.7217330335469
 20
539.4008094802222
 30
0.0
 42
0.0027056146693016
  0
VERTEX
  5
A62
  8
0
 10
315.8364107381001
 20
537.5754686505367
 30
0.0
  0
SEQEND
  5
E40
  8
0
  0
POLYLINE
  5
385
  8
0
 66
     1
 10
0.0
 20
0.0
 30
0.0
  0
VERTEX
  5
A63
  8
0
 10
306.3570732638441
 20
535.3956170632696
 30
0.0
 42
0.0199682054813864
  0
VERTEX
  5
A64
  8
0
 10
313.7217330333866
 20
539.4008094804063
 30
0.0
  0
SEQEND
  5
E41
  8
0
  0
POLYLINE
  5
386
  8
0
 66
     1
 10
0.0
 20
0.0
 30
0.0
  0
VERTEX
  5
A65
  8
0
 10
307.7628850452477
 20
544.7661803082339
 30
0.0
 42
0.0199682054813781
  0
VERTEX
  5
A66
  8
0
 10
304.5494500594396
 20
537.0232083070267
 30
0.0
  0
SEQEND
  5
E42
  8
0
  0
POLYLINE
  5
387
  8
0
 66
     1
 10
0.0
 20
0.0
 30
0.0
  0
VERTEX
  5
A67
  8
0
 10
305.7264996127008
 20
546.6784735153699
 30
0.0
 42
0.0027056146697462
  0
VERTEX
  5
A68
  8
0
 10
307.7628850454142
 20
544.7661803081158
 30
0.0
  0
SEQEND
  5
E43
  8
0
  0
POLYLINE
  5
388
  8
0
 66
     1
 10
0.0
 20
0.0
 30
0.0
  0
VERTEX
  5
A69
  8
0
 10
298.200579850414
 20
542.9851942746185
 30
0.0
 42
0.0199682054813751
  0
VERTEX
  5
A6A
  8
0
 10
305.7264996128552
 20
546.678473515177
 30
0.0
  0
SEQEND
  5
E44
  8
0
  0
POLYLINE
  5
389
  8
0
 66
     1
 10
0.0
 20
0.0
 30
0.0
  0
VERTEX
  5
A6B
  8
0
 10
299.9975569578156
 20
552.2886686562646
 30
0.0
 42
0.019968205481379
  0
VERTEX
  5
A6C
  8
0
 10
296.4626986860993
 20
544.6870532477902
 30
0.0
  0
SEQEND
  5
E45
  8
0
  0
POLYLINE
  5
38A
  8
0
 66
     1
 10
0.0
 20
0.0
 30
0.0
  0
VERTEX
  5
A6D
  8
0
 10
298.0430363096605
 20
554.2845594282168
 30
0.0
 42
0.0027056146693092
  0
VERTEX
  5
A6E
  8
0
 10
299.9975569578917
 20
552.2886686560745
 30
0.0
  0
SEQEND
  5
E46
  8
0
  0
POLYLINE
  5
38B
  8
0
 66
     1
 10
0.0
 20
0.0
 30
0.0
  0
VERTEX
  5
A6F
  8
0
 10
290.3690595747856
 20
550.9096726311692
 30
0.0
 42
0.0199682054813762
  0
VERTEX
  5
A70
  8
0
 10
298.0430363095318
 20
554.2845594283739
 30
0.0
  0
SEQEND
  5
E47
  8
0
  0
POLYLINE
  5
38C
  8
0
 66
     1
 10
0.0
 20
0.0
 30
0.0
  0
VERTEX
  5
A71
  8
0
 10
292.5540494996558
 20
560.1297366939039
 30
0.0
 42
0.019968205481382
  0
VERTEX
  5
A72
  8
0
 10
288.7039692845931
 20
552.6828136946352
 30
0.0
  0
SEQEND
  5
E48
  8
0
  0
POLYLINE
  5
38D
  8
0
 66
     1
 10
0.0
 20
0.0
 30
0.0
  0
VERTEX
  5
A73
  8
0
 10
290.6848225290633
 20
562.20572356048
 30
0.0
 42
0.0027056146693265
  0
VERTEX
  5
A74
  8
0
 10
292.5540494997584
 20
560.1297366937735
 30
0.0
  0
SEQEND
  5
E49
  8
0
  0
POLYLINE
  5
38E
  8
0
 66
     1
 10
0.0
 20
0.0
 30
0.0
  0
VERTEX
  5
A75
  8
0
 10
282.8762515847368
 20
559.1551499049884
 30
0.0
 42
0.019968205481374
  0
VERTEX
  5
A76
  8
0
 10
290.6848225289648
 20
562.205723560605
 30
0.0
  0
SEQEND
  5
E4A
  8
0
  0
POLYLINE
  5
38F
  8
0
 66
     1
 10
0.0
 20
0.0
 30
0.0
  0
VERTEX
  5
A77
  8
0
 10
285.4454211121695
 20
568.275628523603
 30
0.0
 42
0.0199682054813835
  0
VERTEX
  5
A78
  8
0
 10
281.2868733027227
 20
560.9964623669605
 30
0.0
  0
SEQEND
  5
E4B
  8
0
  0
POLYLINE
  5
390
  8
0
 66
     1
 10
0.0
 20
0.0
 30
0.0
  0
VERTEX
  5
A79
  8
0
 10
283.6647670783983
 20
570.4280694983488
 30
0.0
 42
0.0027056146693062
  0
VERTEX
  5
A7A
  8
0
 10
285.4454211122839
 20
568.2756285234656
 30
0.0
  0
SEQEND
  5
E4C
  8
0
  0
POLYLINE
  5
391
  8
0
 66
     1
 10
0.0
 20
0.0
 30
0.0
  0
VERTEX
  5
A7B
  8
0
 10
275.7353008113813
 20
567.7071607272209
 30
0.0
 42
0.0199682054813801
  0
VERTEX
  5
A7C
  8
0
 10
283.6647670782843
 20
570.4280694984651
 30
0.0
  0
SEQEND
  5
E4D
  8
0
  0
POLYLINE
  5
392
  8
0
 66
     1
 10
0.0
 20
0.0
 30
0.0
  0
VERTEX
  5
A7D
  8
0
 10
278.6841427450984
 20
576.7120534829729
 30
0.0
 42
0.0199682054813782
  0
VERTEX
  5
A7E
  8
0
 10
274.2244228472105
 20
569.6134142998746
 30
0.0
  0
SEQEND
  5
E4E
  8
0
  0
POLYLINE
  5
393
  8
0
 66
     1
 10
0.0
 20
0.0
 30
0.0
  0
VERTEX
  5
A7F
  8
0
 10
276.9951855204852
 20
578.9371724529748
 30
0.0
 42
0.002705614669333
  0
VERTEX
  5
A80
  8
0
 10
278.6841427453044
 20
576.7120534828031
 30
0.0
  0
SEQEND
  5
E4F
  8
0
  0
POLYLINE
  5
394
  8
0
 66
     1
 10
0.0
 20
0.0
 30
0.0
  0
VERTEX
  5
A81
  8
0
 10
268.9587349089919
 20
576.5507019648431
 30
0.0
 42
0.0199682054813736
  0
VERTEX
  5
A82
  8
0
 10
276.995185520287
 20
578.9371724531593
 30
0.0
  0
SEQEND
  5
E50
  8
0
  0
POLYLINE
  5
395
  8
0
 66
     1
 10
0.0
 20
0.0
 30
0.0
  0
VERTEX
  5
A83
  8
0
 10
272.2820759783554
 20
585.4242112160679
 30
0.0
 42
0.0199682054813782
  0
VERTEX
  5
A84
  8
0
 10
267.5290078561489
 20
578.5185524317723
 30
0.0
  0
SEQEND
  5
E51
  8
0
  0
POLYLINE
  5
396
  8
0
 66
     1
 10
0.0
 20
0.0
 30
0.0
  0
VERTEX
  5
A85
  8
0
 10
270.6877785675295
 20
587.7181045665371
 30
0.0
 42
0.0027056146693277
  0
VERTEX
  5
A86
  8
0
 10
272.2820759784098
 20
585.4242112158369
 30
0.0
  0
SEQEND
  5
E52
  8
0
  0
POLYLINE
  5
397
  8
0
 66
     1
 10
0.0
 20
0.0
 30
0.0
  0
VERTEX
  5
A87
  8
0
 10
262.5584422769674
 20
585.6702590415249
 30
0.0
 42
0.0199682054813791
  0
VERTEX
  5
A88
  8
0
 10
270.6877785674802
 20
587.7181045667489
 30
0.0
  0
SEQEND
  5
E53
  8
0
  0
POLYLINE
  5
398
  8
0
 66
     1
 10
0.0
 20
0.0
 30
0.0
  0
VERTEX
  5
A89
  8
0
 10
266.2504522121652
 20
594.3968176375887
 30
0.0
 42
0.0199682054813822
  0
VERTEX
  5
A8A
  8
0
 10
261.2123743622286
 20
587.6962541241605
 30
0.0
  0
SEQEND
  5
E54
  8
0
  0
POLYLINE
  5
399
  8
0
 66
     1
 10
0.0
 20
0.0
 30
0.0
  0
VERTEX
  5
A8B
  8
0
 10
264.7536115545038
 20
596.7554611005639
 30
0.0
 42
0.0027056146697552
  0
VERTEX
  5
A8C
  8
0
 10
266.2504522122672
 20
594.3968176373793
 30
0.0
  0
SEQEND
  5
E55
  8
0
  0
POLYLINE
  5
39A
  8
0
 66
     1
 10
0.0
 20
0.0
 30
0.0
  0
VERTEX
  5
A8D
  8
0
 10
256.5456512032184
 20
595.0498331552077
 30
0.0
 42
0.0199682054813753
  0
VERTEX
  5
A8E
  8
0
 10
264.753611554723
 20
596.7554611004244
 30
0.0
  0
SEQEND
  5
E56
  8
0
  0
POLYLINE
  5
39B
  8
0
 66
     1
 10
0.0
 20
0.0
 30
0.0
  0
VERTEX
  5
A8F
  8
0
 10
260.5998529644397
 20
603.6141317470716
 30
0.0
 42
0.0199682054813762
  0
VERTEX
  5
A90
  8
0
 10
255.2856038872749
 20
597.1304185697843
 30
0.0
  0
SEQEND
  5
E57
  8
0
  0
POLYLINE
  5
39C
  8
0
 66
     1
 10
0.0
 20
0.0
 30
0.0
  0
VERTEX
  5
A91
  8
0
 10
259.2030950273309
 20
606.0333874600984
 30
0.0
 42
0.0027056146697509
  0
VERTEX
  5
A92
  8
0
 10
260.5998529645872
 20
603.6141317468956
 30
0.0
  0
SEQEND
  5
E58
  8
0
  0
POLYLINE
  5
39D
  8
0
 66
     1
 10
0.0
 20
0.0
 30
0.0
  0
VERTEX
  5
A93
  8
0
 10
250.9309101665067
 20
604.672969345728
 30
0.0
 42
0.01996820548138
  0
VERTEX
  5
A94
  8
0
 10
259.2030950274691
 20
606.0333874599465
 30
0.0
  0
SEQEND
  5
E59
  8
0
  0
POLYLINE
  5
39E
  8
0
 66
     1
 10
0.0
 20
0.0
 30
0.0
  0
VERTEX
  5
A95
  8
0
 10
255.3401913063015
 20
613.0599832435083
 30
0.0
 42
0.0199682054813777
  0
VERTEX
  5
A96
  8
0
 10
249.7590940005842
 20
606.8044950384552
 30
0.0
  0
SEQEND
  5
E5A
  8
0
  0
POLYLINE
  5
39F
  8
0
 66
     1
 10
0.0
 20
0.0
 30
0.0
  0
VERTEX
  5
A97
  8
0
 10
254.0459664777343
 20
615.5356070099954
 30
0.0
 42
0.0027056146697629
  0
VERTEX
  5
A98
  8
0
 10
255.3401913064357
 20
613.0599832433726
 30
0.0
  0
SEQEND
  5
E5B
  8
0
  0
POLYLINE
  5
3A0
  8
0
 66
     1
 10
0.0
 20
0.0
 30
0.0
  0
VERTEX
  5
A99
  8
0
 10
245.724069330581
 20
614.5227853621719
 30
0.0
 42
0.0199682054813789
  0
VERTEX
  5
A9A
  8
0
 10
254.0459664778437
 20
615.5356070097461
 30
0.0
  0
SEQEND
  5
E5C
  8
0
  0
POLYLINE
  5
3A1
  8
0
 66
     1
 10
0.0
 20
0.0
 30
0.0
  0
VERTEX
  5
A9B
  8
0
 10
250.4806944714861
 20
622.7178008936997
 30
0.0
 42
0.019968205481379
  0
VERTEX
  5
A9C
  8
0
 10
244.6425400783576
 20
616.7015119128191
 30
0.0
  0
SEQEND
  5
E5D
  8
0
  0
POLYLINE
  5
3A2
  8
0
 66
     1
 10
0.0
 20
0.0
 30
0.0
  0
VERTEX
  5
A9D
  8
0
 10
249.291273261747
 20
625.2454496278909
 30
0.0
 42
0.0027056146693158
  0
VERTEX
  5
A9E
  8
0
 10
250.4806944715918
 20
622.7178008935291
 30
0.0
  0
SEQEND
  5
E5E
  8
0
  0
POLYLINE
  5
3A3
  8
0
 66
     1
 10
0.0
 20
0.0
 30
0.0
  0
VERTEX
  5
A9F
  8
0
 10
240.9342632634912
 20
624.5820012804696
 30
0.0
 42
0.0199682054813771
  0
VERTEX
  5
AA0
  8
0
 10
249.2912732616604
 20
625.2454496280706
 30
0.0
  0
SEQEND
  5
E5F
  8
0
  0
POLYLINE
  5
3A4
  8
0
 66
     1
 10
0.0
 20
0.0
 30
0.0
  0
VERTEX
  5
AA1
  8
0
 10
246.0298876687207
 20
632.5706416037555
 30
0.0
 42
0.0199682054813777
  0
VERTEX
  5
AA2
  8
0
 10
239.9449182948052
 20
626.8041064622688
 30
0.0
  0
SEQEND
  5
E60
  8
0
  0
POLYLINE
  5
3A5
  8
0
 66
     1
 10
0.0
 20
0.0
 30
0.0
  0
VERTEX
  5
AA3
  8
0
 10
244.9473567263843
 20
635.1458809515535
 30
0.0
 42
0.0027056146697507
  0
VERTEX
  5
AA4
  8
0
 10
246.0298876687594
 20
632.570641603463
 30
0.0
  0
SEQEND
  5
E61
  8
0
  0
POLYLINE
  5
3A6
  8
0
 66
     1
 10
0.0
 20
0.0
 30
0.0
  0
VERTEX
  5
AA5
  8
0
 10
236.5698949126877
 20
634.832969817559
 30
0.0
 42
0.0199682054813766
  0
VERTEX
  5
AA6
  8
0
 10
244.9473567264934
 20
635.1458809513437
 30
0.0
  0
SEQEND
  5
E62
  8
0
  0
POLYLINE
  5
3A7
  8
0
 66
     1
 10
0.0
 20
0.0
 30
0.0
  0
VERTEX
  5
AA7
  8
0
 10
241.9955791255398
 20
642.601220142868
 30
0.0
 42
0.0199682054813817
  0
VERTEX
  5
AA8
  8
0
 10
235.6744698748099
 20
637.0945553028995
 30
0.0
  0
SEQEND
  5
E63
  8
0
  0
POLYLINE
  5
3A8
  8
0
 66
     1
 10
0.0
 20
0.0
 30
0.0
  0
VERTEX
  5
AA9
  8
0
 10
241.0218375781167
 20
645.2195322587997
 30
0.0
 42
0.0027056146693088
  0
VERTEX
  5
AAA
  8
0
 10
241.9955791255712
 20
642.601220142671
 30
0.0
  0
SEQEND
  5
E64
  8
0
  0
POLYLINE
  5
3A9
  8
0
 66
     1
 10
0.0
 20
0.0
 30
0.0
  0
VERTEX
  5
AAB
  8
0
 10
232.638620863309
 20
645.2577072914323
 30
0.0
 42
0.0199682054813789
  0
VERTEX
  5
AAC
  8
0
 10
241.0218375780499
 20
645.2195322589441
 30
0.0
  0
SEQEND
  5
E65
  8
0
  0
POLYLINE
  5
3AA
  8
0
 66
     1
 10
0.0
 20
0.0
 30
0.0
  0
VERTEX
  5
AAD
  8
0
 10
238.3848463899588
 20
652.7919394680299
 30
0.0
 42
0.0199682054813809
  0
VERTEX
  5
AAE
  8
0
 10
231.8386866359618
 20
647.5548054908809
 30
0.0
  0
SEQEND
  5
E66
  8
0
  0
POLYLINE
  5
3AB
  8
0
 66
     1
 10
0.0
 20
0.0
 30
0.0
  0
VERTEX
  5
AAF
  8
0
 10
237.5216025106934
 20
655.4487309435937
 30
0.0
 42
0.002705614669759
  0
VERTEX
  5
AB0
  8
0
 10
238.3848463899743
 20
652.7919394677641
 30
0.0
  0
SEQEND
  5
E67
  8
0
  0
POLYLINE
  5
3AC
  8
0
 66
     1
 10
0.0
 20
0.0
 30
0.0
  0
VERTEX
  5
AB1
  8
0
 10
229.1473379058737
 20
655.8379251701829
 30
0.0
 42
0.0199682054813764
  0
VERTEX
  5
AB2
  8
0
 10
237.5216025107964
 20
655.4487309434008
 30
0.0
  0
SEQEND
  5
E68
  8
0
  0
POLYLINE
  5
3AD
  8
0
 66
     1
 10
0.0
 20
0.0
 30
0.0
  0
VERTEX
  5
AB3
  8
0
 10
235.2040239142037
 20
663.1249215946533
 30
0.0
 42
0.0199682054813796
  0
VERTEX
  5
AB4
  8
0
 10
228.4442978455502
 20
658.1665061929115
 30
0.0
  0
SEQEND
  5
E69
  8
0
  0
POLYLINE
  5
3AE
  8
0
 66
     1
 10
0.0
 20
0.0
 30
0.0
  0
VERTEX
  5
AB5
  8
0
 10
234.4527921265056
 20
665.8155315141025
 30
0.0
 42
0.0027056146692961
  0
VERTEX
  5
AB6
  8
0
 10
235.2040239142498
 20
663.1249215944395
 30
0.0
  0
SEQEND
  5
E6A
  8
0
  0
POLYLINE
  5
3AF
  8
0
 66
     1
 10
0.0
 20
0.0
 30
0.0
  0
VERTEX
  5
AB7
  8
0
 10
226.102170937061
 20
666.5550621564445
 30
0.0
 42
0.0199682054813787
  0
VERTEX
  5
AB8
  8
0
 10
234.4527921264519
 20
665.8155315142916
 30
0.0
  0
SEQEND
  5
E6B
  8
0
  0
POLYLINE
  5
3B0
  8
0
 66
     1
 10
0.0
 20
0.0
 30
0.0
  0
VERTEX
  5
AB9
  8
0
 10
232.4586919416341
 20
673.5820389609604
 30
0.0
 42
0.019968205481376
  0
VERTEX
  5
ABA
  8
0
 10
225.4972584148216
 20
668.9110408801231
 30
0.0
  0
SEQEND
  5
E6C
  8
0
  0
POLYLINE
  5
3B1
  8
0
 66
     1
 10
0.0
 20
0.0
 30
0.0
  0
VERTEX
  5
ABB
  8
0
 10
231.8207901611696
 20
676.3017470806119
 30
0.0
 42
0.0027056146692982
  0
VERTEX
  5
ABC
  8
0
 10
232.4586919416832
 20
673.582038960779
 30
0.0
  0
SEQEND
  5
E6D
  8
0
  0
POLYLINE
  5
3B2
  8
0
 66
     1
 10
0.0
 20
0.0
 30
0.0
  0
VERTEX
  5
ABD
  8
0
 10
223.5084622143782
 20
677.3903167502928
 30
0.0
 42
0.0199682054813811
  0
VERTEX
  5
ABE
  8
0
 10
231.8207901611148
 20
676.3017470808094
 30
0.0
  0
SEQEND
  5
E6E
  8
0
  0
POLYLINE
  5
3B3
  8
0
 66
     1
 10
0.0
 20
0.0
 30
0.0
  0
VERTEX
  5
ABF
  8
0
 10
230.1536667175854
 20
684.1449462296738
 30
0.0
 42
0.019968205481381
  0
VERTEX
  5
AC0
  8
0
 10
223.0027384525268
 20
679.7695599875879
 30
0.0
  0
SEQEND
  5
E6F
  8
0
  0
POLYLINE
  5
3B4
  8
0
 66
     1
 10
0.0
 20
0.0
 30
0.0
  0
VERTEX
  5
AC1
  8
0
 10
229.6302140407527
 20
686.8889812572605
 30
0.0
 42
0.0027056146693086
  0
VERTEX
  5
AC2
  8
0
 10
230.1536667175565
 20
684.1449462294424
 30
0.0
  0
SEQEND
  5
E70
  8
0
  0
POLYLINE
  5
3B5
  8
0
 66
     1
 10
0.0
 20
0.0
 30
0.0
  0
VERTEX
  5
AC3
  8
0
 10
221.3707619844764
 20
688.3246802332245
 30
0.0
 42
0.0199682054813796
  0
VERTEX
  5
AC4
  8
0
 10
229.6302140407909
 20
686.8889812575093
 30
0.0
  0
SEQEND
  5
E71
  8
0
  0
POLYLINE
  5
3B6
  8
0
 66
     1
 10
0.0
 20
0.0
 30
0.0
  0
VERTEX
  5
AC5
  8
0
 10
228.2929920393547
 20
694.7951124722699
 30
0.0
 42
0.0199682054813804
  0
VERTEX
  5
AC6
  8
0
 10
220.9651141941293
 20
690.7230139831709
 30
0.0
  0
SEQEND
  5
E72
  8
0
  0
POLYLINE
  5
3B7
  8
0
 66
     1
 10
0.0
 20
0.0
 30
0.0
  0
VERTEX
  5
AC7
  8
0
 10
227.8849067800982
 20
697.5586604383678
 30
0.0
 42
0.0027056146697375
  0
VERTEX
  5
AC8
  8
0
 10
228.2929920393836
 20
694.7951124720231
 30
0.0
  0
SEQEND
  5
E73
  8
0
  0
POLYLINE
  5
3B8
  8
0
 66
     1
 10
0.0
 20
0.0
 30
0.0
  0
VERTEX
  5
AC9
  8
0
 10
219.6928204997351
 20
699.3389700162645
 30
0.0
 42
0.0199682054813809
  0
VERTEX
  5
ACA
  8
0
 10
227.884906780141
 20
697.5586604381743
 30
0.0
  0
SEQEND
  5
E74
  8
0
  0
POLYLINE
  5
3B9
  8
0
 66
     1
 10
0.0
 20
0.0
 30
0.0
  0
VERTEX
  5
ACB
  8
0
 10
226.8799321627014
 20
705.5138536780371
 30
0.0
 42
0.0199682054813749
  0
VERTEX
  5
ACC
  8
0
 10
219.3879603250799
 20
701.7521867863834
 30
0.0
  0
SEQEND
  5
E75
  8
0
  0
POLYLINE
  5
3BA
  8
0
 66
     1
 10
0.0
 20
0.0
 30
0.0
  0
VERTEX
  5
ACD
  8
0
 10
226.5879302413146
 20
708.2920663800472
 30
0.0
 42
0.0027056146697393
  0
VERTEX
  5
ACE
  8
0
 10
226.8799321627858
 20
705.5138536778372
 30
0.0
  0
SEQEND
  5
E76
  8
0
  0
POLYLINE
  5
3BB
  8
0
 66
     1
 10
0.0
 20
0.0
 30
0.0
  0
VERTEX
  5
ACF
  8
0
 10
218.4775814398884
 20
710.4138632923879
 30
0.0
 42
0.0199682054813807
  0
VERTEX
  5
AD0
  8
0
 10
226.5879302413576
 20
708.2920663798765
 30
0.0
  0
SEQEND
  5
E77
  8
0
  0
POLYLINE
  5
3BC
  8
0
 66
     1
 10
0.0
 20
0.0
 30
0.0
  0
VERTEX
  5
AD1
  8
0
 10
225.9169660748158
 20
716.282365532777
 30
0.0
 42
0.0199682054813785
  0
VERTEX
  5
AD2
  8
0
 10
218.2740437091905
 20
712.8377294805198
 30
0.0
  0
SEQEND
  5
E78
  8
0
  0
POLYLINE
  5
3BD
  8
0
 66
     1
 10
0.0
 20
0.0
 30
0.0
  0
VERTEX
  5
AD3
  8
0
 10
225.741559761786
 20
719.070369041193
 30
0.0
 42
0.0027056146688878
  0
VERTEX
  5
AD4
  8
0
 10
225.9169660748069
 20
716.2823655329859
 30
0.0
  0
SEQEND
  5
E79
  8
0
  0
POLYLINE
  5
3BE
  8
0
 66
     1
 10
0.0
 20
0.0
 30
0.0
  0
VERTEX
  5
AD5
  8
0
 10
217.7271767470125
 20
721.5299309355643
 30
0.0
 42
0.0199682054813784
  0
VERTEX
  5
AD6
  8
0
 10
225.7415597618318
 20
719.0703690414082
 30
0.0
  0
SEQEND
  5
E7A
  8
0
  0
POLYLINE
  5
3BF
  8
0
 66
     1
 10
0.0
 20
0.0
 30
0.0
  0
VERTEX
  5
AD7
  8
0
 10
225.4057831454052
 20
727.0817564074342
 30
0.0
 42
0.0199682054813755
  0
VERTEX
  5
AD8
  8
0
 10
217.6253185346898
 20
723.9601942567052
 30
0.0
  0
SEQEND
  5
E7B
  8
0
  0
POLYLINE
  5
3C0
  8
0
 66
     1
 10
0.0
 20
0.0
 30
0.0
  0
VERTEX
  5
AD9
  8
0
 10
225.347280162974
 20
729.8746596175735
 30
0.0
 42
0.0027056146697375
  0
VERTEX
  5
ADA
  8
0
 10
225.4057831453682
 20
727.0817564072833
 30
0.0
  0
SEQEND
  5
E7C
  8
0
  0
POLYLINE
  5
3C1
  8
0
 66
     1
 10
0.0
 20
0.0
 30
0.0
  0
VERTEX
  5
ADB
  8
0
 10
217.4429228859684
 20
732.6676715858167
 30
0.0
 42
0.0199682054813811
  0
VERTEX
  5
ADC
  8
0
 10
225.3472801630249
 20
729.8746596173426
 30
0.0
  0
SEQEND
  5
E7D
  8
0
  0
POLYLINE
  5
3C2
  8
0
 66
     1
 10
0.0
 20
0.0
 30
0.0
  0
VERTEX
  5
ADD
  8
0
 10
392.2233444874642
 20
185.5035586309883
 30
0.0
  0
VERTEX
  5
ADE
  8
0
 10
422.2233441864556
 20
185.4993088651858
 30
0.0
  0
VERTEX
  5
ADF
  8
0
 10
422.2224942332951
 20
179.4993089253874
 30
0.0
  0
SEQEND
  5
E7E
  8
0
  0
POLYLINE
  5
3C3
  8
0
 66
     1
 10
0.0
 20
0.0
 30
0.0
  0
VERTEX
  5
AE0
  8
0
 10
452.2233438854472
 20
185.495059099383
 30
0.0
  0
VERTEX
  5
AE1
  8
0
 10
452.2224939322867
 20
179.4950591595847
 30
0.0
  0
SEQEND
  5
E7F
  8
0
  0
POLYLINE
  5
3C4
  8
0
 66
     1
 10
0.0
 20
0.0
 30
0.0
  0
VERTEX
  5
AE2
  8
0
 10
452.2233438854472
 20
185.495059099383
 30
0.0
  0
VERTEX
  5
AE3
  8
0
 10
482.2233435844387
 20
185.4908093335803
 30
0.0
  0
VERTEX
  5
AE4
  8
0
 10
482.222493631278
 20
179.4908093937819
 30
0.0
  0
SEQEND
  5
E80
  8
0
  0
POLYLINE
  5
3C5
  8
0
 66
     1
 10
0.0
 20
0.0
 30
0.0
 70
     1
  0
VERTEX
  5
AE5
  8
0
 10
392.2111759913824
 20
99.60355949287612
 30
0.0
  0
VERTEX
  5
AE6
  8
0
 10
398.0111759331874
 20
99.60273787148753
 30
0.0
  0
VERTEX
  5
AE7
  8
0
 10
398.015397367218
 20
129.4027375724858
 30
0.0
  0
VERTEX
  5
AE8
  8
0
 10
392.2153974254132
 20
129.4035591938743
 30
0.0
  0
SEQEND
  5
E81
  8
0
  0
POLYLINE
  5
3C6
  8
0
 66
     1
 10
0.0
 20
0.0
 30
0.0
 70
     1
  0
VERTEX
  5
AE9
  8
0
 10
103.8154003191081
 20
129.4444136091245
 30
0.0
  0
VERTEX
  5
AEA
  8
0
 10
98.01540037730302
 20
129.4452352305129
 30
0.0
  0
VERTEX
  5
AEB
  8
0
 10
98.01117894327223
 20
99.64523552951471
 30
0.0
  0
VERTEX
  5
AEC
  8
0
 10
103.8111788850773
 20
99.64441390812613
 30
0.0
  0
SEQEND
  5
E82
  8
0
  0
POLYLINE
  5
3C7
  8
0
 66
     1
 10
0.0
 20
0.0
 30
0.0
  0
VERTEX
  5
AED
  8
0
 10
432.0811022055953
 20
98.93187382203723
 30
0.0
  0
VERTEX
  5
AEE
  8
0
 10
482.222493631278
 20
179.4908093937819
 30
0.0
  0
SEQEND
  5
E83
  8
0
  0
POLYLINE
  5
3C8
  8
0
 66
     1
 10
0.0
 20
0.0
 30
0.0
  0
VERTEX
  5
AEF
  8
0
 10
91.20974825701393
 20
89.5461989111028
 30
0.0
  0
VERTEX
  5
AF0
  8
0
 10
415.0986338961371
 20
89.50031718030687
 30
0.0
  0
SEQEND
  5
E84
  8
0
  0
POLYLINE
  5
3C9
  8
0
 66
     1
 10
0.0
 20
0.0
 30
0.0
  0
VERTEX
  5
AF1
  8
0
 10
86.21612295588619
 20
134.5469067538905
 30
0.0
  0
VERTEX
  5
AF2
  8
0
 10
86.21045660148246
 20
94.54690715523532
 30
0.0
  0
SEQEND
  5
E85
  8
0
  0
POLYLINE
  5
3CA
  8
0
 66
     1
 10
0.0
 20
0.0
 30
0.0
  0
VERTEX
  5
AF3
  8
0
 10
372.2168283805723
 20
139.5063922697367
 30
0.0
  0
VERTEX
  5
AF4
  8
0
 10
91.21683120001836
 20
139.546198409422
 30
0.0
  0
SEQEND
  5
E86
  8
0
  0
POLYLINE
  5
3CB
  8
0
 66
     1
 10
0.0
 20
0.0
 30
0.0
  0
VERTEX
  5
AF5
  8
0
 10
392.2233444874642
 20
185.5035586309883
 30
0.0
  0
VERTEX
  5
AF6
  8
0
 10
392.2196613571019
 20
159.5035588918623
 30
0.0
  0
SEQEND
  5
E87
  8
0
  0
POLYLINE
  5
3CC
  8
0
 66
     1
 10
0.0
 20
0.0
 30
0.0
  0
VERTEX
  5
AF7
  8
0
 10
452.2224939322867
 20
179.4950591595847
 30
0.0
  0
VERTEX
  5
AF8
  8
0
 10
422.2224942332951
 20
179.4993089253874
 30
0.0
  0
SEQEND
  5
E88
  8
0
  0
POLYLINE
  5
3CD
  8
0
 66
     1
 10
0.0
 20
0.0
 30
0.0
  0
VERTEX
  5
AF9
  8
0
 10
372.2168283805723
 20
139.5063922697367
 30
0.0
 42
0.4142135623730949
  0
VERTEX
  5
AFA
  8
0
 10
392.2196613571019
 20
159.5035588918623
 30
0.0
  0
SEQEND
  5
E89
  8
0
  0
POLYLINE
  5
3CE
  8
0
 66
     1
 10
0.0
 20
0.0
 30
0.0
  0
VERTEX
  5
AFB
  8
0
 10
415.0986338961371
 20
89.50031718030664
 30
0.0
 42
0.2591260281976129
  0
VERTEX
  5
AFC
  8
0
 10
432.0811022055755
 20
98.93187382200165
 30
0.0
  0
SEQEND
  5
E8A
  8
0
  0
POLYLINE
  5
3CF
  8
0
 66
     1
 10
0.0
 20
0.0
 30
0.0
  0
VERTEX
  5
AFD
  8
0
 10
86.21045660148246
 20
94.54690715523532
 30
0.0
 42
0.4142135623731008
  0
VERTEX
  5
AFE
  8
0
 10
91.20974825701393
 20
89.5461989111028
 30
0.0
  0
SEQEND
  5
E8B
  8
0
  0
POLYLINE
  5
3D0
  8
0
 66
     1
 10
0.0
 20
0.0
 30
0.0
  0
VERTEX
  5
AFF
  8
0
 10
91.21683120001836
 20
139.546198409422
 30
0.0
 42
0.4142135623730895
  0
VERTEX
  5
B00
  8
0
 10
86.21612295588619
 20
134.5469067538905
 30
0.0
  0
SEQEND
  5
E8C
  8
0
  0
POLYLINE
  5
3D1
  8
0
 66
     1
 10
0.0
 20
0.0
 30
0.0
  0
VERTEX
  5
B01
  8
0
 10
123.4529372529353
 20
334.3879643008864
 30
0.0
  0
VERTEX
  5
B02
  8
0
 10
93.45293725293533
 20
334.3879643008864
 30
0.0
  0
VERTEX
  5
B03
  8
0
 10
93.45293725293533
 20
340.3879643008864
 30
0.0
  0
SEQEND
  5
E8D
  8
0
  0
POLYLINE
  5
3D2
  8
0
 66
     1
 10
0.0
 20
0.0
 30
0.0
  0
VERTEX
  5
B04
  8
0
 10
63.45293725293533
 20
334.3879643008864
 30
0.0
  0
VERTEX
  5
B05
  8
0
 10
63.45293725293533
 20
340.3879643008864
 30
0.0
  0
SEQEND
  5
E8E
  8
0
  0
POLYLINE
  5
3D3
  8
0
 66
     1
 10
0.0
 20
0.0
 30
0.0
  0
VERTEX
  5
B06
  8
0
 10
63.45293725293533
 20
334.3879643008864
 30
0.0
  0
VERTEX
  5
B07
  8
0
 10
33.45293725293533
 20
334.3879643008864
 30
0.0
  0
VERTEX
  5
B08
  8
0
 10
33.45293725293533
 20
340.3879643008864
 30
0.0
  0
SEQEND
  5
E8F
  8
0
  0
POLYLINE
  5
3D4
  8
0
 66
     1
 10
0.0
 20
0.0
 30
0.0
 70
     1
  0
VERTEX
  5
B09
  8
0
 10
123.4529372529353
 20
420.2879643008864
 30
0.0
  0
VERTEX
  5
B0A
  8
0
 10
117.6529372529354
 20
420.2879643008864
 30
0.0
  0
VERTEX
  5
B0B
  8
0
 10
117.6529372529354
 20
390.4879643008864
 30
0.0
  0
VERTEX
  5
B0C
  8
0
 10
123.4529372529353
 20
390.4879643008864
 30
0.0
  0
SEQEND
  5
E90
  8
0
  0
POLYLINE
  5
3D5
  8
0
 66
     1
 10
0.0
 20
0.0
 30
0.0
 70
     1
  0
VERTEX
  5
B0D
  8
0
 10
411.8529372529353
 20
390.4879643008864
 30
0.0
  0
VERTEX
  5
B0E
  8
0
 10
417.6529372529353
 20
390.4879643008864
 30
0.0
  0
VERTEX
  5
B0F
  8
0
 10
417.6529372529353
 20
420.2879643008864
 30
0.0
  0
VERTEX
  5
B10
  8
0
 10
411.8529372529353
 20
420.2879643008864
 30
0.0
  0
SEQEND
  5
E91
  8
0
  0
POLYLINE
  5
3D6
  8
0
 66
     1
 10
0.0
 20
0.0
 30
0.0
  0
VERTEX
  5
B11
  8
0
 10
83.58291628853533
 20
420.9540020366864
 30
0.0
  0
VERTEX
  5
B12
  8
0
 10
33.45293725293533
 20
340.3879643008864
 30
0.0
  0
SEQEND
  5
E92
  8
0
  0
POLYLINE
  5
3D7
  8
0
 66
     1
 10
0.0
 20
0.0
 30
0.0
  0
VERTEX
  5
B13
  8
0
 10
424.4529372529353
 20
430.3879643008864
 30
0.0
  0
VERTEX
  5
B14
  8
0
 10
100.5640483640354
 20
430.3879643008864
 30
0.0
  0
SEQEND
  5
E93
  8
0
  0
POLYLINE
  5
3D8
  8
0
 66
     1
 10
0.0
 20
0.0
 30
0.0
  0
VERTEX
  5
B15
  8
0
 10
429.4529372529353
 20
385.3879643008864
 30
0.0
  0
VERTEX
  5
B16
  8
0
 10
429.4529372529353
 20
425.3879643008864
 30
0.0
  0
SEQEND
  5
E94
  8
0
  0
POLYLINE
  5
3D9
  8
0
 66
     1
 10
0.0
 20
0.0
 30
0.0
  0
VERTEX
  5
B17
  8
0
 10
143.4529372529353
 20
380.3879643008864
 30
0.0
  0
VERTEX
  5
B18
  8
0
 10
424.4529372529353
 20
380.3879643008864
 30
0.0
  0
SEQEND
  5
E95
  8
0
  0
POLYLINE
  5
3DA
  8
0
 66
     1
 10
0.0
 20
0.0
 30
0.0
  0
VERTEX
  5
B19
  8
0
 10
123.4529372529353
 20
334.3879643008864
 30
0.0
  0
VERTEX
  5
B1A
  8
0
 10
123.4529372529353
 20
360.3879643008864
 30
0.0
  0
SEQEND
  5
E96
  8
0
  0
POLYLINE
  5
3DB
  8
0
 66
     1
 10
0.0
 20
0.0
 30
0.0
  0
VERTEX
  5
B1B
  8
0
 10
63.45293725293533
 20
340.3879643008864
 30
0.0
  0
VERTEX
  5
B1C
  8
0
 10
93.45293725293533
 20
340.3879643008864
 30
0.0
  0
SEQEND
  5
E97
  8
0
  0
POLYLINE
  5
3DC
  8
0
 66
     1
 10
0.0
 20
0.0
 30
0.0
  0
VERTEX
  5
B1D
  8
0
 10
143.4529372529353
 20
380.3879643008864
 30
0.0
 42
0.4142135623730949
  0
VERTEX
  5
B1E
  8
0
 10
123.4529372529353
 20
360.3879643008864
 30
0.0
  0
SEQEND
  5
E98
  8
0
  0
POLYLINE
  5
3DD
  8
0
 66
     1
 10
0.0
 20
0.0
 30
0.0
  0
VERTEX
  5
B1F
  8
0
 10
100.5640483640354
 20
430.3879643008865
 30
0.0
 42
0.2591260281976129
  0
VERTEX
  5
B20
  8
0
 10
83.58291628855511
 20
420.954002036722
 30
0.0
  0
SEQEND
  5
E99
  8
0
  0
POLYLINE
  5
3DE
  8
0
 66
     1
 10
0.0
 20
0.0
 30
0.0
  0
VERTEX
  5
B21
  8
0
 10
429.4529372529353
 20
425.3879643008864
 30
0.0
 42
0.4142135623731008
  0
VERTEX
  5
B22
  8
0
 10
424.4529372529353
 20
430.3879643008864
 30
0.0
  0
SEQEND
  5
E9A
  8
0
  0
POLYLINE
  5
3DF
  8
0
 66
     1
 10
0.0
 20
0.0
 30
0.0
  0
VERTEX
  5
B23
  8
0
 10
424.4529372529353
 20
380.3879643008864
 30
0.0
 42
0.4142135623730895
  0
VERTEX
  5
B24
  8
0
 10
429.4529372529353
 20
385.3879643008864
 30
0.0
  0
SEQEND
  5
E9B
  8
0
  0
ENDSEC
  0
EOF
