0
SECTION
2
HEADER
9
$INSUNITS
70
4
9
$ACADVER
1
AC1014
9
$HANDSEED
5
FFFF
0
ENDSEC
0
SECTION
2
TABLES
0
TABLE
2
VPORT
5
8
100
AcDbSymbolTable
0
ENDTAB
0
TABLE
2
LTYPE
5
5
100
AcDbSymbolTable
0
LTYPE
5
14
100
AcDbSymbolTableRecord
100
AcDbLinetypeTableRecord
2
BYBLOCK
70
0
0
LTYPE
5
15
100
AcDbSymbolTableRecord
100
AcDbLinetypeTableRecord
2
BYLAYER
70
0
0
ENDTAB
0
TABLE
2
LAYER
5
2
100
AcDbSymbolTable
70
2
0
LAYER
5
50
100
AcDbSymbolTableRecord
100
AcDbLayerTableRecord
2
0
70
0
6
CONTINUOUS
0
ENDTAB
0
TABLE
2
STYLE
5
3
100
AcDbSymbolTable
70
1
0
STYLE
5
11
100
AcDbSymbolTableRecord
100
AcDbTextStyleTableRecord
2
STANDARD
70
0
0
ENDTAB
0
TABLE
2
VIEW
5
6
100
AcDbSymbolTable
70
0
0
ENDTAB
0
TABLE
2
UCS
5
7
100
AcDbSymbolTable
70
0
0
ENDTAB
0
TABLE
2
APPID
5
9
100
AcDbSymbolTable
70
2
0
APPID
5
12
100
AcDbSymbolTableRecord
100
AcDbRegAppTableRecord
2
ACAD
70
0
0
ENDTAB
0
TABLE
2
DIMSTYLE
5
A
100
AcDbSymbolTable
70
1
0
ENDTAB
0
TABLE
2
BLOCK_RECORD
5
1
100
AcDbSymbolTable
70
1
0
BLOCK_RECORD
5
1F
100
AcDbSymbolTableRecord
100
AcDbBlockTableRecord
2
*MODEL_SPACE
0
BLOCK_RECORD
5
1B
100
AcDbSymbolTableRecord
100
AcDbBlockTableRecord
2
*PAPER_SPACE
0
ENDTAB
0
ENDSEC
0
SECTION
2
BLOCKS
0
BLOCK
5
20
100
AcDbEntity
100
AcDbBlockBegin
2
*MODEL_SPACE
0
ENDBLK
5
21
100
AcDbEntity
100
AcDbBlockEnd
0
BLOCK
5
1C
100
AcDbEntity
100
AcDbBlockBegin
2
*PAPER_SPACE
0
ENDBLK
5
1D
100
AcDbEntity
100
AcDbBlockEnd
0
ENDSEC
0
SECTION
2
ENTITIES
0
LINE
5
100
100
AcDbEntity
8
0
100
AcDbLine
10
408.67987944120785
20
-80.486271236108223
30
0
11
508.6798794412079
21
-80.486271236108223
31
0
0
LINE
5
101
100
AcDbEntity
8
0
100
AcDbLine
10
508.6798794412079
20
-80.486271236108223
30
0
11
458.67987944120796
21
6.116269142335808
31
0
0
LINE
5
102
100
AcDbEntity
8
0
100
AcDbLine
10
458.67987944120796
20
6.116269142335808
30
0
11
408.67987944120785
21
-80.486271236108223
31
0
0
LINE
5
103
100
AcDbEntity
8
0
100
AcDbLine
10
408.67987944120785
20
-80.486271236108223
30
0
11
508.67987944120807
21
-80.486271236108337
31
0
0
LINE
5
104
100
AcDbEntity
8
0
100
AcDbLine
10
458.67987944120796
20
-80.48627123610828
30
0
11
458.67987944120796
21
6.116269142335808
31
0
0
LINE
5
105
100
AcDbEntity
8
0
100
AcDbLine
10
483.67987944120796
20
-37.185001046886221
30
0
11
408.67987944120785
21
-80.486271236108223
31
0
0
LINE
5
106
100
AcDbEntity
8
0
100
AcDbLine
10
433.6798794412079
20
-37.1850010468862
30
0
11
508.67987944120807
21
-80.486271236108337
31
0
0
LINE
5
107
100
AcDbEntity
8
0
100
AcDbLine
10
463.67987944120785
20
-63.819604569441218
30
0
11
453.67987944120785
21
-63.819604569441395
31
0
0
LINE
5
108
100
AcDbEntity
8
0
100
AcDbLine
10
453.67987944120785
20
-63.819604569441395
30
0
11
453.67987944120785
21
-97.152937902774738
31
0
0
LINE
5
109
100
AcDbEntity
8
0
100
AcDbLine
10
453.67987944120785
20
-97.152937902774738
30
0
11
463.67987944120785
21
-97.152937902774738
31
0
0
LINE
5
110
100
AcDbEntity
8
0
100
AcDbLine
10
463.67987944120785
20
-97.152937902774738
30
0
11
463.67987944120785
21
-63.819604569441218
31
0
0
LINE
5
111
100
AcDbEntity
8
0
100
AcDbLine
10
463.67987944120785
20
-63.819604569441218
30
0
11
453.67987944120785
21
-97.152937902774738
31
0
0
LINE
5
112
100
AcDbEntity
8
0
100
AcDbLine
10
453.67987944120785
20
-63.819604569441395
30
0
11
463.67987944120785
21
-97.152937902774738
31
0
0
LINE
5
113
100
AcDbEntity
8
0
100
AcDbLine
10
471.74612271146719
20
-49.848461399141534
30
0
11
466.74612271146714
21
-41.188207361297096
31
0
0
LINE
5
114
100
AcDbEntity
8
0
100
AcDbLine
10
466.74612271146714
20
-41.188207361297096
30
0
11
495.61363617094884
21
-24.521540694631049
31
0
0
LINE
5
115
100
AcDbEntity
8
0
100
AcDbLine
10
495.61363617094884
20
-24.521540694631049
30
0
11
500.61363617094889
21
-33.181794732475346
31
0
0
LINE
5
116
100
AcDbEntity
8
0
100
AcDbLine
10
500.61363617094889
20
-33.181794732475346
30
0
11
471.74612271146719
21
-49.848461399141534
31
0
0
LINE
5
117
100
AcDbEntity
8
0
100
AcDbLine
10
471.74612271146719
20
-49.848461399141534
30
0
11
495.61363617094884
21
-24.521540694631049
31
0
0
LINE
5
118
100
AcDbEntity
8
0
100
AcDbLine
10
466.74612271146714
20
-41.188207361297096
30
0
11
500.61363617094889
21
-33.181794732475346
31
0
0
LINE
5
119
100
AcDbEntity
8
0
100
AcDbLine
10
450.61363617094963
20
-41.188207361298161
30
0
11
445.61363617094804
21
-49.848461399141271
31
0
0
LINE
5
120
100
AcDbEntity
8
0
100
AcDbLine
10
445.61363617094804
20
-49.848461399141271
30
0
11
416.74612271146685
21
-33.181794732474394
31
0
0
LINE
5
121
100
AcDbEntity
8
0
100
AcDbLine
10
416.74612271146685
20
-33.181794732474394
30
0
11
421.74612271146702
21
-24.521540694630115
31
0
0
LINE
5
122
100
AcDbEntity
8
0
100
AcDbLine
10
421.74612271146702
20
-24.521540694630115
30
0
11
450.61363617094963
21
-41.188207361298161
31
0
0
LINE
5
123
100
AcDbEntity
8
0
100
AcDbLine
10
450.61363617094963
20
-41.188207361298161
30
0
11
416.74612271146685
21
-33.181794732474394
31
0
0
LINE
5
124
100
AcDbEntity
8
0
100
AcDbLine
10
445.61363617094804
20
-49.848461399141271
30
0
11
421.74612271146702
21
-24.521540694630115
31
0
0
LINE
5
125
100
AcDbEntity
8
0
100
AcDbLine
10
366.06552165586066
20
-102.17462952564745
30
0
11
321.06552165586066
21
-102.17462952564745
31
0
0
ENDSEC
0
SECTION
2
OBJECTS
0
DICTIONARY
5
C
100
AcDbDictionary
3
ACAD_GROUP
350
D
3
ACAD_MLINESTYLE
350
17
0
DICTIONARY
5
D
100
AcDbDictionary
0
DICTIONARY
5
1A
330
C
100
AcDbDictionary
0
DICTIONARY
5
17
100
AcDbDictionary
0
ENDSEC
0
EOF
