  0
SECTION
  2
HEADER
  9
$ACADVER
  1
AC1014
  9
$ACADMAINTVER
 70
     9
  9
$DWGCODEPAGE
  3
MAC-ROMAN
  9
$INSBASE
 10
0.0
 20
0.0
 30
0.0
  9
$EXTMIN
 10
-1059.633229409169
 20
41.84833928403112
 30
0.0
  9
$EXTMAX
 10
-739.672797665682
 20
295.6218558872541
 30
0.0
  9
$LIMMIN
 10
0.0
 20
0.0
  9
$LIMMAX
 10
12.0
 20
9.0
  9
$ORTHOMODE
 70
     0
  9
$REGENMODE
 70
     1
  9
$FILLMODE
 70
     1
  9
$QTEXTMODE
 70
     0
  9
$MIRRTEXT
 70
     1
  9
$DRAGMODE
 70
     2
  9
$LTSCALE
 40
1.0
  9
$OSMODE
 70
    37
  9
$ATTMODE
 70
     1
  9
$TEXTSIZE
 40
0.2
  9
$TRACEWID
 40
0.05
  9
$TEXTSTYLE
  7
STANDARD
  9
$CLAYER
  8
PREDETERMINADA
  9
$CELTYPE
  6
BYLAYER
  9
$CECOLOR
 62
   256
  9
$CELTSCALE
 40
1.0
  9
$DELOBJ
 70
     1
  9
$DISPSILH
 70
     0
  9
$DIMSCALE
 40
1.0
  9
$DIMASZ
 40
0.18
  9
$DIMEXO
 40
0.0625
  9
$DIMDLI
 40
0.38
  9
$DIMRND
 40
0.0
  9
$DIMDLE
 40
0.0
  9
$DIMEXE
 40
0.18
  9
$DIMTP
 40
0.0
  9
$DIMTM
 40
0.0
  9
$DIMTXT
 40
0.18
  9
$DIMCEN
 40
0.09
  9
$DIMTSZ
 40
0.0
  9
$DIMTOL
 70
     0
  9
$DIMLIM
 70
     0
  9
$DIMTIH
 70
     1
  9
$DIMTOH
 70
     1
  9
$DIMSE1
 70
     0
  9
$DIMSE2
 70
     0
  9
$DIMTAD
 70
     0
  9
$DIMZIN
 70
     0
  9
$DIMBLK
  1

  9
$DIMASO
 70
     1
  9
$DIMSHO
 70
     1
  9
$DIMPOST
  1

  9
$DIMAPOST
  1

  9
$DIMALT
 70
     0
  9
$DIMALTD
 70
     2
  9
$DIMALTF
 40
25.4
  9
$DIMLFAC
 40
1.0
  9
$DIMTOFL
 70
     0
  9
$DIMTVP
 40
0.0
  9
$DIMTIX
 70
     0
  9
$DIMSOXD
 70
     0
  9
$DIMSAH
 70
     0
  9
$DIMBLK1
  1

  9
$DIMBLK2
  1

  9
$DIMSTYLE
  2
STANDARD
  9
$DIMCLRD
 70
     0
  9
$DIMCLRE
 70
     0
  9
$DIMCLRT
 70
     0
  9
$DIMTFAC
 40
1.0
  9
$DIMGAP
 40
0.09
  9
$DIMJUST
 70
     0
  9
$DIMSD1
 70
     0
  9
$DIMSD2
 70
     0
  9
$DIMTOLJ
 70
     1
  9
$DIMTZIN
 70
     0
  9
$DIMALTZ
 70
     0
  9
$DIMALTTZ
 70
     0
  9
$DIMFIT
 70
     5
  9
$DIMUPT
 70
     0
  9
$DIMUNIT
 70
     2
  9
$DIMDEC
 70
     4
  9
$DIMTDEC
 70
     4
  9
$DIMALTU
 70
     2
  9
$DIMALTTD
 70
     2
  9
$DIMTXSTY
  7
STANDARD
  9
$DIMAUNIT
 70
     0
  9
$LUNITS
 70
     2
  9
$LUPREC
 70
     3
  9
$SKETCHINC
 40
0.1
  9
$FILLETRAD
 40
0.5
  9
$AUNITS
 70
     0
  9
$AUPREC
 70
     0
  9
$MENU
  1
.
  9
$ELEVATION
 40
0.0
  9
$PELEVATION
 40
0.0
  9
$THICKNESS
 40
0.0
  9
$LIMCHECK
 70
     0
  9
$CHAMFERA
 40
0.0
  9
$CHAMFERB
 40
0.0
  9
$CHAMFERC
 40
0.0
  9
$CHAMFERD
 40
0.0
  9
$SKPOLY
 70
     0
  9
$TDCREATE
 40
2458292.889872685
  9
$TDUPDATE
 40
2458292.889907408
  9
$TDINDWG
 40
0.0000000116
  9
$TDUSRTIMER
 40
0.0000000116
  9
$USRTIMER
 70
     1
  9
$ANGBASE
 50
0.0
  9
$ANGDIR
 70
     0
  9
$PDMODE
 70
     0
  9
$PDSIZE
 40
0.0
  9
$PLINEWID
 40
0.0
  9
$COORDS
 70
     1
  9
$SPLFRAME
 70
     0
  9
$SPLINETYPE
 70
     6
  9
$SPLINESEGS
 70
     8
  9
$ATTDIA
 70
     0
  9
$ATTREQ
 70
     1
  9
$HANDLING
 70
     1
  9
$HANDSEED
  5
73B
  9
$SURFTAB1
 70
     6
  9
$SURFTAB2
 70
     6
  9
$SURFTYPE
 70
     6
  9
$SURFU
 70
     6
  9
$SURFV
 70
     6
  9
$UCSNAME
  2

  9
$UCSORG
 10
0.0
 20
0.0
 30
0.0
  9
$UCSXDIR
 10
1.0
 20
0.0
 30
0.0
  9
$UCSYDIR
 10
0.0
 20
1.0
 30
0.0
  9
$PUCSNAME
  2

  9
$PUCSORG
 10
0.0
 20
0.0
 30
0.0
  9
$PUCSXDIR
 10
1.0
 20
0.0
 30
0.0
  9
$PUCSYDIR
 10
0.0
 20
1.0
 30
0.0
  9
$USERI1
 70
     0
  9
$USERI2
 70
     0
  9
$USERI3
 70
     0
  9
$USERI4
 70
     0
  9
$USERI5
 70
     0
  9
$USERR1
 40
0.0
  9
$USERR2
 40
0.0
  9
$USERR3
 40
0.0
  9
$USERR4
 40
0.0
  9
$USERR5
 40
0.0
  9
$WORLDVIEW
 70
     1
  9
$SHADEDGE
 70
     3
  9
$SHADEDIF
 70
    70
  9
$TILEMODE
 70
     1
  9
$MAXACTVP
 70
    64
  9
$PINSBASE
 10
0.0
 20
0.0
 30
0.0
  9
$PLIMCHECK
 70
     0
  9
$PEXTMIN
 10
1.000000000000000E+20
 20
1.000000000000000E+20
 30
1.000000000000000E+20
  9
$PEXTMAX
 10
-1.000000000000000E+20
 20
-1.000000000000000E+20
 30
-1.000000000000000E+20
  9
$PLIMMIN
 10
0.0
 20
0.0
  9
$PLIMMAX
 10
12.0
 20
9.0
  9
$UNITMODE
 70
     0
  9
$VISRETAIN
 70
     1
  9
$PLINEGEN
 70
     0
  9
$PSLTSCALE
 70
     1
  9
$TREEDEPTH
 70
  3020
  9
$PICKSTYLE
 70
     1
  9
$CMLSTYLE
  2
STANDARD
  9
$CMLJUST
 70
     0
  9
$CMLSCALE
 40
1.0
  9
$PROXYGRAPHICS
 70
     1
  9
$MEASUREMENT
 70
     0
  0
ENDSEC
  0
SECTION
  2
CLASSES
  0
CLASS
  1
ACDBDICTIONARYWDFLT
  2
AcDbDictionaryWithDefault
  3
ObjectDBX Classes
 90
        0
280
     0
281
     0
  0
CLASS
  1
VISUALSTYLE
  2
AcDbVisualStyle
  3
ObjectDBX Classes
 90
     4095
280
     0
281
     0
  0
CLASS
  1
MATERIAL
  2
AcDbMaterial
  3
ObjectDBX Classes
 90
     1153
280
     0
281
     0
  0
CLASS
  1
SCALE
  2
AcDbScale
  3
ObjectDBX Classes
 90
     1153
280
     0
281
     0
  0
CLASS
  1
TABLESTYLE
  2
AcDbTableStyle
  3
ObjectDBX Classes
 90
     4095
280
     0
281
     0
  0
CLASS
  1
MLEADERSTYLE
  2
AcDbMLeaderStyle
  3
ACDB_MLEADERSTYLE_CLASS
 90
     4095
280
     0
281
     0
  0
CLASS
  1
SUN
  2
AcDbSun
  3
SCENEOE
 90
     1153
280
     0
281
     0
  0
CLASS
  1
DICTIONARYVAR
  2
AcDbDictionaryVar
  3
ObjectDBX Classes
 90
        0
280
     0
281
     0
  0
CLASS
  1
XRECORD
  2
AcDbXrecord
  3
ObjectDBX Classes
 90
        0
280
     0
281
     0
  0
CLASS
  1
LWPOLYLINE
  2
AcDbPolyline
  3
ObjectDBX Classes
 90
        0
280
     0
281
     1
  0
CLASS
  1
HATCH
  2
AcDbHatch
  3
ObjectDBX Classes
 90
        0
280
     0
281
     1
  0
CLASS
  1
ACDBPLACEHOLDER
  2
AcDbPlaceHolder
  3
ObjectDBX Classes
 90
        0
280
     0
281
     0
  0
CLASS
  1
LAYOUT
  2
AcDbLayout
  3
ObjectDBX Classes
 90
        0
280
     0
281
     0
  0
ENDSEC
  0
SECTION
  2
TABLES
  0
TABLE
  2
VPORT
  5
8
102
{ACAD_XDICTIONARY
360
730
102
}
330
0
100
AcDbSymbolTable
 70
     1
  0
VPORT
  5
29
330
8
100
AcDbSymbolTableRecord
100
AcDbViewportTableRecord
  2
*ACTIVE
 70
     0
 10
0.0
 20
0.0
 11
1.0
 21
1.0
 12
-899.6530135374257
 22
168.7350975856426
 13
0.0
 23
0.0
 14
0.5
 24
0.5
 15
0.5
 25
0.5
 16
0.0
 26
0.0
 36
1.0
 17
0.0
 27
0.0
 37
0.0
 40
258.8489869352875
 41
1.260810962570803
 42
50.0
 43
0.0
 44
0.0
 50
0.0
 51
0.0
 71
     0
 72
   100
 73
     1
 74
     3
 75
     0
 76
     0
 77
     0
 78
     0
  0
ENDTAB
  0
TABLE
  2
LTYPE
  5
5
330
0
100
AcDbSymbolTable
 70
     1
  0
LTYPE
  5
14
330
5
100
AcDbSymbolTableRecord
100
AcDbLinetypeTableRecord
  2
BYBLOCK
 70
     0
  3

 72
    65
 73
     0
 40
0.0
  0
LTYPE
  5
15
330
5
100
AcDbSymbolTableRecord
100
AcDbLinetypeTableRecord
  2
BYLAYER
 70
     0
  3

 72
    65
 73
     0
 40
0.0
  0
LTYPE
  5
16
330
5
100
AcDbSymbolTableRecord
100
AcDbLinetypeTableRecord
  2
CONTINUOUS
 70
     0
  3
Solid line
 72
    65
 73
     0
 40
0.0
  0
ENDTAB
  0
TABLE
  2
LAYER
  5
2
330
0
100
AcDbSymbolTable
 70
     3
  0
LAYER
  5
10
330
2
100
AcDbSymbolTableRecord
100
AcDbLayerTableRecord
  2
0
 70
     0
 62
     7
  6
CONTINUOUS
  0
LAYER
  5
6E
330
2
100
AcDbSymbolTableRecord
100
AcDbLayerTableRecord
  2
PREDETERMINADA
 70
     0
 62
   178
  6
CONTINUOUS
  0
LAYER
  5
348
330
2
100
AcDbSymbolTableRecord
100
AcDbLayerTableRecord
  2
CAPA_1
 70
     0
 62
   178
  6
CONTINUOUS
  0
ENDTAB
  0
TABLE
  2
STYLE
  5
3
330
0
100
AcDbSymbolTable
 70
     1
  0
STYLE
  5
11
330
3
100
AcDbSymbolTableRecord
100
AcDbTextStyleTableRecord
  2
STANDARD
 70
     0
 40
0.0
 41
1.0
 50
0.0
 71
     0
 42
0.2
  3
txt
  4

  0
ENDTAB
  0
TABLE
  2
VIEW
  5
6
330
0
100
AcDbSymbolTable
 70
     0
  0
ENDTAB
  0
TABLE
  2
UCS
  5
7
330
0
100
AcDbSymbolTable
 70
     0
  0
ENDTAB
  0
TABLE
  2
APPID
  5
9
330
0
100
AcDbSymbolTable
 70
     2
  0
APPID
  5
12
330
9
100
AcDbSymbolTableRecord
100
AcDbRegAppTableRecord
  2
ACAD
 70
     0
  0
APPID
  5
73A
330
9
100
AcDbSymbolTableRecord
100
AcDbRegAppTableRecord
  2
ACAD_MLEADERVER
 70
     0
  0
ENDTAB
  0
TABLE
  2
DIMSTYLE
  5
A
330
0
100
AcDbSymbolTable
 70
     1
  0
DIMSTYLE
105
27
330
A
100
AcDbSymbolTableRecord
100
AcDbDimStyleTableRecord
  2
STANDARD
 70
     0
  3

  4

  5

  6

  7

 40
1.0
 41
0.18
 42
0.0625
 43
0.38
 44
0.18
 45
0.0
 46
0.0
 47
0.0
 48
0.0
140
0.18
141
0.09
142
0.0
143
25.4
144
1.0
145
0.0
146
1.0
147
0.09
 71
     0
 72
     0
 73
     1
 74
     1
 75
     0
 76
     0
 77
     0
 78
     0
170
     0
171
     2
172
     0
173
     0
174
     0
175
     0
176
     0
177
     0
178
     0
270
     2
271
     4
272
     4
273
     2
274
     2
340
11
275
     0
280
     0
281
     0
282
     0
283
     1
284
     0
285
     0
286
     0
287
     3
288
     0
  0
ENDTAB
  0
TABLE
  2
BLOCK_RECORD
  5
1
330
0
100
AcDbSymbolTable
 70
     1
  0
BLOCK_RECORD
  5
1F
330
1
100
AcDbSymbolTableRecord
100
AcDbBlockTableRecord
  2
*MODEL_SPACE
  0
BLOCK_RECORD
  5
1B
330
1
100
AcDbSymbolTableRecord
100
AcDbBlockTableRecord
  2
*PAPER_SPACE
  0
ENDTAB
  0
ENDSEC
  0
SECTION
  2
BLOCKS
  0
BLOCK
  5
20
330
1F
100
AcDbEntity
  8
0
100
AcDbBlockBegin
  2
*MODEL_SPACE
 70
     0
 10
0.0
 20
0.0
 30
0.0
  3
*MODEL_SPACE
  1

  0
ENDBLK
  5
21
330
1F
100
AcDbEntity
  8
0
100
AcDbBlockEnd
  0
BLOCK
  5
1C
330
1B
100
AcDbEntity
 67
     1
  8
0
100
AcDbBlockBegin
  2
*PAPER_SPACE
 70
     0
 10
0.0
 20
0.0
 30
0.0
  3
*PAPER_SPACE
  1

  0
ENDBLK
  5
1D
330
1B
100
AcDbEntity
 67
     1
  8
0
100
AcDbBlockEnd
  0
ENDSEC
  0
SECTION
  2
ENTITIES
  0
POLYLINE
  5
6F
330
1F
100
AcDbEntity
  8
PREDETERMINADA
 62
     1
100
AcDb2dPolyline
 66
     1
 10
0.0
 20
0.0
 30
0.0
 70
     1
  0
VERTEX
  5
70
330
6F
100
AcDbEntity
  8
PREDETERMINADA
 62
     1
100
AcDbVertex
100
AcDb2dVertex
 10
-924.1397097883296
 20
230.2980260403631
 30
0.0
  0
VERTEX
  5
71
330
6F
100
AcDbEntity
  8
PREDETERMINADA
 62
     1
100
AcDbVertex
100
AcDb2dVertex
 10
-924.8783911770338
 20
228.9925365962453
 30
0.0
  0
VERTEX
  5
72
330
6F
100
AcDbEntity
  8
PREDETERMINADA
 62
     1
100
AcDbVertex
100
AcDb2dVertex
 10
-933.5817717304135
 20
233.9170674283473
 30
0.0
  0
VERTEX
  5
73
330
6F
100
AcDbEntity
  8
PREDETERMINADA
 62
     1
100
AcDbVertex
100
AcDb2dVertex
 10
-932.8430903417094
 20
235.2225921502433
 30
0.0
  0
SEQEND
  5
74
330
6F
100
AcDbEntity
  8
PREDETERMINADA
 62
     1
  0
POLYLINE
  5
75
330
1F
100
AcDbEntity
  8
PREDETERMINADA
 62
     1
100
AcDb2dPolyline
 66
     1
 10
0.0
 20
0.0
 30
0.0
 70
     1
  0
VERTEX
  5
76
330
75
100
AcDbEntity
  8
PREDETERMINADA
 62
     1
100
AcDbVertex
100
AcDb2dVertex
 10
-904.5663639598895
 20
208.4809429902617
 30
0.0
  0
VERTEX
  5
77
330
75
100
AcDbEntity
  8
PREDETERMINADA
 62
     1
100
AcDbVertex
100
AcDb2dVertex
 10
-905.7863047929178
 20
207.6081707682579
 30
0.0
  0
VERTEX
  5
78
330
75
100
AcDbEntity
  8
PREDETERMINADA
 62
     1
100
AcDbVertex
100
AcDb2dVertex
 10
-911.6048097914636
 20
215.7411449328914
 30
0.0
  0
VERTEX
  5
79
330
75
100
AcDbEntity
  8
PREDETERMINADA
 62
     1
100
AcDbVertex
100
AcDb2dVertex
 10
-910.384833680657
 20
216.6139171548955
 30
0.0
  0
SEQEND
  5
7A
330
75
100
AcDbEntity
  8
PREDETERMINADA
 62
     1
  0
POLYLINE
  5
7B
330
1F
100
AcDbEntity
  8
PREDETERMINADA
 62
     1
100
AcDb2dPolyline
 66
     1
 10
0.0
 20
0.0
 30
0.0
 70
     1
  0
VERTEX
  5
7C
330
7B
100
AcDbEntity
  8
PREDETERMINADA
 62
     1
100
AcDbVertex
100
AcDb2dVertex
 10
-892.2376625740826
 20
180.6187657750052
 30
0.0
  0
VERTEX
  5
7D
330
7B
100
AcDbEntity
  8
PREDETERMINADA
 62
     1
100
AcDbVertex
100
AcDb2dVertex
 10
-893.6378022959555
 20
180.0806032751396
 30
0.0
  0
VERTEX
  5
7E
330
7B
100
AcDbEntity
  8
PREDETERMINADA
 62
     1
100
AcDbVertex
100
AcDb2dVertex
 10
-897.2253759061697
 20
189.4149268839174
 30
0.0
  0
VERTEX
  5
7F
330
7B
100
AcDbEntity
  8
PREDETERMINADA
 62
     1
100
AcDbVertex
100
AcDb2dVertex
 10
-895.8252009065194
 20
189.9530541060049
 30
0.0
  0
SEQEND
  5
80
330
7B
100
AcDbEntity
  8
PREDETERMINADA
 62
     1
  0
POLYLINE
  5
81
330
1F
100
AcDbEntity
  8
PREDETERMINADA
 62
     1
100
AcDb2dPolyline
 66
     1
 10
0.0
 20
0.0
 30
0.0
 70
     1
  0
VERTEX
  5
82
330
81
100
AcDbEntity
  8
PREDETERMINADA
 62
     1
100
AcDbVertex
100
AcDb2dVertex
 10
-885.7670478534783
 20
150.5596649491866
 30
0.0
  0
VERTEX
  5
83
330
81
100
AcDbEntity
  8
PREDETERMINADA
 62
     1
100
AcDbVertex
100
AcDb2dVertex
 10
-887.2475856308859
 20
150.3189646714689
 30
0.0
  0
VERTEX
  5
84
330
81
100
AcDbEntity
  8
PREDETERMINADA
 62
     1
100
AcDbVertex
100
AcDb2dVertex
 10
-888.8523011860403
 20
160.1893693912237
 30
0.0
  0
VERTEX
  5
85
330
81
100
AcDbEntity
  8
PREDETERMINADA
 62
     1
100
AcDbVertex
100
AcDb2dVertex
 10
-887.3717281308554
 20
160.4300696689414
 30
0.0
  0
SEQEND
  5
86
330
81
100
AcDbEntity
  8
PREDETERMINADA
 62
     1
  0
POLYLINE
  5
87
330
1F
100
AcDbEntity
  8
PREDETERMINADA
 62
     1
100
AcDb2dPolyline
 66
     1
 10
0.0
 20
0.0
 30
0.0
 70
     1
  0
VERTEX
  5
88
330
87
100
AcDbEntity
  8
PREDETERMINADA
 62
     1
100
AcDbVertex
100
AcDb2dVertex
 10
-884.0946342427851
 20
119.174895790366
 30
0.0
  0
VERTEX
  5
89
330
87
100
AcDbEntity
  8
PREDETERMINADA
 62
     1
100
AcDbVertex
100
AcDb2dVertex
 10
-885.5915409090779
 20
119.0786580126124
 30
0.0
  0
VERTEX
  5
8A
330
87
100
AcDbEntity
  8
PREDETERMINADA
 62
     1
100
AcDbVertex
100
AcDb2dVertex
 10
-886.232961464473
 20
129.0580710656733
 30
0.0
  0
VERTEX
  5
8B
330
87
100
AcDbEntity
  8
PREDETERMINADA
 62
     1
100
AcDbVertex
100
AcDb2dVertex
 10
-884.7360547981809
 20
129.1542735656491
 30
0.0
  0
SEQEND
  5
8C
330
87
100
AcDbEntity
  8
PREDETERMINADA
 62
     1
  0
POLYLINE
  5
8D
330
1F
100
AcDbEntity
  8
PREDETERMINADA
 62
     1
100
AcDb2dPolyline
 66
     1
 10
0.0
 20
0.0
 30
0.0
 70
     1
  0
VERTEX
  5
8E
330
8D
100
AcDbEntity
  8
PREDETERMINADA
 62
     1
100
AcDbVertex
100
AcDb2dVertex
 10
-1027.964608651262
 20
119.174895790366
 30
0.0
  0
VERTEX
  5
8F
330
8D
100
AcDbEntity
  8
PREDETERMINADA
 62
     1
100
AcDbVertex
100
AcDb2dVertex
 10
-1026.46770198497
 20
119.0786580126124
 30
0.0
  0
VERTEX
  5
90
330
8D
100
AcDbEntity
  8
PREDETERMINADA
 62
     1
100
AcDbVertex
100
AcDb2dVertex
 10
-1025.826246151797
 20
129.0580710656733
 30
0.0
  0
VERTEX
  5
91
330
8D
100
AcDbEntity
  8
PREDETERMINADA
 62
     1
100
AcDbVertex
100
AcDb2dVertex
 10
-1027.32315281809
 20
129.1542735656491
 30
0.0
  0
SEQEND
  5
92
330
8D
100
AcDbEntity
  8
PREDETERMINADA
 62
     1
  0
POLYLINE
  5
93
330
1F
100
AcDbEntity
  8
PREDETERMINADA
 62
     1
100
AcDb2dPolyline
 66
     1
 10
0.0
 20
0.0
 30
0.0
 70
     1
  0
VERTEX
  5
94
330
93
100
AcDbEntity
  8
PREDETERMINADA
 62
     1
100
AcDbVertex
100
AcDb2dVertex
 10
-1026.292195040569
 20
150.5596649491866
 30
0.0
  0
VERTEX
  5
95
330
93
100
AcDbEntity
  8
PREDETERMINADA
 62
     1
100
AcDbVertex
100
AcDb2dVertex
 10
-1024.811621985384
 20
150.3189646714689
 30
0.0
  0
VERTEX
  5
96
330
93
100
AcDbEntity
  8
PREDETERMINADA
 62
     1
100
AcDbVertex
100
AcDb2dVertex
 10
-1023.206941708007
 20
160.1893693912237
 30
0.0
  0
VERTEX
  5
97
330
93
100
AcDbEntity
  8
PREDETERMINADA
 62
     1
100
AcDbVertex
100
AcDb2dVertex
 10
-1024.687479485415
 20
160.4300696689414
 30
0.0
  0
SEQEND
  5
98
330
93
100
AcDbEntity
  8
PREDETERMINADA
 62
     1
  0
POLYLINE
  5
99
330
1F
100
AcDbEntity
  8
PREDETERMINADA
 62
     1
100
AcDb2dPolyline
 66
     1
 10
0.0
 20
0.0
 30
0.0
 70
     1
  0
VERTEX
  5
9A
330
99
100
AcDbEntity
  8
PREDETERMINADA
 62
     1
100
AcDbVertex
100
AcDb2dVertex
 10
-1019.821580319965
 20
180.6187657750052
 30
0.0
  0
VERTEX
  5
9B
330
99
100
AcDbEntity
  8
PREDETERMINADA
 62
     1
100
AcDbVertex
100
AcDb2dVertex
 10
-1018.421440598093
 20
180.0806032751396
 30
0.0
  0
VERTEX
  5
9C
330
99
100
AcDbEntity
  8
PREDETERMINADA
 62
     1
100
AcDbVertex
100
AcDb2dVertex
 10
-1014.833866987879
 20
189.4149268839174
 30
0.0
  0
VERTEX
  5
9D
330
99
100
AcDbEntity
  8
PREDETERMINADA
 62
     1
100
AcDbVertex
100
AcDb2dVertex
 10
-1016.234006709751
 20
189.9530541060049
 30
0.0
  0
SEQEND
  5
9E
330
99
100
AcDbEntity
  8
PREDETERMINADA
 62
     1
  0
POLYLINE
  5
9F
330
1F
100
AcDbEntity
  8
PREDETERMINADA
 62
     1
100
AcDb2dPolyline
 66
     1
 10
0.0
 20
0.0
 30
0.0
 70
     1
  0
VERTEX
  5
A0
330
9F
100
AcDbEntity
  8
PREDETERMINADA
 62
     1
100
AcDbVertex
100
AcDb2dVertex
 10
-1007.492843656381
 20
208.4809429902617
 30
0.0
  0
VERTEX
  5
A1
330
9F
100
AcDbEntity
  8
PREDETERMINADA
 62
     1
100
AcDbVertex
100
AcDb2dVertex
 10
-1006.272902823352
 20
207.6081707682579
 30
0.0
  0
VERTEX
  5
A2
330
9F
100
AcDbEntity
  8
PREDETERMINADA
 62
     1
100
AcDbVertex
100
AcDb2dVertex
 10
-1000.454433102585
 20
215.7411449328914
 30
0.0
  0
VERTEX
  5
A3
330
9F
100
AcDbEntity
  8
PREDETERMINADA
 62
     1
100
AcDbVertex
100
AcDb2dVertex
 10
-1001.674373935613
 20
216.6139171548955
 30
0.0
  0
SEQEND
  5
A4
330
9F
100
AcDbEntity
  8
PREDETERMINADA
 62
     1
  0
POLYLINE
  5
A5
330
1F
100
AcDbEntity
  8
PREDETERMINADA
 62
     1
100
AcDb2dPolyline
 66
     1
 10
0.0
 20
0.0
 30
0.0
 70
     1
  0
VERTEX
  5
A6
330
A5
100
AcDbEntity
  8
PREDETERMINADA
 62
     1
100
AcDbVertex
100
AcDb2dVertex
 10
-987.919533105718
 20
230.2980260403631
 30
0.0
  0
VERTEX
  5
A7
330
A5
100
AcDbEntity
  8
PREDETERMINADA
 62
     1
100
AcDbVertex
100
AcDb2dVertex
 10
-987.1808517170138
 20
228.9925365962453
 30
0.0
  0
VERTEX
  5
A8
330
A5
100
AcDbEntity
  8
PREDETERMINADA
 62
     1
100
AcDbVertex
100
AcDb2dVertex
 10
-978.4774711636339
 20
233.9170674283473
 30
0.0
  0
VERTEX
  5
A9
330
A5
100
AcDbEntity
  8
PREDETERMINADA
 62
     1
100
AcDbVertex
100
AcDb2dVertex
 10
-979.2161525523381
 20
235.2225921502433
 30
0.0
  0
SEQEND
  5
AA
330
A5
100
AcDbEntity
  8
PREDETERMINADA
 62
     1
  0
POLYLINE
  5
AB
330
1F
100
AcDbEntity
  8
PREDETERMINADA
 62
     1
100
AcDb2dPolyline
 66
     1
 10
0.0
 20
0.0
 30
0.0
 70
     1
  0
VERTEX
  5
AC
330
AB
100
AcDbEntity
  8
PREDETERMINADA
 62
     1
100
AcDbVertex
100
AcDb2dVertex
 10
-961.0264717235525
 20
240.393467704506
 30
0.0
  0
VERTEX
  5
AD
330
AB
100
AcDbEntity
  8
PREDETERMINADA
 62
     1
100
AcDbVertex
100
AcDb2dVertex
 10
-961.0265775568857
 20
238.89345659377
 30
0.0
  0
VERTEX
  5
AE
330
AB
100
AcDbEntity
  8
PREDETERMINADA
 62
     1
100
AcDbVertex
100
AcDb2dVertex
 10
-951.026562281608
 20
238.8927157604367
 30
0.0
  0
VERTEX
  5
AF
330
AB
100
AcDbEntity
  8
PREDETERMINADA
 62
     1
100
AcDbVertex
100
AcDb2dVertex
 10
-951.0264564482748
 20
240.3926915933951
 30
0.0
  0
SEQEND
  5
B0
330
AB
100
AcDbEntity
  8
PREDETERMINADA
 62
     1
  0
LINE
  5
B1
330
1F
100
AcDbEntity
  8
PREDETERMINADA
 62
     7
100
AcDbLine
 10
-881.4358186878944
 20
161.3946699464781
 30
0.0
 11
-881.4354659101167
 21
161.3926943909229
 31
0.0
  0
LINE
  5
B2
330
1F
100
AcDbEntity
  8
PREDETERMINADA
 62
     7
100
AcDbLine
 10
-881.4354659101167
 20
161.3926943909229
 30
0.0
 11
-865.1011492475336
 21
163.7218743903405
 31
0.0
  0
LINE
  5
B3
330
1F
100
AcDbEntity
  8
PREDETERMINADA
 62
     7
100
AcDbLine
 10
-865.1011492475336
 20
163.7218743903405
 30
0.0
 11
-865.7356553584862
 21
168.1768932781155
 31
0.0
  0
ARC
  5
B4
330
1F
100
AcDbEntity
  8
PREDETERMINADA
 62
     7
100
AcDbCircle
 10
-864.3945878394013
 20
158.7720248423958
 30
0.0
 40
9.500000651786316
100
AcDbArc
 50
278.0765763861178
 51
98.11526493181043
  0
LINE
  5
B5
330
1F
100
AcDbEntity
  8
PREDETERMINADA
 62
     7
100
AcDbLine
 10
-863.0598711924885
 20
149.3662530050404
 30
0.0
 11
-863.6936011923298
 21
153.8214130039267
 31
0.0
  0
LINE
  5
B6
330
1F
100
AcDbEntity
  8
PREDETERMINADA
 62
     7
100
AcDbLine
 10
-863.6936011923298
 20
153.8214130039267
 30
0.0
 11
-880.0243547993582
 21
151.4927974489533
 31
0.0
  0
POLYLINE
  5
B7
330
1F
100
AcDbEntity
  8
PREDETERMINADA
 62
     7
100
AcDb2dPolyline
 66
     1
 10
0.0
 20
0.0
 30
0.0
  0
VERTEX
  5
B8
330
B7
100
AcDbEntity
  8
PREDETERMINADA
 62
     7
100
AcDbVertex
100
AcDb2dVertex
 10
-880.0243547993582
 20
151.4927974489533
 30
0.0
  0
VERTEX
  5
B9
330
B7
100
AcDbEntity
  8
PREDETERMINADA
 62
     7
100
AcDbVertex
100
AcDb2dVertex
 10
-879.9515950028269
 20
150.810224017897
 30
0.0
  0
VERTEX
  5
BA
330
B7
100
AcDbEntity
  8
PREDETERMINADA
 62
     7
100
AcDbVertex
100
AcDb2dVertex
 10
-879.8816526053836
 20
150.1273431895833
 30
0.0
  0
VERTEX
  5
BB
330
B7
100
AcDbEntity
  8
PREDETERMINADA
 62
     7
100
AcDbVertex
100
AcDb2dVertex
 10
-879.8144358296843
 20
149.4441642399317
 30
0.0
  0
VERTEX
  5
BC
330
B7
100
AcDbEntity
  8
PREDETERMINADA
 62
     7
100
AcDbVertex
100
AcDb2dVertex
 10
-879.7498528983854
 20
148.760696444862
 30
0.0
  0
VERTEX
  5
BD
330
B7
100
AcDbEntity
  8
PREDETERMINADA
 62
     7
100
AcDbVertex
100
AcDb2dVertex
 10
-879.687812034143
 20
148.0769490802936
 30
0.0
  0
VERTEX
  5
BE
330
B7
100
AcDbEntity
  8
PREDETERMINADA
 62
     7
100
AcDbVertex
100
AcDb2dVertex
 10
-879.6282214596138
 20
147.3929314221462
 30
0.0
  0
VERTEX
  5
BF
330
B7
100
AcDbEntity
  8
PREDETERMINADA
 62
     7
100
AcDbVertex
100
AcDb2dVertex
 10
-879.5709893974536
 20
146.7086527463394
 30
0.0
  0
VERTEX
  5
C0
330
B7
100
AcDbEntity
  8
PREDETERMINADA
 62
     7
100
AcDbVertex
100
AcDb2dVertex
 10
-879.5160240703188
 20
146.0241223287927
 30
0.0
  0
VERTEX
  5
C1
330
B7
100
AcDbEntity
  8
PREDETERMINADA
 62
     7
100
AcDbVertex
100
AcDb2dVertex
 10
-879.4632337008659
 20
145.3393494454257
 30
0.0
  0
VERTEX
  5
C2
330
B7
100
AcDbEntity
  8
PREDETERMINADA
 62
     7
100
AcDbVertex
100
AcDb2dVertex
 10
-879.412526511751
 20
144.6543433721581
 30
0.0
  0
VERTEX
  5
C3
330
B7
100
AcDbEntity
  8
PREDETERMINADA
 62
     7
100
AcDbVertex
100
AcDb2dVertex
 10
-879.3169945651603
 20
143.2836687595993
 30
0.0
  0
VERTEX
  5
C4
330
B7
100
AcDbEntity
  8
PREDETERMINADA
 62
     7
100
AcDbVertex
100
AcDb2dVertex
 10
-879.228694011797
 20
141.912172698473
 30
0.0
  0
VERTEX
  5
C5
330
B7
100
AcDbEntity
  8
PREDETERMINADA
 62
     7
100
AcDbVertex
100
AcDb2dVertex
 10
-879.1468906329113
 20
140.539929396136
 30
0.0
  0
VERTEX
  5
C6
330
B7
100
AcDbEntity
  8
PREDETERMINADA
 62
     7
100
AcDbVertex
100
AcDb2dVertex
 10
-879.0708502097532
 20
139.1670130599449
 30
0.0
  0
VERTEX
  5
C7
330
B7
100
AcDbEntity
  8
PREDETERMINADA
 62
     7
100
AcDbVertex
100
AcDb2dVertex
 10
-878.999838523573
 20
137.7934978972566
 30
0.0
  0
VERTEX
  5
C8
330
B7
100
AcDbEntity
  8
PREDETERMINADA
 62
     7
100
AcDbVertex
100
AcDb2dVertex
 10
-878.933121355621
 20
136.4194581154279
 30
0.0
  0
VERTEX
  5
C9
330
B7
100
AcDbEntity
  8
PREDETERMINADA
 62
     7
100
AcDbVertex
100
AcDb2dVertex
 10
-878.8699644871472
 20
135.0449679218153
 30
0.0
  0
VERTEX
  5
CA
330
B7
100
AcDbEntity
  8
PREDETERMINADA
 62
     7
100
AcDbVertex
100
AcDb2dVertex
 10
-878.8096336994017
 20
133.6701015237758
 30
0.0
  0
VERTEX
  5
CB
330
B7
100
AcDbEntity
  8
PREDETERMINADA
 62
     7
100
AcDbVertex
100
AcDb2dVertex
 10
-878.7513947736352
 20
132.294933128666
 30
0.0
  0
VERTEX
  5
CC
330
B7
100
AcDbEntity
  8
PREDETERMINADA
 62
     7
100
AcDbVertex
100
AcDb2dVertex
 10
-878.6382556330384
 20
129.5439871766627
 30
0.0
  0
SEQEND
  5
CD
330
B7
100
AcDbEntity
  8
PREDETERMINADA
 62
     7
  0
LINE
  5
CE
330
1F
100
AcDbEntity
  8
PREDETERMINADA
 62
     7
100
AcDbLine
 10
-878.6382556330384
 20
129.5439871766627
 30
0.0
 11
-862.1560192482704
 21
130.3005191209182
 31
0.0
  0
LINE
  5
CF
330
1F
100
AcDbEntity
  8
PREDETERMINADA
 62
     7
100
AcDbLine
 10
-862.1560192482704
 20
130.3005191209182
 30
0.0
 11
-862.3615828593297
 21
134.7958252309053
 31
0.0
  0
ARC
  5
D0
330
1F
100
AcDbEntity
  8
PREDETERMINADA
 62
     7
100
AcDbCircle
 10
-861.9260257086514
 20
125.3058074960481
 30
0.0
 40
9.500007717860587
100
AcDbArc
 50
272.5892716878094
 51
92.62782288825115
  0
LINE
  5
D1
330
1F
100
AcDbEntity
  8
PREDETERMINADA
 62
     7
100
AcDbLine
 10
-861.4968539706572
 20
115.8154988467616
 30
0.0
 11
-861.701641470606
 21
120.3108402345266
 31
0.0
  0
LINE
  5
D2
330
1F
100
AcDbEntity
  8
PREDETERMINADA
 62
     7
100
AcDbLine
 10
-861.701641470606
 20
120.3108402345266
 30
0.0
 11
-878.1802089664864
 21
119.5545552347157
 31
0.0
  0
ARC
  5
D3
330
1F
100
AcDbEntity
  8
PREDETERMINADA
 62
     7
100
AcDbCircle
 10
-562.5052861604997
 20
137.0666957054024
 30
0.0
 40
316.1602947120822
100
AcDbArc
 50
183.1752422206546
 51
184.7099573077591
  0
POLYLINE
  5
D4
330
1F
100
AcDbEntity
  8
PREDETERMINADA
 62
     7
100
AcDb2dPolyline
 66
     1
 10
0.0
 20
0.0
 30
0.0
  0
VERTEX
  5
D5
330
D4
100
AcDbEntity
  8
PREDETERMINADA
 62
     7
100
AcDbVertex
100
AcDb2dVertex
 10
-877.5979492444097
 20
111.1062330146054
 30
0.0
  0
VERTEX
  5
D6
330
D4
100
AcDbEntity
  8
PREDETERMINADA
 62
     7
100
AcDbVertex
100
AcDb2dVertex
 10
-878.5088383301467
 20
111.2358211167188
 30
0.0
  0
VERTEX
  5
D7
330
D4
100
AcDbEntity
  8
PREDETERMINADA
 62
     7
100
AcDbVertex
100
AcDb2dVertex
 10
-879.4193506946922
 20
111.370700110351
 30
0.0
  0
VERTEX
  5
D8
330
D4
100
AcDbEntity
  8
PREDETERMINADA
 62
     7
100
AcDbVertex
100
AcDb2dVertex
 10
-880.3293138421155
 20
111.5111809325951
 30
0.0
  0
VERTEX
  5
D9
330
D4
100
AcDbEntity
  8
PREDETERMINADA
 62
     7
100
AcDbVertex
100
AcDb2dVertex
 10
-881.2385552764857
 20
111.6575745205441
 30
0.0
  0
VERTEX
  5
DA
330
D4
100
AcDbEntity
  8
PREDETERMINADA
 62
     7
100
AcDbVertex
100
AcDb2dVertex
 10
-882.1469025018716
 20
111.810191811291
 30
0.0
  0
VERTEX
  5
DB
330
D4
100
AcDbEntity
  8
PREDETERMINADA
 62
     7
100
AcDbVertex
100
AcDb2dVertex
 10
-883.0541830223426
 20
111.9693437419289
 30
0.0
  0
VERTEX
  5
DC
330
D4
100
AcDbEntity
  8
PREDETERMINADA
 62
     7
100
AcDbVertex
100
AcDb2dVertex
 10
-883.9602243419674
 20
112.1353412495507
 30
0.0
  0
VERTEX
  5
DD
330
D4
100
AcDbEntity
  8
PREDETERMINADA
 62
     7
100
AcDbVertex
100
AcDb2dVertex
 10
-884.8648539648153
 20
112.3084952712495
 30
0.0
  0
VERTEX
  5
DE
330
D4
100
AcDbEntity
  8
PREDETERMINADA
 62
     7
100
AcDbVertex
100
AcDb2dVertex
 10
-885.7678993949553
 20
112.4891167441183
 30
0.0
  0
VERTEX
  5
DF
330
D4
100
AcDbEntity
  8
PREDETERMINADA
 62
     7
100
AcDbVertex
100
AcDb2dVertex
 10
-886.2187741327814
 20
112.5823249425831
 30
0.0
  0
VERTEX
  5
E0
330
D4
100
AcDbEntity
  8
PREDETERMINADA
 62
     7
100
AcDbVertex
100
AcDb2dVertex
 10
-886.6691881364563
 20
112.6775166052502
 30
0.0
  0
VERTEX
  5
E1
330
D4
100
AcDbEntity
  8
PREDETERMINADA
 62
     7
100
AcDbVertex
100
AcDb2dVertex
 10
-887.1191198439888
 20
112.7747305992563
 30
0.0
  0
VERTEX
  5
E2
330
D4
100
AcDbEntity
  8
PREDETERMINADA
 62
     7
100
AcDbVertex
100
AcDb2dVertex
 10
-887.5685476933875
 20
112.8740057917381
 30
0.0
  0
VERTEX
  5
E3
330
D4
100
AcDbEntity
  8
PREDETERMINADA
 62
     7
100
AcDbVertex
100
AcDb2dVertex
 10
-888.017450122661
 20
112.9753810498321
 30
0.0
  0
VERTEX
  5
E4
330
D4
100
AcDbEntity
  8
PREDETERMINADA
 62
     7
100
AcDbVertex
100
AcDb2dVertex
 10
-888.4658055698178
 20
113.078895240675
 30
0.0
  0
VERTEX
  5
E5
330
D4
100
AcDbEntity
  8
PREDETERMINADA
 62
     7
100
AcDbVertex
100
AcDb2dVertex
 10
-888.9135924728669
 20
113.1845872314034
 30
0.0
  0
VERTEX
  5
E6
330
D4
100
AcDbEntity
  8
PREDETERMINADA
 62
     7
100
AcDbVertex
100
AcDb2dVertex
 10
-889.3607892698165
 20
113.292495889154
 30
0.0
  0
VERTEX
  5
E7
330
D4
100
AcDbEntity
  8
PREDETERMINADA
 62
     7
100
AcDbVertex
100
AcDb2dVertex
 10
-889.8073743986754
 20
113.4026600810634
 30
0.0
  0
VERTEX
  5
E8
330
D4
100
AcDbEntity
  8
PREDETERMINADA
 62
     7
100
AcDbVertex
100
AcDb2dVertex
 10
-890.2533262974524
 20
113.5151186742682
 30
0.0
  0
VERTEX
  5
E9
330
D4
100
AcDbEntity
  8
PREDETERMINADA
 62
     7
100
AcDbVertex
100
AcDb2dVertex
 10
-890.698623404156
 20
113.629910535905
 30
0.0
  0
VERTEX
  5
EA
330
D4
100
AcDbEntity
  8
PREDETERMINADA
 62
     7
100
AcDbVertex
100
AcDb2dVertex
 10
-891.1432441567947
 20
113.7470745331105
 30
0.0
  0
VERTEX
  5
EB
330
D4
100
AcDbEntity
  8
PREDETERMINADA
 62
     7
100
AcDbVertex
100
AcDb2dVertex
 10
-891.5871669933774
 20
113.8666495330212
 30
0.0
  0
VERTEX
  5
EC
330
D4
100
AcDbEntity
  8
PREDETERMINADA
 62
     7
100
AcDbVertex
100
AcDb2dVertex
 10
-892.0303703519127
 20
113.9886744027739
 30
0.0
  0
VERTEX
  5
ED
330
D4
100
AcDbEntity
  8
PREDETERMINADA
 62
     7
100
AcDbVertex
100
AcDb2dVertex
 10
-892.5001306456371
 20
114.1209245409346
 30
0.0
  0
VERTEX
  5
EE
330
D4
100
AcDbEntity
  8
PREDETERMINADA
 62
     7
100
AcDbVertex
100
AcDb2dVertex
 10
-892.9690961106162
 20
114.2558470870333
 30
0.0
  0
VERTEX
  5
EF
330
D4
100
AcDbEntity
  8
PREDETERMINADA
 62
     7
100
AcDbVertex
100
AcDb2dVertex
 10
-893.437307215956
 20
114.3933088321466
 30
0.0
  0
VERTEX
  5
F0
330
D4
100
AcDbEntity
  8
PREDETERMINADA
 62
     7
100
AcDbVertex
100
AcDb2dVertex
 10
-893.9048044307626
 20
114.5331765673513
 30
0.0
  0
VERTEX
  5
F1
330
D4
100
AcDbEntity
  8
PREDETERMINADA
 62
     7
100
AcDbVertex
100
AcDb2dVertex
 10
-894.3716282241419
 20
114.675317083724
 30
0.0
  0
VERTEX
  5
F2
330
D4
100
AcDbEntity
  8
PREDETERMINADA
 62
     7
100
AcDbVertex
100
AcDb2dVertex
 10
-894.8378190651999
 20
114.8195971723415
 30
0.0
  0
VERTEX
  5
F3
330
D4
100
AcDbEntity
  8
PREDETERMINADA
 62
     7
100
AcDbVertex
100
AcDb2dVertex
 10
-895.7684637667766
 20
115.1140432306175
 30
0.0
  0
VERTEX
  5
F4
330
D4
100
AcDbEntity
  8
PREDETERMINADA
 62
     7
100
AcDbVertex
100
AcDb2dVertex
 10
-896.6970622883407
 20
115.4154490707928
 30
0.0
  0
VERTEX
  5
F5
330
D4
100
AcDbEntity
  8
PREDETERMINADA
 62
     7
100
AcDbVertex
100
AcDb2dVertex
 10
-897.6239383827406
 20
115.7227490214809
 30
0.0
  0
VERTEX
  5
F6
330
D4
100
AcDbEntity
  8
PREDETERMINADA
 62
     7
100
AcDbVertex
100
AcDb2dVertex
 10
-898.5494158028243
 20
116.0348774112954
 30
0.0
  0
VERTEX
  5
F7
330
D4
100
AcDbEntity
  8
PREDETERMINADA
 62
     7
100
AcDbVertex
100
AcDb2dVertex
 10
-899.4738183014405
 20
116.3507685688499
 30
0.0
  0
VERTEX
  5
F8
330
D4
100
AcDbEntity
  8
PREDETERMINADA
 62
     7
100
AcDbVertex
100
AcDb2dVertex
 10
-901.3206935456619
 20
116.9895765016329
 30
0.0
  0
VERTEX
  5
F9
330
D4
100
AcDbEntity
  8
PREDETERMINADA
 62
     7
100
AcDbVertex
100
AcDb2dVertex
 10
-903.1671541381909
 20
117.6306474487383
 30
0.0
  0
VERTEX
  5
FA
330
D4
100
AcDbEntity
  8
PREDETERMINADA
 62
     7
100
AcDbVertex
100
AcDb2dVertex
 10
-904.091038322191
 20
117.9493673741957
 30
0.0
  0
VERTEX
  5
FB
330
D4
100
AcDbEntity
  8
PREDETERMINADA
 62
     7
100
AcDbVertex
100
AcDb2dVertex
 10
-905.0157901018129
 20
118.2654560390744
 30
0.0
  0
VERTEX
  5
FC
330
D4
100
AcDbEntity
  8
PREDETERMINADA
 62
     7
100
AcDbVertex
100
AcDb2dVertex
 10
-905.9417332299045
 20
118.5778477719878
 30
0.0
  0
VERTEX
  5
FD
330
D4
100
AcDbEntity
  8
PREDETERMINADA
 62
     7
100
AcDbVertex
100
AcDb2dVertex
 10
-906.8691914593139
 20
118.8854769015496
 30
0.0
  0
VERTEX
  5
FE
330
D4
100
AcDbEntity
  8
PREDETERMINADA
 62
     7
100
AcDbVertex
100
AcDb2dVertex
 10
-907.414419388969
 20
119.0634438618675
 30
0.0
  0
VERTEX
  5
FF
330
D4
100
AcDbEntity
  8
PREDETERMINADA
 62
     7
100
AcDbVertex
100
AcDb2dVertex
 10
-907.9602713874435
 20
119.2394235161632
 30
0.0
  0
VERTEX
  5
100
330
D4
100
AcDbEntity
  8
PREDETERMINADA
 62
     7
100
AcDbVertex
100
AcDb2dVertex
 10
-908.5067378154681
 20
119.4134364461908
 30
0.0
  0
VERTEX
  5
101
330
D4
100
AcDbEntity
  8
PREDETERMINADA
 62
     7
100
AcDbVertex
100
AcDb2dVertex
 10
-909.0538090337732
 20
119.5855032337043
 30
0.0
  0
VERTEX
  5
102
330
D4
100
AcDbEntity
  8
PREDETERMINADA
 62
     7
100
AcDbVertex
100
AcDb2dVertex
 10
-910.1497272841468
 20
119.9238807082053
 30
0.0
  0
VERTEX
  5
103
330
D4
100
AcDbEntity
  8
PREDETERMINADA
 62
     7
100
AcDbVertex
100
AcDb2dVertex
 10
-911.2479490244084
 20
120.2547205936987
 30
0.0
  0
VERTEX
  5
104
330
D4
100
AcDbEntity
  8
PREDETERMINADA
 62
     7
100
AcDbVertex
100
AcDb2dVertex
 10
-912.3483971404019
 20
120.5781875442166
 30
0.0
  0
VERTEX
  5
105
330
D4
100
AcDbEntity
  8
PREDETERMINADA
 62
     7
100
AcDbVertex
100
AcDb2dVertex
 10
-913.4509945179711
 20
120.8944462137916
 30
0.0
  0
VERTEX
  5
106
330
D4
100
AcDbEntity
  8
PREDETERMINADA
 62
     7
100
AcDbVertex
100
AcDb2dVertex
 10
-914.5556640429602
 20
121.2036612564558
 30
0.0
  0
VERTEX
  5
107
330
D4
100
AcDbEntity
  8
PREDETERMINADA
 62
     7
100
AcDbVertex
100
AcDb2dVertex
 10
-915.6623286012128
 20
121.5059973262418
 30
0.0
  0
VERTEX
  5
108
330
D4
100
AcDbEntity
  8
PREDETERMINADA
 62
     7
100
AcDbVertex
100
AcDb2dVertex
 10
-916.7709110785731
 20
121.8016190771817
 30
0.0
  0
VERTEX
  5
109
330
D4
100
AcDbEntity
  8
PREDETERMINADA
 62
     7
100
AcDbVertex
100
AcDb2dVertex
 10
-917.8813343608849
 20
122.090691163308
 30
0.0
  0
VERTEX
  5
10A
330
D4
100
AcDbEntity
  8
PREDETERMINADA
 62
     7
100
AcDbVertex
100
AcDb2dVertex
 10
-918.9935213339921
 20
122.3733782386531
 30
0.0
  0
VERTEX
  5
10B
330
D4
100
AcDbEntity
  8
PREDETERMINADA
 62
     7
100
AcDbVertex
100
AcDb2dVertex
 10
-920.1073948837387
 20
122.6498449572492
 30
0.0
  0
VERTEX
  5
10C
330
D4
100
AcDbEntity
  8
PREDETERMINADA
 62
     7
100
AcDbVertex
100
AcDb2dVertex
 10
-921.2228778959686
 20
122.9202559731287
 30
0.0
  0
VERTEX
  5
10D
330
D4
100
AcDbEntity
  8
PREDETERMINADA
 62
     7
100
AcDbVertex
100
AcDb2dVertex
 10
-922.3398932565258
 20
123.184775940324
 30
0.0
  0
VERTEX
  5
10E
330
D4
100
AcDbEntity
  8
PREDETERMINADA
 62
     7
100
AcDbVertex
100
AcDb2dVertex
 10
-923.4583638512543
 20
123.4435695128674
 30
0.0
  0
VERTEX
  5
10F
330
D4
100
AcDbEntity
  8
PREDETERMINADA
 62
     7
100
AcDbVertex
100
AcDb2dVertex
 10
-924.5782125659978
 20
123.6968013447912
 30
0.0
  0
VERTEX
  5
110
330
D4
100
AcDbEntity
  8
PREDETERMINADA
 62
     7
100
AcDbVertex
100
AcDb2dVertex
 10
-925.6993622866004
 20
123.9446360901279
 30
0.0
  0
VERTEX
  5
111
330
D4
100
AcDbEntity
  8
PREDETERMINADA
 62
     7
100
AcDbVertex
100
AcDb2dVertex
 10
-926.8217358989059
 20
124.1872384029097
 30
0.0
  0
VERTEX
  5
112
330
D4
100
AcDbEntity
  8
PREDETERMINADA
 62
     7
100
AcDbVertex
100
AcDb2dVertex
 10
-927.9452562887584
 20
124.424772937169
 30
0.0
  0
VERTEX
  5
113
330
D4
100
AcDbEntity
  8
PREDETERMINADA
 62
     7
100
AcDbVertex
100
AcDb2dVertex
 10
-929.0698463420017
 20
124.6574043469382
 30
0.0
  0
VERTEX
  5
114
330
D4
100
AcDbEntity
  8
PREDETERMINADA
 62
     7
100
AcDbVertex
100
AcDb2dVertex
 10
-930.1954289444798
 20
124.8852972862496
 30
0.0
  0
VERTEX
  5
115
330
D4
100
AcDbEntity
  8
PREDETERMINADA
 62
     7
100
AcDbVertex
100
AcDb2dVertex
 10
-931.3219269820366
 20
125.1086164091355
 30
0.0
  0
VERTEX
  5
116
330
D4
100
AcDbEntity
  8
PREDETERMINADA
 62
     7
100
AcDbVertex
100
AcDb2dVertex
 10
-932.4492633405162
 20
125.3275263696284
 30
0.0
  0
VERTEX
  5
117
330
D4
100
AcDbEntity
  8
PREDETERMINADA
 62
     7
100
AcDbVertex
100
AcDb2dVertex
 10
-933.5773609057621
 20
125.5421918217604
 30
0.0
  0
VERTEX
  5
118
330
D4
100
AcDbEntity
  8
PREDETERMINADA
 62
     7
100
AcDbVertex
100
AcDb2dVertex
 10
-934.7061425636186
 20
125.7527774195641
 30
0.0
  0
VERTEX
  5
119
330
D4
100
AcDbEntity
  8
PREDETERMINADA
 62
     7
100
AcDbVertex
100
AcDb2dVertex
 10
-935.8355311999297
 20
125.9594478170717
 30
0.0
  0
VERTEX
  5
11A
330
D4
100
AcDbEntity
  8
PREDETERMINADA
 62
     7
100
AcDbVertex
100
AcDb2dVertex
 10
-936.965449700539
 20
126.1623676683156
 30
0.0
  0
VERTEX
  5
11B
330
D4
100
AcDbEntity
  8
PREDETERMINADA
 62
     7
100
AcDbVertex
100
AcDb2dVertex
 10
-938.0958209512906
 20
126.3617016273282
 30
0.0
  0
VERTEX
  5
11C
330
D4
100
AcDbEntity
  8
PREDETERMINADA
 62
     7
100
AcDbVertex
100
AcDb2dVertex
 10
-939.2265678380285
 20
126.5576143481417
 30
0.0
  0
VERTEX
  5
11D
330
D4
100
AcDbEntity
  8
PREDETERMINADA
 62
     7
100
AcDbVertex
100
AcDb2dVertex
 10
-940.3576132465967
 20
126.7502704847885
 30
0.0
  0
VERTEX
  5
11E
330
D4
100
AcDbEntity
  8
PREDETERMINADA
 62
     7
100
AcDbVertex
100
AcDb2dVertex
 10
-941.4888800628387
 20
126.9398346913011
 30
0.0
  0
VERTEX
  5
11F
330
D4
100
AcDbEntity
  8
PREDETERMINADA
 62
     7
100
AcDbVertex
100
AcDb2dVertex
 10
-942.6202911725989
 20
127.1264716217117
 30
0.0
  0
SEQEND
  5
120
330
D4
100
AcDbEntity
  8
PREDETERMINADA
 62
     7
  0
ARC
  5
121
330
1F
100
AcDbEntity
  8
PREDETERMINADA
 62
     7
100
AcDbCircle
 10
-957.0493680181983
 20
16.76816585475765
 30
0.0
 40
111.2975916647289
100
AcDbArc
 50
82.5509729067528
 51
89.4750291418063
  0
ARC
  5
122
330
1F
100
AcDbEntity
  8
PREDETERMINADA
 62
     7
100
AcDbCircle
 10
-955.0099124252218
 20
16.76924922775568
 30
0.0
 40
111.2965079931688
100
AcDbArc
 50
90.52495663852955
 51
97.44906222360812
  0
POLYLINE
  5
123
330
1F
100
AcDbEntity
  8
PREDETERMINADA
 62
     7
100
AcDb2dPolyline
 66
     1
 10
0.0
 20
0.0
 30
0.0
  0
VERTEX
  5
124
330
123
100
AcDbEntity
  8
PREDETERMINADA
 62
     7
100
AcDbVertex
100
AcDb2dVertex
 10
-969.4389164436714
 20
127.1264716217117
 30
0.0
  0
VERTEX
  5
125
330
123
100
AcDbEntity
  8
PREDETERMINADA
 62
     7
100
AcDbVertex
100
AcDb2dVertex
 10
-970.5703275534315
 20
126.9398346913011
 30
0.0
  0
VERTEX
  5
126
330
123
100
AcDbEntity
  8
PREDETERMINADA
 62
     7
100
AcDbVertex
100
AcDb2dVertex
 10
-971.7015943696736
 20
126.7502704847885
 30
0.0
  0
VERTEX
  5
127
330
123
100
AcDbEntity
  8
PREDETERMINADA
 62
     7
100
AcDbVertex
100
AcDb2dVertex
 10
-972.8326397782417
 20
126.5576143481417
 30
0.0
  0
VERTEX
  5
128
330
123
100
AcDbEntity
  8
PREDETERMINADA
 62
     7
100
AcDbVertex
100
AcDb2dVertex
 10
-973.9633866649796
 20
126.3617016273282
 30
0.0
  0
VERTEX
  5
129
330
123
100
AcDbEntity
  8
PREDETERMINADA
 62
     7
100
AcDbVertex
100
AcDb2dVertex
 10
-975.0937579157312
 20
126.1623676683156
 30
0.0
  0
VERTEX
  5
12A
330
123
100
AcDbEntity
  8
PREDETERMINADA
 62
     7
100
AcDbVertex
100
AcDb2dVertex
 10
-976.2236764163405
 20
125.9594478170717
 30
0.0
  0
VERTEX
  5
12B
330
123
100
AcDbEntity
  8
PREDETERMINADA
 62
     7
100
AcDbVertex
100
AcDb2dVertex
 10
-977.3530650526516
 20
125.7527774195641
 30
0.0
  0
VERTEX
  5
12C
330
123
100
AcDbEntity
  8
PREDETERMINADA
 62
     7
100
AcDbVertex
100
AcDb2dVertex
 10
-978.4818467105081
 20
125.5421918217604
 30
0.0
  0
VERTEX
  5
12D
330
123
100
AcDbEntity
  8
PREDETERMINADA
 62
     7
100
AcDbVertex
100
AcDb2dVertex
 10
-979.6099442757541
 20
125.3275263696284
 30
0.0
  0
VERTEX
  5
12E
330
123
100
AcDbEntity
  8
PREDETERMINADA
 62
     7
100
AcDbVertex
100
AcDb2dVertex
 10
-980.7372806342335
 20
125.1086164091355
 30
0.0
  0
VERTEX
  5
12F
330
123
100
AcDbEntity
  8
PREDETERMINADA
 62
     7
100
AcDbVertex
100
AcDb2dVertex
 10
-981.8637786717902
 20
124.8852972862496
 30
0.0
  0
VERTEX
  5
130
330
123
100
AcDbEntity
  8
PREDETERMINADA
 62
     7
100
AcDbVertex
100
AcDb2dVertex
 10
-982.9893612742683
 20
124.6574043469382
 30
0.0
  0
VERTEX
  5
131
330
123
100
AcDbEntity
  8
PREDETERMINADA
 62
     7
100
AcDbVertex
100
AcDb2dVertex
 10
-984.1139513275116
 20
124.424772937169
 30
0.0
  0
VERTEX
  5
132
330
123
100
AcDbEntity
  8
PREDETERMINADA
 62
     7
100
AcDbVertex
100
AcDb2dVertex
 10
-985.2374717173641
 20
124.1872384029097
 30
0.0
  0
VERTEX
  5
133
330
123
100
AcDbEntity
  8
PREDETERMINADA
 62
     7
100
AcDbVertex
100
AcDb2dVertex
 10
-986.3598453296696
 20
123.9446360901279
 30
0.0
  0
VERTEX
  5
134
330
123
100
AcDbEntity
  8
PREDETERMINADA
 62
     7
100
AcDbVertex
100
AcDb2dVertex
 10
-987.4809950502722
 20
123.6968013447912
 30
0.0
  0
VERTEX
  5
135
330
123
100
AcDbEntity
  8
PREDETERMINADA
 62
     7
100
AcDbVertex
100
AcDb2dVertex
 10
-988.6008437650157
 20
123.4435695128674
 30
0.0
  0
VERTEX
  5
136
330
123
100
AcDbEntity
  8
PREDETERMINADA
 62
     7
100
AcDbVertex
100
AcDb2dVertex
 10
-989.7193143597442
 20
123.184775940324
 30
0.0
  0
VERTEX
  5
137
330
123
100
AcDbEntity
  8
PREDETERMINADA
 62
     7
100
AcDbVertex
100
AcDb2dVertex
 10
-990.8363297203014
 20
122.9202559731287
 30
0.0
  0
VERTEX
  5
138
330
123
100
AcDbEntity
  8
PREDETERMINADA
 62
     7
100
AcDbVertex
100
AcDb2dVertex
 10
-991.9518127325313
 20
122.6498449572492
 30
0.0
  0
VERTEX
  5
139
330
123
100
AcDbEntity
  8
PREDETERMINADA
 62
     7
100
AcDbVertex
100
AcDb2dVertex
 10
-993.0656862822779
 20
122.3733782386531
 30
0.0
  0
VERTEX
  5
13A
330
123
100
AcDbEntity
  8
PREDETERMINADA
 62
     7
100
AcDbVertex
100
AcDb2dVertex
 10
-994.1778732553851
 20
122.090691163308
 30
0.0
  0
VERTEX
  5
13B
330
123
100
AcDbEntity
  8
PREDETERMINADA
 62
     7
100
AcDbVertex
100
AcDb2dVertex
 10
-995.2882965376969
 20
121.8016190771817
 30
0.0
  0
VERTEX
  5
13C
330
123
100
AcDbEntity
  8
PREDETERMINADA
 62
     7
100
AcDbVertex
100
AcDb2dVertex
 10
-996.3968790150572
 20
121.5059973262418
 30
0.0
  0
VERTEX
  5
13D
330
123
100
AcDbEntity
  8
PREDETERMINADA
 62
     7
100
AcDbVertex
100
AcDb2dVertex
 10
-997.5035435733098
 20
121.2036612564558
 30
0.0
  0
VERTEX
  5
13E
330
123
100
AcDbEntity
  8
PREDETERMINADA
 62
     7
100
AcDbVertex
100
AcDb2dVertex
 10
-998.6082130982988
 20
120.8944462137916
 30
0.0
  0
VERTEX
  5
13F
330
123
100
AcDbEntity
  8
PREDETERMINADA
 62
     7
100
AcDbVertex
100
AcDb2dVertex
 10
-999.7108104758681
 20
120.5781875442166
 30
0.0
  0
VERTEX
  5
140
330
123
100
AcDbEntity
  8
PREDETERMINADA
 62
     7
100
AcDbVertex
100
AcDb2dVertex
 10
-1000.811258591862
 20
120.2547205936987
 30
0.0
  0
VERTEX
  5
141
330
123
100
AcDbEntity
  8
PREDETERMINADA
 62
     7
100
AcDbVertex
100
AcDb2dVertex
 10
-1001.909480332123
 20
119.9238807082053
 30
0.0
  0
VERTEX
  5
142
330
123
100
AcDbEntity
  8
PREDETERMINADA
 62
     7
100
AcDbVertex
100
AcDb2dVertex
 10
-1003.005398582497
 20
119.5855032337043
 30
0.0
  0
VERTEX
  5
143
330
123
100
AcDbEntity
  8
PREDETERMINADA
 62
     7
100
AcDbVertex
100
AcDb2dVertex
 10
-1003.552469800802
 20
119.4134364461908
 30
0.0
  0
VERTEX
  5
144
330
123
100
AcDbEntity
  8
PREDETERMINADA
 62
     7
100
AcDbVertex
100
AcDb2dVertex
 10
-1004.098936228826
 20
119.2394235161632
 30
0.0
  0
VERTEX
  5
145
330
123
100
AcDbEntity
  8
PREDETERMINADA
 62
     7
100
AcDbVertex
100
AcDb2dVertex
 10
-1004.644788227301
 20
119.0634438618675
 30
0.0
  0
VERTEX
  5
146
330
123
100
AcDbEntity
  8
PREDETERMINADA
 62
     7
100
AcDbVertex
100
AcDb2dVertex
 10
-1005.190016156956
 20
118.8854769015496
 30
0.0
  0
VERTEX
  5
147
330
123
100
AcDbEntity
  8
PREDETERMINADA
 62
     7
100
AcDbVertex
100
AcDb2dVertex
 10
-1006.11748059615
 20
118.5778477719878
 30
0.0
  0
VERTEX
  5
148
330
123
100
AcDbEntity
  8
PREDETERMINADA
 62
     7
100
AcDbVertex
100
AcDb2dVertex
 10
-1007.04342915888
 20
118.2654560390744
 30
0.0
  0
VERTEX
  5
149
330
123
100
AcDbEntity
  8
PREDETERMINADA
 62
     7
100
AcDbVertex
100
AcDb2dVertex
 10
-1007.96818564967
 20
117.9493673741957
 30
0.0
  0
VERTEX
  5
14A
330
123
100
AcDbEntity
  8
PREDETERMINADA
 62
     7
100
AcDbVertex
100
AcDb2dVertex
 10
-1008.892073873044
 20
117.6306474487383
 30
0.0
  0
VERTEX
  5
14B
330
123
100
AcDbEntity
  8
PREDETERMINADA
 62
     7
100
AcDbVertex
100
AcDb2dVertex
 10
-1010.738540735647
 20
116.9895765016329
 30
0.0
  0
VERTEX
  5
14C
330
123
100
AcDbEntity
  8
PREDETERMINADA
 62
     7
100
AcDbVertex
100
AcDb2dVertex
 10
-1012.585420182885
 20
116.3507685688499
 30
0.0
  0
VERTEX
  5
14D
330
123
100
AcDbEntity
  8
PREDETERMINADA
 62
     7
100
AcDbVertex
100
AcDb2dVertex
 10
-1013.509824137054
 20
116.0348774112954
 30
0.0
  0
VERTEX
  5
14E
330
123
100
AcDbEntity
  8
PREDETERMINADA
 62
     7
100
AcDbVertex
100
AcDb2dVertex
 10
-1014.435302650955
 20
115.7227490214809
 30
0.0
  0
VERTEX
  5
14F
330
123
100
AcDbEntity
  8
PREDETERMINADA
 62
     7
100
AcDbVertex
100
AcDb2dVertex
 10
-1015.362179529115
 20
115.4154490707928
 30
0.0
  0
VERTEX
  5
150
330
123
100
AcDbEntity
  8
PREDETERMINADA
 62
     7
100
AcDbVertex
100
AcDb2dVertex
 10
-1016.290778576056
 20
115.1140432306175
 30
0.0
  0
VERTEX
  5
151
330
123
100
AcDbEntity
  8
PREDETERMINADA
 62
     7
100
AcDbVertex
100
AcDb2dVertex
 10
-1017.221423596304
 20
114.8195971723415
 30
0.0
  0
VERTEX
  5
152
330
123
100
AcDbEntity
  8
PREDETERMINADA
 62
     7
100
AcDbVertex
100
AcDb2dVertex
 10
-1017.687614535332
 20
114.675317083724
 30
0.0
  0
VERTEX
  5
153
330
123
100
AcDbEntity
  8
PREDETERMINADA
 62
     7
100
AcDbVertex
100
AcDb2dVertex
 10
-1018.154438394384
 20
114.5331765673513
 30
0.0
  0
VERTEX
  5
154
330
123
100
AcDbEntity
  8
PREDETERMINADA
 62
     7
100
AcDbVertex
100
AcDb2dVertex
 10
-1018.621935649024
 20
114.3933088321466
 30
0.0
  0
VERTEX
  5
155
330
123
100
AcDbEntity
  8
PREDETERMINADA
 62
     7
100
AcDbVertex
100
AcDb2dVertex
 10
-1019.090146774819
 20
114.2558470870333
 30
0.0
  0
VERTEX
  5
156
330
123
100
AcDbEntity
  8
PREDETERMINADA
 62
     7
100
AcDbVertex
100
AcDb2dVertex
 10
-1019.559112247334
 20
114.1209245409346
 30
0.0
  0
VERTEX
  5
157
330
123
100
AcDbEntity
  8
PREDETERMINADA
 62
     7
100
AcDbVertex
100
AcDb2dVertex
 10
-1020.028872542136
 20
113.9886744027739
 30
0.0
  0
VERTEX
  5
158
330
123
100
AcDbEntity
  8
PREDETERMINADA
 62
     7
100
AcDbVertex
100
AcDb2dVertex
 10
-1020.472075800548
 20
113.8666494328982
 30
0.0
  0
VERTEX
  5
159
330
123
100
AcDbEntity
  8
PREDETERMINADA
 62
     7
100
AcDbVertex
100
AcDb2dVertex
 10
-1020.91599834968
 20
113.7470741455372
 30
0.0
  0
VERTEX
  5
15A
330
123
100
AcDbEntity
  8
PREDETERMINADA
 62
     7
100
AcDbVertex
100
AcDb2dVertex
 10
-1021.36061864692
 20
113.6299096929332
 30
0.0
  0
VERTEX
  5
15B
330
123
100
AcDbEntity
  8
PREDETERMINADA
 62
     7
100
AcDbVertex
100
AcDb2dVertex
 10
-1021.805915149656
 20
113.5151172273281
 30
0.0
  0
VERTEX
  5
15C
330
123
100
AcDbEntity
  8
PREDETERMINADA
 62
     7
100
AcDbVertex
100
AcDb2dVertex
 10
-1022.251866315273
 20
113.4026579009639
 30
0.0
  0
VERTEX
  5
15D
330
123
100
AcDbEntity
  8
PREDETERMINADA
 62
     7
100
AcDbVertex
100
AcDb2dVertex
 10
-1022.698450601161
 20
113.2924928660827
 30
0.0
  0
VERTEX
  5
15E
330
123
100
AcDbEntity
  8
PREDETERMINADA
 62
     7
100
AcDbVertex
100
AcDb2dVertex
 10
-1023.145646464705
 20
113.1845832749266
 30
0.0
  0
VERTEX
  5
15F
330
123
100
AcDbEntity
  8
PREDETERMINADA
 62
     7
100
AcDbVertex
100
AcDb2dVertex
 10
-1023.593432363293
 20
113.0788902797375
 30
0.0
  0
VERTEX
  5
160
330
123
100
AcDbEntity
  8
PREDETERMINADA
 62
     7
100
AcDbVertex
100
AcDb2dVertex
 10
-1024.041786754313
 20
112.9753750327575
 30
0.0
  0
VERTEX
  5
161
330
123
100
AcDbEntity
  8
PREDETERMINADA
 62
     7
100
AcDbVertex
100
AcDb2dVertex
 10
-1024.490688095152
 20
112.8739986862286
 30
0.0
  0
VERTEX
  5
162
330
123
100
AcDbEntity
  8
PREDETERMINADA
 62
     7
100
AcDbVertex
100
AcDb2dVertex
 10
-1024.940114843196
 20
112.7747223923929
 30
0.0
  0
VERTEX
  5
163
330
123
100
AcDbEntity
  8
PREDETERMINADA
 62
     7
100
AcDbVertex
100
AcDb2dVertex
 10
-1025.390045455834
 20
112.6775073034923
 30
0.0
  0
VERTEX
  5
164
330
123
100
AcDbEntity
  8
PREDETERMINADA
 62
     7
100
AcDbVertex
100
AcDb2dVertex
 10
-1025.840458390453
 20
112.582314571769
 30
0.0
  0
VERTEX
  5
165
330
123
100
AcDbEntity
  8
PREDETERMINADA
 62
     7
100
AcDbVertex
100
AcDb2dVertex
 10
-1026.29133210444
 20
112.489105349465
 30
0.0
  0
VERTEX
  5
166
330
123
100
AcDbEntity
  8
PREDETERMINADA
 62
     7
100
AcDbVertex
100
AcDb2dVertex
 10
-1027.194375700066
 20
112.3084820420828
 30
0.0
  0
VERTEX
  5
167
330
123
100
AcDbEntity
  8
PREDETERMINADA
 62
     7
100
AcDbVertex
100
AcDb2dVertex
 10
-1028.099003901812
 20
112.1353265992821
 30
0.0
  0
VERTEX
  5
168
330
123
100
AcDbEntity
  8
PREDETERMINADA
 62
     7
100
AcDbVertex
100
AcDb2dVertex
 10
-1029.005044368776
 20
111.9693282389992
 30
0.0
  0
VERTEX
  5
169
330
123
100
AcDbEntity
  8
PREDETERMINADA
 62
     7
100
AcDbVertex
100
AcDb2dVertex
 10
-1029.912324760056
 20
111.8101761791702
 30
0.0
  0
VERTEX
  5
16A
330
123
100
AcDbEntity
  8
PREDETERMINADA
 62
     7
100
AcDbVertex
100
AcDb2dVertex
 10
-1030.82067273475
 20
111.6575596377316
 30
0.0
  0
VERTEX
  5
16B
330
123
100
AcDbEntity
  8
PREDETERMINADA
 62
     7
100
AcDbVertex
100
AcDb2dVertex
 10
-1031.729915951957
 20
111.5111678326195
 30
0.0
  0
VERTEX
  5
16C
330
123
100
AcDbEntity
  8
PREDETERMINADA
 62
     7
100
AcDbVertex
100
AcDb2dVertex
 10
-1032.639882070775
 20
111.3706899817703
 30
0.0
  0
VERTEX
  5
16D
330
123
100
AcDbEntity
  8
PREDETERMINADA
 62
     7
100
AcDbVertex
100
AcDb2dVertex
 10
-1033.550398750303
 20
111.2358153031202
 30
0.0
  0
VERTEX
  5
16E
330
123
100
AcDbEntity
  8
PREDETERMINADA
 62
     7
100
AcDbVertex
100
AcDb2dVertex
 10
-1034.461293649638
 20
111.1062330146054
 30
0.0
  0
SEQEND
  5
16F
330
123
100
AcDbEntity
  8
PREDETERMINADA
 62
     7
  0
ARC
  5
170
330
1F
100
AcDbEntity
  8
PREDETERMINADA
 62
     7
100
AcDbCircle
 10
-1349.230287901185
 20
137.0451961793558
 30
0.0
 40
315.8359535458123
100
AcDbArc
 50
355.2891084171877
 51
356.8255601517579
  0
LINE
  5
171
330
1F
100
AcDbEntity
  8
PREDETERMINADA
 62
     7
100
AcDbLine
 10
-1033.878963372006
 20
119.5554371791598
 30
0.0
 11
-1050.36127031233
 21
120.3103463456378
 31
0.0
  0
LINE
  5
172
330
1F
100
AcDbEntity
  8
PREDETERMINADA
 62
     7
100
AcDbLine
 10
-1050.36127031233
 20
120.3103463456378
 30
0.0
 11
-1050.567927534501
 21
115.815110791206
 31
0.0
  0
ARC
  5
173
330
1F
100
AcDbEntity
  8
PREDETERMINADA
 62
     7
100
AcDbCircle
 10
-1050.13323312252
 20
125.3051566401233
 30
0.0
 40
9.499996286649823
100
AcDbArc
 50
87.33885098313655
 51
267.3773827093984
  0
LINE
  5
174
330
1F
100
AcDbEntity
  8
PREDETERMINADA
 62
     7
100
AcDbLine
 10
-1049.692156701386
 20
134.7949080086834
 30
0.0
 11
-1049.899590034668
 21
130.2997077320294
 31
0.0
  0
LINE
  5
175
330
1F
100
AcDbEntity
  8
PREDETERMINADA
 62
     7
100
AcDbLine
 10
-1049.899590034668
 20
130.2997077320294
 30
0.0
 11
-1033.420916705454
 21
129.5453630099956
 31
0.0
  0
POLYLINE
  5
176
330
1F
100
AcDbEntity
  8
PREDETERMINADA
 62
     7
100
AcDb2dPolyline
 66
     1
 10
0.0
 20
0.0
 30
0.0
  0
VERTEX
  5
177
330
176
100
AcDbEntity
  8
PREDETERMINADA
 62
     7
100
AcDbVertex
100
AcDb2dVertex
 10
-1033.420916705454
 20
129.5453630099956
 30
0.0
  0
VERTEX
  5
178
330
176
100
AcDbEntity
  8
PREDETERMINADA
 62
     7
100
AcDbVertex
100
AcDb2dVertex
 10
-1033.307787831242
 20
132.296050235328
 30
0.0
  0
VERTEX
  5
179
330
176
100
AcDbEntity
  8
PREDETERMINADA
 62
     7
100
AcDbVertex
100
AcDb2dVertex
 10
-1033.249552204154
 20
133.6711027288129
 30
0.0
  0
VERTEX
  5
17A
330
176
100
AcDbEntity
  8
PREDETERMINADA
 62
     7
100
AcDbVertex
100
AcDb2dVertex
 10
-1033.189223836588
 20
135.0458614417804
 30
0.0
  0
VERTEX
  5
17B
330
176
100
AcDbEntity
  8
PREDETERMINADA
 62
     7
100
AcDbVertex
100
AcDb2dVertex
 10
-1033.126068768177
 20
136.4202515984328
 30
0.0
  0
VERTEX
  5
17C
330
176
100
AcDbEntity
  8
PREDETERMINADA
 62
     7
100
AcDbVertex
100
AcDb2dVertex
 10
-1033.059353038552
 20
137.7941984229727
 30
0.0
  0
VERTEX
  5
17D
330
176
100
AcDbEntity
  8
PREDETERMINADA
 62
     7
100
AcDbVertex
100
AcDb2dVertex
 10
-1032.988342687347
 20
139.1676271396025
 30
0.0
  0
VERTEX
  5
17E
330
176
100
AcDbEntity
  8
PREDETERMINADA
 62
     7
100
AcDbVertex
100
AcDb2dVertex
 10
-1032.912303754192
 20
140.5404629725248
 30
0.0
  0
VERTEX
  5
17F
330
176
100
AcDbEntity
  8
PREDETERMINADA
 62
     7
100
AcDbVertex
100
AcDb2dVertex
 10
-1032.830502278721
 20
141.9126311459421
 30
0.0
  0
VERTEX
  5
180
330
176
100
AcDbEntity
  8
PREDETERMINADA
 62
     7
100
AcDbVertex
100
AcDb2dVertex
 10
-1032.742204300567
 20
143.2840568840568
 30
0.0
  0
VERTEX
  5
181
330
176
100
AcDbEntity
  8
PREDETERMINADA
 62
     7
100
AcDbVertex
100
AcDb2dVertex
 10
-1032.646675859361
 20
144.6546654110715
 30
0.0
  0
VERTEX
  5
182
330
176
100
AcDbEntity
  8
PREDETERMINADA
 62
     7
100
AcDbVertex
100
AcDb2dVertex
 10
-1032.595970852499
 20
145.3396398529796
 30
0.0
  0
VERTEX
  5
183
330
176
100
AcDbEntity
  8
PREDETERMINADA
 62
     7
100
AcDbVertex
100
AcDb2dVertex
 10
-1032.543182994736
 20
146.0243819511886
 30
0.0
  0
VERTEX
  5
184
330
176
100
AcDbEntity
  8
PREDETERMINADA
 62
     7
100
AcDbVertex
100
AcDb2dVertex
 10
-1032.488220541026
 20
146.7088823587238
 30
0.0
  0
VERTEX
  5
185
330
176
100
AcDbEntity
  8
PREDETERMINADA
 62
     7
100
AcDbVertex
100
AcDb2dVertex
 10
-1032.430991746323
 20
147.3931317286106
 30
0.0
  0
VERTEX
  5
186
330
176
100
AcDbEntity
  8
PREDETERMINADA
 62
     7
100
AcDbVertex
100
AcDb2dVertex
 10
-1032.371404865582
 20
148.0771207138743
 30
0.0
  0
VERTEX
  5
187
330
176
100
AcDbEntity
  8
PREDETERMINADA
 62
     7
100
AcDbVertex
100
AcDb2dVertex
 10
-1032.309368153757
 20
148.7608399675401
 30
0.0
  0
VERTEX
  5
188
330
176
100
AcDbEntity
  8
PREDETERMINADA
 62
     7
100
AcDbVertex
100
AcDb2dVertex
 10
-1032.244789865801
 20
149.4442801426333
 30
0.0
  0
VERTEX
  5
189
330
176
100
AcDbEntity
  8
PREDETERMINADA
 62
     7
100
AcDbVertex
100
AcDb2dVertex
 10
-1032.177578256668
 20
150.1274318921794
 30
0.0
  0
VERTEX
  5
18A
330
176
100
AcDbEntity
  8
PREDETERMINADA
 62
     7
100
AcDbVertex
100
AcDb2dVertex
 10
-1032.107641581313
 20
150.8102858692035
 30
0.0
  0
VERTEX
  5
18B
330
176
100
AcDbEntity
  8
PREDETERMINADA
 62
     7
100
AcDbVertex
100
AcDb2dVertex
 10
-1032.034888094689
 20
151.4928327267311
 30
0.0
  0
SEQEND
  5
18C
330
176
100
AcDbEntity
  8
PREDETERMINADA
 62
     7
  0
LINE
  5
18D
330
1F
100
AcDbEntity
  8
PREDETERMINADA
 62
     7
100
AcDbLine
 10
-1032.034888094689
 20
151.4928327267311
 30
0.0
 11
-1048.369451701717
 21
153.820460503927
 31
0.0
  0
LINE
  5
18E
330
1F
100
AcDbEntity
  8
PREDETERMINADA
 62
     7
100
AcDbLine
 10
-1048.369451701717
 20
153.820460503927
 30
0.0
 11
-1049.005016146003
 21
149.365582727263
 31
0.0
  0
ARC
  5
18F
330
1F
100
AcDbEntity
  8
PREDETERMINADA
 62
     7
100
AcDbCircle
 10
-1047.664831183835
 20
158.7705802999726
 30
0.0
 40
9.500003951340991
100
AcDbArc
 50
81.85142595453148
 51
261.8901145286284
  0
LINE
  5
190
330
1F
100
AcDbEntity
  8
PREDETERMINADA
 62
     7
100
AcDbLine
 10
-1046.318295868896
 20
168.1746707781164
 30
0.0
 11
-1046.954636424293
 21
163.7198635570078
 31
0.0
  0
LINE
  5
191
330
1F
100
AcDbEntity
  8
PREDETERMINADA
 62
     7
100
AcDbLine
 10
-1046.954636424293
 20
163.7198635570078
 30
0.0
 11
-1030.623741706153
 21
161.3927649464786
 31
0.0
  0
LINE
  5
192
330
1F
100
AcDbEntity
  8
PREDETERMINADA
 62
     7
100
AcDbLine
 10
-1030.623741706153
 20
161.3927649464786
 30
0.0
 11
-1030.623424206153
 21
161.3946699464781
 31
0.0
  0
ARC
  5
193
330
1F
100
AcDbEntity
  8
PREDETERMINADA
 62
     7
100
AcDbCircle
 10
-877.3891598572493
 20
134.1598312754624
 30
0.0
 40
155.6357163635199
100
AcDbArc
 50
161.8240782675124
 51
169.9218697382168
  0
LINE
  5
194
330
1F
100
AcDbEntity
  8
PREDETERMINADA
 62
     7
100
AcDbLine
 10
-1025.259155874161
 20
182.7081627189274
 30
0.0
 11
-1040.773722814727
 21
188.3237852175232
 31
0.0
  0
LINE
  5
195
330
1F
100
AcDbEntity
  8
PREDETERMINADA
 62
     7
100
AcDbLine
 10
-1040.773722814727
 20
188.3237852175232
 30
0.0
 11
-1042.305977814344
 21
184.092674385248
 31
0.0
  0
ARC
  5
196
330
1F
100
AcDbEntity
  8
PREDETERMINADA
 62
     7
100
AcDbCircle
 10
-1039.072647777933
 20
193.0255127903925
 30
0.0
 40
9.500001320882962
100
AcDbArc
 50
70.06327726728574
 51
250.1017711903738
  0
LINE
  5
197
330
1F
100
AcDbEntity
  8
PREDETERMINADA
 62
     7
100
AcDbLine
 10
-1035.833316982629
 20
201.9561768807818
 30
0.0
 11
-1037.366348093357
 21
197.7253482707287
 31
0.0
  0
LINE
  5
198
330
1F
100
AcDbEntity
  8
PREDETERMINADA
 62
     7
100
AcDbLine
 10
-1037.366348093357
 20
197.7253482707287
 30
0.0
 11
-1021.855273652789
 21
192.1109957721322
 31
0.0
  0
POLYLINE
  5
199
330
1F
100
AcDbEntity
  8
PREDETERMINADA
 62
     7
100
AcDb2dPolyline
 66
     1
 10
0.0
 20
0.0
 30
0.0
  0
VERTEX
  5
19A
330
199
100
AcDbEntity
  8
PREDETERMINADA
 62
     7
100
AcDbVertex
100
AcDb2dVertex
 10
-1021.855273652789
 20
192.1109957721322
 30
0.0
  0
VERTEX
  5
19B
330
199
100
AcDbEntity
  8
PREDETERMINADA
 62
     7
100
AcDbVertex
100
AcDb2dVertex
 10
-1021.504630180655
 20
192.9869474038576
 30
0.0
  0
VERTEX
  5
19C
330
199
100
AcDbEntity
  8
PREDETERMINADA
 62
     7
100
AcDbVertex
100
AcDb2dVertex
 10
-1021.149612264077
 20
193.8593271605839
 30
0.0
  0
VERTEX
  5
19D
330
199
100
AcDbEntity
  8
PREDETERMINADA
 62
     7
100
AcDbVertex
100
AcDb2dVertex
 10
-1020.909729901551
 20
194.4408445442514
 30
0.0
  0
VERTEX
  5
19E
330
199
100
AcDbEntity
  8
PREDETERMINADA
 62
     7
100
AcDbVertex
100
AcDb2dVertex
 10
-1020.667562084212
 20
195.021519046551
 30
0.0
  0
VERTEX
  5
19F
330
199
100
AcDbEntity
  8
PREDETERMINADA
 62
     7
100
AcDbVertex
100
AcDb2dVertex
 10
-1020.423077483222
 20
195.6013079439924
 30
0.0
  0
VERTEX
  5
1A0
330
199
100
AcDbEntity
  8
PREDETERMINADA
 62
     7
100
AcDbVertex
100
AcDb2dVertex
 10
-1020.176244769746
 20
196.1801685130853
 30
0.0
  0
VERTEX
  5
1A1
330
199
100
AcDbEntity
  8
PREDETERMINADA
 62
     7
100
AcDbVertex
100
AcDb2dVertex
 10
-1019.927032614945
 20
196.7580580303392
 30
0.0
  0
VERTEX
  5
1A2
330
199
100
AcDbEntity
  8
PREDETERMINADA
 62
     7
100
AcDbVertex
100
AcDb2dVertex
 10
-1019.675409689983
 20
197.3349337722638
 30
0.0
  0
VERTEX
  5
1A3
330
199
100
AcDbEntity
  8
PREDETERMINADA
 62
     7
100
AcDbVertex
100
AcDb2dVertex
 10
-1019.421344666022
 20
197.9107530153687
 30
0.0
  0
VERTEX
  5
1A4
330
199
100
AcDbEntity
  8
PREDETERMINADA
 62
     7
100
AcDbVertex
100
AcDb2dVertex
 10
-1019.164806214226
 20
198.4854730361635
 30
0.0
  0
VERTEX
  5
1A5
330
199
100
AcDbEntity
  8
PREDETERMINADA
 62
     7
100
AcDbVertex
100
AcDb2dVertex
 10
-1018.905763005757
 20
199.0590511111577
 30
0.0
  0
VERTEX
  5
1A6
330
199
100
AcDbEntity
  8
PREDETERMINADA
 62
     7
100
AcDbVertex
100
AcDb2dVertex
 10
-1018.644183711779
 20
199.6314445168611
 30
0.0
  0
VERTEX
  5
1A7
330
199
100
AcDbEntity
  8
PREDETERMINADA
 62
     7
100
AcDbVertex
100
AcDb2dVertex
 10
-1018.380037003454
 20
200.2026105297833
 30
0.0
  0
VERTEX
  5
1A8
330
199
100
AcDbEntity
  8
PREDETERMINADA
 62
     7
100
AcDbVertex
100
AcDb2dVertex
 10
-1018.113291551946
 20
200.7725064264337
 30
0.0
  0
VERTEX
  5
1A9
330
199
100
AcDbEntity
  8
PREDETERMINADA
 62
     7
100
AcDbVertex
100
AcDb2dVertex
 10
-1017.843916028416
 20
201.3410894833221
 30
0.0
  0
VERTEX
  5
1AA
330
199
100
AcDbEntity
  8
PREDETERMINADA
 62
     7
100
AcDbVertex
100
AcDb2dVertex
 10
-1017.571879104029
 20
201.9083169769581
 30
0.0
  0
VERTEX
  5
1AB
330
199
100
AcDbEntity
  8
PREDETERMINADA
 62
     7
100
AcDbVertex
100
AcDb2dVertex
 10
-1017.297149449946
 20
202.4741461838513
 30
0.0
  0
VERTEX
  5
1AC
330
199
100
AcDbEntity
  8
PREDETERMINADA
 62
     7
100
AcDbVertex
100
AcDb2dVertex
 10
-1017.019695737332
 20
203.0385343805113
 30
0.0
  0
VERTEX
  5
1AD
330
199
100
AcDbEntity
  8
PREDETERMINADA
 62
     7
100
AcDbVertex
100
AcDb2dVertex
 10
-1016.739486637348
 20
203.6014388434477
 30
0.0
  0
VERTEX
  5
1AE
330
199
100
AcDbEntity
  8
PREDETERMINADA
 62
     7
100
AcDbVertex
100
AcDb2dVertex
 10
-1016.456490821159
 20
204.1628168491701
 30
0.0
  0
VERTEX
  5
1AF
330
199
100
AcDbEntity
  8
PREDETERMINADA
 62
     7
100
AcDbVertex
100
AcDb2dVertex
 10
-1016.170676959926
 20
204.7226256741882
 30
0.0
  0
VERTEX
  5
1B0
330
199
100
AcDbEntity
  8
PREDETERMINADA
 62
     7
100
AcDbVertex
100
AcDb2dVertex
 10
-1015.882013724812
 20
205.2808225950115
 30
0.0
  0
VERTEX
  5
1B1
330
199
100
AcDbEntity
  8
PREDETERMINADA
 62
     7
100
AcDbVertex
100
AcDb2dVertex
 10
-1015.590469786982
 20
205.8373648881497
 30
0.0
  0
VERTEX
  5
1B2
330
199
100
AcDbEntity
  8
PREDETERMINADA
 62
     7
100
AcDbVertex
100
AcDb2dVertex
 10
-1015.296013817597
 20
206.3922098301124
 30
0.0
  0
VERTEX
  5
1B3
330
199
100
AcDbEntity
  8
PREDETERMINADA
 62
     7
100
AcDbVertex
100
AcDb2dVertex
 10
-1014.99861448782
 20
206.9453146974091
 30
0.0
  0
VERTEX
  5
1B4
330
199
100
AcDbEntity
  8
PREDETERMINADA
 62
     7
100
AcDbVertex
100
AcDb2dVertex
 10
-1014.698240468815
 20
207.4966367665496
 30
0.0
  0
VERTEX
  5
1B5
330
199
100
AcDbEntity
  8
PREDETERMINADA
 62
     7
100
AcDbVertex
100
AcDb2dVertex
 10
-1014.394860431744
 20
208.0461333140434
 30
0.0
  0
VERTEX
  5
1B6
330
199
100
AcDbEntity
  8
PREDETERMINADA
 62
     7
100
AcDbVertex
100
AcDb2dVertex
 10
-1014.088443047771
 20
208.5937616164001
 30
0.0
  0
VERTEX
  5
1B7
330
199
100
AcDbEntity
  8
PREDETERMINADA
 62
     7
100
AcDbVertex
100
AcDb2dVertex
 10
-1013.778956988057
 20
209.1394789501294
 30
0.0
  0
VERTEX
  5
1B8
330
199
100
AcDbEntity
  8
PREDETERMINADA
 62
     7
100
AcDbVertex
100
AcDb2dVertex
 10
-1013.466370923767
 20
209.6832425917409
 30
0.0
  0
VERTEX
  5
1B9
330
199
100
AcDbEntity
  8
PREDETERMINADA
 62
     7
100
AcDbVertex
100
AcDb2dVertex
 10
-1013.150653526063
 20
210.2250098177441
 30
0.0
  0
VERTEX
  5
1BA
330
199
100
AcDbEntity
  8
PREDETERMINADA
 62
     7
100
AcDbVertex
100
AcDb2dVertex
 10
-1012.831773466108
 20
210.7647379046487
 30
0.0
  0
VERTEX
  5
1BB
330
199
100
AcDbEntity
  8
PREDETERMINADA
 62
     7
100
AcDbVertex
100
AcDb2dVertex
 10
-1012.509699415065
 20
211.3023841289643
 30
0.0
  0
VERTEX
  5
1BC
330
199
100
AcDbEntity
  8
PREDETERMINADA
 62
     7
100
AcDbVertex
100
AcDb2dVertex
 10
-1012.184400044096
 20
211.8379057672006
 30
0.0
  0
SEQEND
  5
1BD
330
199
100
AcDbEntity
  8
PREDETERMINADA
 62
     7
  0
LINE
  5
1BE
330
1F
100
AcDbEntity
  8
PREDETERMINADA
 62
     7
100
AcDbLine
 10
-1012.184400044096
 20
211.8379057672006
 30
0.0
 11
-1025.78066726292
 21
221.1855290981969
 31
0.0
  0
LINE
  5
1BF
330
1F
100
AcDbEntity
  8
PREDETERMINADA
 62
     7
100
AcDbLine
 10
-1025.78066726292
 20
221.1855290981969
 30
0.0
 11
-1028.330686151171
 21
217.4777993769015
 31
0.0
  0
ARC
  5
1C0
330
1F
100
AcDbEntity
  8
PREDETERMINADA
 62
     7
100
AcDbCircle
 10
-1022.948594760043
 20
225.3061426366561
 30
0.0
 40
9.499992943944502
100
AcDbArc
 50
55.45207001498149
 51
235.4909531834272
  0
LINE
  5
1C1
330
1F
100
AcDbEntity
  8
PREDETERMINADA
 62
     7
100
AcDbLine
 10
-1017.561191987197
 20
233.1308315952103
 30
0.0
 11
-1020.111881153225
 21
229.4235604850262
 31
0.0
  0
LINE
  5
1C2
330
1F
100
AcDbEntity
  8
PREDETERMINADA
 62
     7
100
AcDbLine
 10
-1020.111881153225
 20
229.4235604850262
 30
0.0
 11
-1006.518436156624
 21
220.078371320696
 31
0.0
  0
POLYLINE
  5
1C3
330
1F
100
AcDbEntity
  8
PREDETERMINADA
 62
     7
100
AcDb2dPolyline
 66
     1
 10
0.0
 20
0.0
 30
0.0
  0
VERTEX
  5
1C4
330
1C3
100
AcDbEntity
  8
PREDETERMINADA
 62
     7
100
AcDbVertex
100
AcDb2dVertex
 10
-1006.518436156624
 20
220.078371320696
 30
0.0
  0
VERTEX
  5
1C5
330
1C3
100
AcDbEntity
  8
PREDETERMINADA
 62
     7
100
AcDbVertex
100
AcDb2dVertex
 10
-1006.223026427626
 20
220.457310610898
 30
0.0
  0
VERTEX
  5
1C6
330
1C3
100
AcDbEntity
  8
PREDETERMINADA
 62
     7
100
AcDbVertex
100
AcDb2dVertex
 10
-1005.925392803365
 20
220.8345367756936
 30
0.0
  0
VERTEX
  5
1C7
330
1C3
100
AcDbEntity
  8
PREDETERMINADA
 62
     7
100
AcDbVertex
100
AcDb2dVertex
 10
-1005.625520659411
 20
221.210030849832
 30
0.0
  0
VERTEX
  5
1C8
330
1C3
100
AcDbEntity
  8
PREDETERMINADA
 62
     7
100
AcDbVertex
100
AcDb2dVertex
 10
-1005.323395371333
 20
221.5837738680626
 30
0.0
  0
VERTEX
  5
1C9
330
1C3
100
AcDbEntity
  8
PREDETERMINADA
 62
     7
100
AcDbVertex
100
AcDb2dVertex
 10
-1005.0190023147
 20
221.9557468651349
 30
0.0
  0
VERTEX
  5
1CA
330
1C3
100
AcDbEntity
  8
PREDETERMINADA
 62
     7
100
AcDbVertex
100
AcDb2dVertex
 10
-1004.712326865083
 20
222.325930875798
 30
0.0
  0
VERTEX
  5
1CB
330
1C3
100
AcDbEntity
  8
PREDETERMINADA
 62
     7
100
AcDbVertex
100
AcDb2dVertex
 10
-1004.403354398052
 20
222.6943069348015
 30
0.0
  0
VERTEX
  5
1CC
330
1C3
100
AcDbEntity
  8
PREDETERMINADA
 62
     7
100
AcDbVertex
100
AcDb2dVertex
 10
-1004.092070289175
 20
223.0608560768947
 30
0.0
  0
VERTEX
  5
1CD
330
1C3
100
AcDbEntity
  8
PREDETERMINADA
 62
     7
100
AcDbVertex
100
AcDb2dVertex
 10
-1003.778459914023
 20
223.4255593368268
 30
0.0
  0
VERTEX
  5
1CE
330
1C3
100
AcDbEntity
  8
PREDETERMINADA
 62
     7
100
AcDbVertex
100
AcDb2dVertex
 10
-1003.462508648165
 20
223.7883977493473
 30
0.0
  0
VERTEX
  5
1CF
330
1C3
100
AcDbEntity
  8
PREDETERMINADA
 62
     7
100
AcDbVertex
100
AcDb2dVertex
 10
-1003.144201867171
 20
224.1493523492055
 30
0.0
  0
VERTEX
  5
1D0
330
1C3
100
AcDbEntity
  8
PREDETERMINADA
 62
     7
100
AcDbVertex
100
AcDb2dVertex
 10
-1002.82352494661
 20
224.5084041711507
 30
0.0
  0
VERTEX
  5
1D1
330
1C3
100
AcDbEntity
  8
PREDETERMINADA
 62
     7
100
AcDbVertex
100
AcDb2dVertex
 10
-1002.500463262053
 20
224.8655342499324
 30
0.0
  0
VERTEX
  5
1D2
330
1C3
100
AcDbEntity
  8
PREDETERMINADA
 62
     7
100
AcDbVertex
100
AcDb2dVertex
 10
-1002.175002189068
 20
225.2207236202999
 30
0.0
  0
VERTEX
  5
1D3
330
1C3
100
AcDbEntity
  8
PREDETERMINADA
 62
     7
100
AcDbVertex
100
AcDb2dVertex
 10
-1001.847127103226
 20
225.5739533170024
 30
0.0
  0
VERTEX
  5
1D4
330
1C3
100
AcDbEntity
  8
PREDETERMINADA
 62
     7
100
AcDbVertex
100
AcDb2dVertex
 10
-1001.516823380096
 20
225.9252043747895
 30
0.0
  0
VERTEX
  5
1D5
330
1C3
100
AcDbEntity
  8
PREDETERMINADA
 62
     7
100
AcDbVertex
100
AcDb2dVertex
 10
-1001.209794334492
 20
226.247623987212
 30
0.0
  0
VERTEX
  5
1D6
330
1C3
100
AcDbEntity
  8
PREDETERMINADA
 62
     7
100
AcDbVertex
100
AcDb2dVertex
 10
-1000.900696991362
 20
226.5683177036896
 30
0.0
  0
VERTEX
  5
1D7
330
1C3
100
AcDbEntity
  8
PREDETERMINADA
 62
     7
100
AcDbVertex
100
AcDb2dVertex
 10
-1000.589544166461
 20
226.8872614365455
 30
0.0
  0
VERTEX
  5
1D8
330
1C3
100
AcDbEntity
  8
PREDETERMINADA
 62
     7
100
AcDbVertex
100
AcDb2dVertex
 10
-1000.276348675545
 20
227.2044310981026
 30
0.0
  0
VERTEX
  5
1D9
330
1C3
100
AcDbEntity
  8
PREDETERMINADA
 62
     7
100
AcDbVertex
100
AcDb2dVertex
 10
-999.9611233343699
 20
227.5198026006839
 30
0.0
  0
VERTEX
  5
1DA
330
1C3
100
AcDbEntity
  8
PREDETERMINADA
 62
     7
100
AcDbVertex
100
AcDb2dVertex
 10
-999.6438809586898
 20
227.8333518566124
 30
0.0
  0
VERTEX
  5
1DB
330
1C3
100
AcDbEntity
  8
PREDETERMINADA
 62
     7
100
AcDbVertex
100
AcDb2dVertex
 10
-999.32463436426
 20
228.1450547782111
 30
0.0
  0
VERTEX
  5
1DC
330
1C3
100
AcDbEntity
  8
PREDETERMINADA
 62
     7
100
AcDbVertex
100
AcDb2dVertex
 10
-999.0033963668361
 20
228.454887277803
 30
0.0
  0
VERTEX
  5
1DD
330
1C3
100
AcDbEntity
  8
PREDETERMINADA
 62
     7
100
AcDbVertex
100
AcDb2dVertex
 10
-998.6801797821729
 20
228.7628252677112
 30
0.0
  0
VERTEX
  5
1DE
330
1C3
100
AcDbEntity
  8
PREDETERMINADA
 62
     7
100
AcDbVertex
100
AcDb2dVertex
 10
-998.3549974260259
 20
229.0688446602586
 30
0.0
  0
VERTEX
  5
1DF
330
1C3
100
AcDbEntity
  8
PREDETERMINADA
 62
     7
100
AcDbVertex
100
AcDb2dVertex
 10
-998.0278621141503
 20
229.3729213677682
 30
0.0
  0
VERTEX
  5
1E0
330
1C3
100
AcDbEntity
  8
PREDETERMINADA
 62
     7
100
AcDbVertex
100
AcDb2dVertex
 10
-997.698786662301
 20
229.6750313025631
 30
0.0
  0
VERTEX
  5
1E1
330
1C3
100
AcDbEntity
  8
PREDETERMINADA
 62
     7
100
AcDbVertex
100
AcDb2dVertex
 10
-997.3677838862336
 20
229.9751503769662
 30
0.0
  0
VERTEX
  5
1E2
330
1C3
100
AcDbEntity
  8
PREDETERMINADA
 62
     7
100
AcDbVertex
100
AcDb2dVertex
 10
-997.0348666017031
 20
230.2732545033006
 30
0.0
  0
VERTEX
  5
1E3
330
1C3
100
AcDbEntity
  8
PREDETERMINADA
 62
     7
100
AcDbVertex
100
AcDb2dVertex
 10
-996.7000476244648
 20
230.5693195938892
 30
0.0
  0
VERTEX
  5
1E4
330
1C3
100
AcDbEntity
  8
PREDETERMINADA
 62
     7
100
AcDbVertex
100
AcDb2dVertex
 10
-996.3633397702738
 20
230.8633215610552
 30
0.0
  0
VERTEX
  5
1E5
330
1C3
100
AcDbEntity
  8
PREDETERMINADA
 62
     7
100
AcDbVertex
100
AcDb2dVertex
 10
-996.0247558548853
 20
231.1552363171213
 30
0.0
  0
VERTEX
  5
1E6
330
1C3
100
AcDbEntity
  8
PREDETERMINADA
 62
     7
100
AcDbVertex
100
AcDb2dVertex
 10
-995.6843086940546
 20
231.4450397744107
 30
0.0
  0
VERTEX
  5
1E7
330
1C3
100
AcDbEntity
  8
PREDETERMINADA
 62
     7
100
AcDbVertex
100
AcDb2dVertex
 10
-995.3420111035368
 20
231.7327078452464
 30
0.0
  0
VERTEX
  5
1E8
330
1C3
100
AcDbEntity
  8
PREDETERMINADA
 62
     7
100
AcDbVertex
100
AcDb2dVertex
 10
-994.9978758990874
 20
232.0182164419514
 30
0.0
  0
VERTEX
  5
1E9
330
1C3
100
AcDbEntity
  8
PREDETERMINADA
 62
     7
100
AcDbVertex
100
AcDb2dVertex
 10
-994.6519158964613
 20
232.3015414768486
 30
0.0
  0
VERTEX
  5
1EA
330
1C3
100
AcDbEntity
  8
PREDETERMINADA
 62
     7
100
AcDbVertex
100
AcDb2dVertex
 10
-994.3041439114136
 20
232.5826588622611
 30
0.0
  0
VERTEX
  5
1EB
330
1C3
100
AcDbEntity
  8
PREDETERMINADA
 62
     7
100
AcDbVertex
100
AcDb2dVertex
 10
-993.9545727596999
 20
232.8615445105119
 30
0.0
  0
VERTEX
  5
1EC
330
1C3
100
AcDbEntity
  8
PREDETERMINADA
 62
     7
100
AcDbVertex
100
AcDb2dVertex
 10
-993.6032152570749
 20
233.138174333924
 30
0.0
  0
VERTEX
  5
1ED
330
1C3
100
AcDbEntity
  8
PREDETERMINADA
 62
     7
100
AcDbVertex
100
AcDb2dVertex
 10
-993.2500842192943
 20
233.4125242448204
 30
0.0
  0
VERTEX
  5
1EE
330
1C3
100
AcDbEntity
  8
PREDETERMINADA
 62
     7
100
AcDbVertex
100
AcDb2dVertex
 10
-992.8951924621131
 20
233.684570155524
 30
0.0
  0
VERTEX
  5
1EF
330
1C3
100
AcDbEntity
  8
PREDETERMINADA
 62
     7
100
AcDbVertex
100
AcDb2dVertex
 10
-992.5385528012864
 20
233.954287978358
 30
0.0
  0
VERTEX
  5
1F0
330
1C3
100
AcDbEntity
  8
PREDETERMINADA
 62
     7
100
AcDbVertex
100
AcDb2dVertex
 10
-992.1801780525695
 20
234.2216536256453
 30
0.0
  0
VERTEX
  5
1F1
330
1C3
100
AcDbEntity
  8
PREDETERMINADA
 62
     7
100
AcDbVertex
100
AcDb2dVertex
 10
-991.8200810317177
 20
234.4866430097089
 30
0.0
  0
VERTEX
  5
1F2
330
1C3
100
AcDbEntity
  8
PREDETERMINADA
 62
     7
100
AcDbVertex
100
AcDb2dVertex
 10
-991.4582745544861
 20
234.7492320428718
 30
0.0
  0
VERTEX
  5
1F3
330
1C3
100
AcDbEntity
  8
PREDETERMINADA
 62
     7
100
AcDbVertex
100
AcDb2dVertex
 10
-991.09477143663
 20
235.0093966374571
 30
0.0
  0
VERTEX
  5
1F4
330
1C3
100
AcDbEntity
  8
PREDETERMINADA
 62
     7
100
AcDbVertex
100
AcDb2dVertex
 10
-990.7295844939044
 20
235.2671127057876
 30
0.0
  0
SEQEND
  5
1F5
330
1C3
100
AcDbEntity
  8
PREDETERMINADA
 62
     7
  0
LINE
  5
1F6
330
1F
100
AcDbEntity
  8
PREDETERMINADA
 62
     7
100
AcDbLine
 10
-990.7295844939044
 20
235.2671127057876
 30
0.0
 11
-999.123931714028
 21
249.4717452022363
 31
0.0
  0
LINE
  5
1F7
330
1F
100
AcDbEntity
  8
PREDETERMINADA
 62
     7
100
AcDbLine
 10
-999.123931714028
 20
249.4717452022363
 30
0.0
 11
-1002.998419490837
 21
247.182958258364
 31
0.0
  0
ARC
  5
1F8
330
1F
100
AcDbEntity
  8
PREDETERMINADA
 62
     7
100
AcDbCircle
 10
-994.8197795173072
 20
252.0161711866087
 30
0.0
 40
9.500005211913056
100
AcDbArc
 50
30.54267421182589
 51
210.581201094403
  0
LINE
  5
1F9
330
1F
100
AcDbEntity
  8
PREDETERMINADA
 62
     7
100
AcDbLine
 10
-986.6378914393717
 20
256.8438835337266
 30
0.0
 11
-990.5127672717362
 21
254.5558021454098
 31
0.0
  0
LINE
  5
1FA
330
1F
100
AcDbEntity
  8
PREDETERMINADA
 62
     7
100
AcDbLine
 10
-990.5127672717362
 20
254.5558021454098
 30
0.0
 11
-982.1202897738344
 21
240.3543093711825
 31
0.0
  0
POLYLINE
  5
1FB
330
1F
100
AcDbEntity
  8
PREDETERMINADA
 62
     7
100
AcDb2dPolyline
 66
     1
 10
0.0
 20
0.0
 30
0.0
  0
VERTEX
  5
1FC
330
1FB
100
AcDbEntity
  8
PREDETERMINADA
 62
     7
100
AcDbVertex
100
AcDb2dVertex
 10
-982.1202897738344
 20
240.3543093711825
 30
0.0
  0
VERTEX
  5
1FD
330
1FB
100
AcDbEntity
  8
PREDETERMINADA
 62
     7
100
AcDbVertex
100
AcDb2dVertex
 10
-981.7971552857967
 20
240.5104775821352
 30
0.0
  0
VERTEX
  5
1FE
330
1FB
100
AcDbEntity
  8
PREDETERMINADA
 62
     7
100
AcDbVertex
100
AcDb2dVertex
 10
-981.473128035715
 20
240.6646752673722
 30
0.0
  0
VERTEX
  5
1FF
330
1FB
100
AcDbEntity
  8
PREDETERMINADA
 62
     7
100
AcDbVertex
100
AcDb2dVertex
 10
-981.1482148448783
 20
240.8168898178442
 30
0.0
  0
VERTEX
  5
200
330
1FB
100
AcDbEntity
  8
PREDETERMINADA
 62
     7
100
AcDbVertex
100
AcDb2dVertex
 10
-980.8224225345757
 20
240.9671086245014
 30
0.0
  0
VERTEX
  5
201
330
1FB
100
AcDbEntity
  8
PREDETERMINADA
 62
     7
100
AcDbVertex
100
AcDb2dVertex
 10
-980.4957579260961
 20
241.1153190782946
 30
0.0
  0
VERTEX
  5
202
330
1FB
100
AcDbEntity
  8
PREDETERMINADA
 62
     7
100
AcDbVertex
100
AcDb2dVertex
 10
-980.1682278407288
 20
241.2615085701743
 30
0.0
  0
VERTEX
  5
203
330
1FB
100
AcDbEntity
  8
PREDETERMINADA
 62
     7
100
AcDbVertex
100
AcDb2dVertex
 10
-979.8398390997628
 20
241.405664491091
 30
0.0
  0
VERTEX
  5
204
330
1FB
100
AcDbEntity
  8
PREDETERMINADA
 62
     7
100
AcDbVertex
100
AcDb2dVertex
 10
-979.510598524487
 20
241.5477742319951
 30
0.0
  0
VERTEX
  5
205
330
1FB
100
AcDbEntity
  8
PREDETERMINADA
 62
     7
100
AcDbVertex
100
AcDb2dVertex
 10
-979.1805129361907
 20
241.6878251838372
 30
0.0
  0
VERTEX
  5
206
330
1FB
100
AcDbEntity
  8
PREDETERMINADA
 62
     7
100
AcDbVertex
100
AcDb2dVertex
 10
-978.8495891561628
 20
241.8258047375679
 30
0.0
  0
VERTEX
  5
207
330
1FB
100
AcDbEntity
  8
PREDETERMINADA
 62
     7
100
AcDbVertex
100
AcDb2dVertex
 10
-978.5178340056924
 20
241.9617002841377
 30
0.0
  0
VERTEX
  5
208
330
1FB
100
AcDbEntity
  8
PREDETERMINADA
 62
     7
100
AcDbVertex
100
AcDb2dVertex
 10
-978.1852543060685
 20
242.095499214497
 30
0.0
  0
VERTEX
  5
209
330
1FB
100
AcDbEntity
  8
PREDETERMINADA
 62
     7
100
AcDbVertex
100
AcDb2dVertex
 10
-977.8518568785802
 20
242.2271889195964
 30
0.0
  0
VERTEX
  5
20A
330
1FB
100
AcDbEntity
  8
PREDETERMINADA
 62
     7
100
AcDbVertex
100
AcDb2dVertex
 10
-977.5176485445166
 20
242.3567567903865
 30
0.0
  0
VERTEX
  5
20B
330
1FB
100
AcDbEntity
  8
PREDETERMINADA
 62
     7
100
AcDbVertex
100
AcDb2dVertex
 10
-977.1826361251668
 20
242.4841902178177
 30
0.0
  0
VERTEX
  5
20C
330
1FB
100
AcDbEntity
  8
PREDETERMINADA
 62
     7
100
AcDbVertex
100
AcDb2dVertex
 10
-976.8468264418198
 20
242.6094765928406
 30
0.0
  0
VERTEX
  5
20D
330
1FB
100
AcDbEntity
  8
PREDETERMINADA
 62
     7
100
AcDbVertex
100
AcDb2dVertex
 10
-976.3697130902443
 20
242.7832831737603
 30
0.0
  0
VERTEX
  5
20E
330
1FB
100
AcDbEntity
  8
PREDETERMINADA
 62
     7
100
AcDbVertex
100
AcDb2dVertex
 10
-975.891053928631
 20
242.9527724859026
 30
0.0
  0
VERTEX
  5
20F
330
1FB
100
AcDbEntity
  8
PREDETERMINADA
 62
     7
100
AcDbVertex
100
AcDb2dVertex
 10
-975.4108920938817
 20
243.1179620863354
 30
0.0
  0
VERTEX
  5
210
330
1FB
100
AcDbEntity
  8
PREDETERMINADA
 62
     7
100
AcDbVertex
100
AcDb2dVertex
 10
-974.9292707228981
 20
243.2788695321264
 30
0.0
  0
VERTEX
  5
211
330
1FB
100
AcDbEntity
  8
PREDETERMINADA
 62
     7
100
AcDbVertex
100
AcDb2dVertex
 10
-974.4462329525822
 20
243.4355123803437
 30
0.0
  0
VERTEX
  5
212
330
1FB
100
AcDbEntity
  8
PREDETERMINADA
 62
     7
100
AcDbVertex
100
AcDb2dVertex
 10
-973.961821919836
 20
243.587908188055
 30
0.0
  0
VERTEX
  5
213
330
1FB
100
AcDbEntity
  8
PREDETERMINADA
 62
     7
100
AcDbVertex
100
AcDb2dVertex
 10
-973.476080761561
 20
243.7360745123283
 30
0.0
  0
VERTEX
  5
214
330
1FB
100
AcDbEntity
  8
PREDETERMINADA
 62
     7
100
AcDbVertex
100
AcDb2dVertex
 10
-972.9890526146593
 20
243.8800289102314
 30
0.0
  0
VERTEX
  5
215
330
1FB
100
AcDbEntity
  8
PREDETERMINADA
 62
     7
100
AcDbVertex
100
AcDb2dVertex
 10
-972.5007806160327
 20
244.0197889388321
 30
0.0
  0
VERTEX
  5
216
330
1FB
100
AcDbEntity
  8
PREDETERMINADA
 62
     7
100
AcDbVertex
100
AcDb2dVertex
 10
-972.0113079025828
 20
244.1553721551984
 30
0.0
  0
VERTEX
  5
217
330
1FB
100
AcDbEntity
  8
PREDETERMINADA
 62
     7
100
AcDbVertex
100
AcDb2dVertex
 10
-971.5206776112118
 20
244.286796116398
 30
0.0
  0
VERTEX
  5
218
330
1FB
100
AcDbEntity
  8
PREDETERMINADA
 62
     7
100
AcDbVertex
100
AcDb2dVertex
 10
-971.0289328788213
 20
244.414078379499
 30
0.0
  0
VERTEX
  5
219
330
1FB
100
AcDbEntity
  8
PREDETERMINADA
 62
     7
100
AcDbVertex
100
AcDb2dVertex
 10
-970.5361168423132
 20
244.537236501569
 30
0.0
  0
VERTEX
  5
21A
330
1FB
100
AcDbEntity
  8
PREDETERMINADA
 62
     7
100
AcDbVertex
100
AcDb2dVertex
 10
-970.0422726385893
 20
244.656288039676
 30
0.0
  0
VERTEX
  5
21B
330
1FB
100
AcDbEntity
  8
PREDETERMINADA
 62
     7
100
AcDbVertex
100
AcDb2dVertex
 10
-969.5474434045516
 20
244.7712505508879
 30
0.0
  0
VERTEX
  5
21C
330
1FB
100
AcDbEntity
  8
PREDETERMINADA
 62
     7
100
AcDbVertex
100
AcDb2dVertex
 10
-969.0516722771019
 20
244.8821415922726
 30
0.0
  0
VERTEX
  5
21D
330
1FB
100
AcDbEntity
  8
PREDETERMINADA
 62
     7
100
AcDbVertex
100
AcDb2dVertex
 10
-968.5550023931421
 20
244.9889787208978
 30
0.0
  0
VERTEX
  5
21E
330
1FB
100
AcDbEntity
  8
PREDETERMINADA
 62
     7
100
AcDbVertex
100
AcDb2dVertex
 10
-968.0574768895738
 20
245.0917794938315
 30
0.0
  0
VERTEX
  5
21F
330
1FB
100
AcDbEntity
  8
PREDETERMINADA
 62
     7
100
AcDbVertex
100
AcDb2dVertex
 10
-967.5591389032991
 20
245.1905614681415
 30
0.0
  0
VERTEX
  5
220
330
1FB
100
AcDbEntity
  8
PREDETERMINADA
 62
     7
100
AcDbVertex
100
AcDb2dVertex
 10
-967.0600315712196
 20
245.2853422008957
 30
0.0
  0
VERTEX
  5
221
330
1FB
100
AcDbEntity
  8
PREDETERMINADA
 62
     7
100
AcDbVertex
100
AcDb2dVertex
 10
-966.5601980302374
 20
245.376139249162
 30
0.0
  0
VERTEX
  5
222
330
1FB
100
AcDbEntity
  8
PREDETERMINADA
 62
     7
100
AcDbVertex
100
AcDb2dVertex
 10
-966.0596814172542
 20
245.4629701700082
 30
0.0
  0
VERTEX
  5
223
330
1FB
100
AcDbEntity
  8
PREDETERMINADA
 62
     7
100
AcDbVertex
100
AcDb2dVertex
 10
-965.5585248691718
 20
245.5458525205023
 30
0.0
  0
VERTEX
  5
224
330
1FB
100
AcDbEntity
  8
PREDETERMINADA
 62
     7
100
AcDbVertex
100
AcDb2dVertex
 10
-965.0567715228923
 20
245.6248038577119
 30
0.0
  0
VERTEX
  5
225
330
1FB
100
AcDbEntity
  8
PREDETERMINADA
 62
     7
100
AcDbVertex
100
AcDb2dVertex
 10
-964.5544645153172
 20
245.6998417387051
 30
0.0
  0
VERTEX
  5
226
330
1FB
100
AcDbEntity
  8
PREDETERMINADA
 62
     7
100
AcDbVertex
100
AcDb2dVertex
 10
-964.0516469833487
 20
245.7709837205497
 30
0.0
  0
VERTEX
  5
227
330
1FB
100
AcDbEntity
  8
PREDETERMINADA
 62
     7
100
AcDbVertex
100
AcDb2dVertex
 10
-963.5483620638884
 20
245.8382473603136
 30
0.0
  0
VERTEX
  5
228
330
1FB
100
AcDbEntity
  8
PREDETERMINADA
 62
     7
100
AcDbVertex
100
AcDb2dVertex
 10
-963.044652893838
 20
245.9016502150646
 30
0.0
  0
VERTEX
  5
229
330
1FB
100
AcDbEntity
  8
PREDETERMINADA
 62
     7
100
AcDbVertex
100
AcDb2dVertex
 10
-962.5405626100996
 20
245.9612098418706
 30
0.0
  0
VERTEX
  5
22A
330
1FB
100
AcDbEntity
  8
PREDETERMINADA
 62
     7
100
AcDbVertex
100
AcDb2dVertex
 10
-962.0361343495751
 20
246.0169437977994
 30
0.0
  0
VERTEX
  5
22B
330
1FB
100
AcDbEntity
  8
PREDETERMINADA
 62
     7
100
AcDbVertex
100
AcDb2dVertex
 10
-961.5314112491664
 20
246.068869639919
 30
0.0
  0
VERTEX
  5
22C
330
1FB
100
AcDbEntity
  8
PREDETERMINADA
 62
     7
100
AcDbVertex
100
AcDb2dVertex
 10
-961.026436445775
 20
246.1170049252972
 30
0.0
  0
SEQEND
  5
22D
330
1FB
100
AcDbEntity
  8
PREDETERMINADA
 62
     7
  0
LINE
  5
22E
330
1F
100
AcDbEntity
  8
PREDETERMINADA
 62
     7
100
AcDbLine
 10
-961.026436445775
 20
246.1170049252972
 30
0.0
 11
-961.0264717235525
 21
262.616597976728
 31
0.0
  0
LINE
  5
22F
330
1F
100
AcDbEntity
  8
PREDETERMINADA
 62
     7
100
AcDbLine
 10
-961.0264717235525
 20
262.616597976728
 30
0.0
 11
-965.526469777983
 21
262.617338810061
 31
0.0
  0
ARC
  5
230
330
1F
100
AcDbEntity
  8
PREDETERMINADA
 62
     7
100
AcDbCircle
 10
-956.0264630072284
 20
262.6173206285775
 30
0.0
 40
9.50000677077208
100
AcDbArc
 50
359.9613864442701
 51
179.9998903451025
  0
LINE
  5
231
330
1F
100
AcDbEntity
  8
PREDETERMINADA
 62
     7
100
AcDbLine
 10
-946.5264583938442
 20
262.6109182545069
 30
0.0
 11
-951.0264564482748
 21
262.6124704767291
 31
0.0
  0
LINE
  5
232
330
1F
100
AcDbEntity
  8
PREDETERMINADA
 62
     7
100
AcDbLine
 10
-951.0264564482748
 20
262.6124704767291
 30
0.0
 11
-951.0264564482748
 21
246.1165815919641
 31
0.0
  0
POLYLINE
  5
233
330
1F
100
AcDbEntity
  8
PREDETERMINADA
 62
     7
100
AcDb2dPolyline
 66
     1
 10
0.0
 20
0.0
 30
0.0
  0
VERTEX
  5
234
330
233
100
AcDbEntity
  8
PREDETERMINADA
 62
     7
100
AcDbVertex
100
AcDb2dVertex
 10
-951.0264564482748
 20
246.1165815919641
 30
0.0
  0
VERTEX
  5
235
330
233
100
AcDbEntity
  8
PREDETERMINADA
 62
     7
100
AcDbVertex
100
AcDb2dVertex
 10
-950.5216835866913
 20
246.0684050687929
 30
0.0
  0
VERTEX
  5
236
330
233
100
AcDbEntity
  8
PREDETERMINADA
 62
     7
100
AcDbVertex
100
AcDb2dVertex
 10
-950.0171627833658
 20
246.0164415028778
 30
0.0
  0
VERTEX
  5
237
330
233
100
AcDbEntity
  8
PREDETERMINADA
 62
     7
100
AcDbVertex
100
AcDb2dVertex
 10
-949.5129371170643
 20
245.9606733371508
 30
0.0
  0
VERTEX
  5
238
330
233
100
AcDbEntity
  8
PREDETERMINADA
 62
     7
100
AcDbVertex
100
AcDb2dVertex
 10
-949.0090496665525
 20
245.901083014544
 30
0.0
  0
VERTEX
  5
239
330
233
100
AcDbEntity
  8
PREDETERMINADA
 62
     7
100
AcDbVertex
100
AcDb2dVertex
 10
-948.5055435105962
 20
245.8376529779896
 30
0.0
  0
VERTEX
  5
23A
330
233
100
AcDbEntity
  8
PREDETERMINADA
 62
     7
100
AcDbVertex
100
AcDb2dVertex
 10
-948.0024617279614
 20
245.7703656704198
 30
0.0
  0
VERTEX
  5
23B
330
233
100
AcDbEntity
  8
PREDETERMINADA
 62
     7
100
AcDbVertex
100
AcDb2dVertex
 10
-947.4998473974138
 20
245.6992035347666
 30
0.0
  0
VERTEX
  5
23C
330
233
100
AcDbEntity
  8
PREDETERMINADA
 62
     7
100
AcDbVertex
100
AcDb2dVertex
 10
-946.9977435977194
 20
245.6241490139622
 30
0.0
  0
VERTEX
  5
23D
330
233
100
AcDbEntity
  8
PREDETERMINADA
 62
     7
100
AcDbVertex
100
AcDb2dVertex
 10
-946.4961934076439
 20
245.5451845509388
 30
0.0
  0
VERTEX
  5
23E
330
233
100
AcDbEntity
  8
PREDETERMINADA
 62
     7
100
AcDbVertex
100
AcDb2dVertex
 10
-945.9952399059533
 20
245.4622925886283
 30
0.0
  0
VERTEX
  5
23F
330
233
100
AcDbEntity
  8
PREDETERMINADA
 62
     7
100
AcDbVertex
100
AcDb2dVertex
 10
-945.4949261714135
 20
245.3754555699631
 30
0.0
  0
VERTEX
  5
240
330
233
100
AcDbEntity
  8
PREDETERMINADA
 62
     7
100
AcDbVertex
100
AcDb2dVertex
 10
-944.9952952827903
 20
245.2846559378752
 30
0.0
  0
VERTEX
  5
241
330
233
100
AcDbEntity
  8
PREDETERMINADA
 62
     7
100
AcDbVertex
100
AcDb2dVertex
 10
-944.4963903188495
 20
245.1898761352968
 30
0.0
  0
VERTEX
  5
242
330
233
100
AcDbEntity
  8
PREDETERMINADA
 62
     7
100
AcDbVertex
100
AcDb2dVertex
 10
-943.9982543583569
 20
245.0910986051599
 30
0.0
  0
VERTEX
  5
243
330
233
100
AcDbEntity
  8
PREDETERMINADA
 62
     7
100
AcDbVertex
100
AcDb2dVertex
 10
-943.5009304800785
 20
244.9883057903968
 30
0.0
  0
VERTEX
  5
244
330
233
100
AcDbEntity
  8
PREDETERMINADA
 62
     7
100
AcDbVertex
100
AcDb2dVertex
 10
-943.0044617627802
 20
244.8814801339395
 30
0.0
  0
VERTEX
  5
245
330
233
100
AcDbEntity
  8
PREDETERMINADA
 62
     7
100
AcDbVertex
100
AcDb2dVertex
 10
-942.5088912852277
 20
244.7706040787202
 30
0.0
  0
VERTEX
  5
246
330
233
100
AcDbEntity
  8
PREDETERMINADA
 62
     7
100
AcDbVertex
100
AcDb2dVertex
 10
-942.0142621261871
 20
244.6556600676711
 30
0.0
  0
VERTEX
  5
247
330
233
100
AcDbEntity
  8
PREDETERMINADA
 62
     7
100
AcDbVertex
100
AcDb2dVertex
 10
-941.5206173644239
 20
244.5366305437242
 30
0.0
  0
VERTEX
  5
248
330
233
100
AcDbEntity
  8
PREDETERMINADA
 62
     7
100
AcDbVertex
100
AcDb2dVertex
 10
-941.028000078704
 20
244.4134979498117
 30
0.0
  0
VERTEX
  5
249
330
233
100
AcDbEntity
  8
PREDETERMINADA
 62
     7
100
AcDbVertex
100
AcDb2dVertex
 10
-940.5364533477936
 20
244.2862447288657
 30
0.0
  0
VERTEX
  5
24A
330
233
100
AcDbEntity
  8
PREDETERMINADA
 62
     7
100
AcDbVertex
100
AcDb2dVertex
 10
-940.0460202504582
 20
244.1548533238184
 30
0.0
  0
VERTEX
  5
24B
330
233
100
AcDbEntity
  8
PREDETERMINADA
 62
     7
100
AcDbVertex
100
AcDb2dVertex
 10
-939.5567438654641
 20
244.0193061776018
 30
0.0
  0
VERTEX
  5
24C
330
233
100
AcDbEntity
  8
PREDETERMINADA
 62
     7
100
AcDbVertex
100
AcDb2dVertex
 10
-939.0686672715767
 20
243.8795857331482
 30
0.0
  0
VERTEX
  5
24D
330
233
100
AcDbEntity
  8
PREDETERMINADA
 62
     7
100
AcDbVertex
100
AcDb2dVertex
 10
-938.5818335475622
 20
243.7356744333896
 30
0.0
  0
VERTEX
  5
24E
330
233
100
AcDbEntity
  8
PREDETERMINADA
 62
     7
100
AcDbVertex
100
AcDb2dVertex
 10
-938.0962857721861
 20
243.5875547212583
 30
0.0
  0
VERTEX
  5
24F
330
233
100
AcDbEntity
  8
PREDETERMINADA
 62
     7
100
AcDbVertex
100
AcDb2dVertex
 10
-937.6120670242144
 20
243.4352090396863
 30
0.0
  0
VERTEX
  5
250
330
233
100
AcDbEntity
  8
PREDETERMINADA
 62
     7
100
AcDbVertex
100
AcDb2dVertex
 10
-937.1292203824132
 20
243.2786198316057
 30
0.0
  0
VERTEX
  5
251
330
233
100
AcDbEntity
  8
PREDETERMINADA
 62
     7
100
AcDbVertex
100
AcDb2dVertex
 10
-936.6477889255482
 20
243.1177695399487
 30
0.0
  0
VERTEX
  5
252
330
233
100
AcDbEntity
  8
PREDETERMINADA
 62
     7
100
AcDbVertex
100
AcDb2dVertex
 10
-936.1678157323851
 20
242.9526406076474
 30
0.0
  0
VERTEX
  5
253
330
233
100
AcDbEntity
  8
PREDETERMINADA
 62
     7
100
AcDbVertex
100
AcDb2dVertex
 10
-935.6893438816899
 20
242.783215477634
 30
0.0
  0
VERTEX
  5
254
330
233
100
AcDbEntity
  8
PREDETERMINADA
 62
     7
100
AcDbVertex
100
AcDb2dVertex
 10
-935.2124164522284
 20
242.6094765928406
 30
0.0
  0
VERTEX
  5
255
330
233
100
AcDbEntity
  8
PREDETERMINADA
 62
     7
100
AcDbVertex
100
AcDb2dVertex
 10
-934.8766006624495
 20
242.4841900541757
 30
0.0
  0
VERTEX
  5
256
330
233
100
AcDbEntity
  8
PREDETERMINADA
 62
     7
100
AcDbVertex
100
AcDb2dVertex
 10
-934.5415818782857
 20
242.3567554812502
 30
0.0
  0
VERTEX
  5
257
330
233
100
AcDbEntity
  8
PREDETERMINADA
 62
     7
100
AcDbVertex
100
AcDb2dVertex
 10
-934.207365008998
 20
242.2271845012615
 30
0.0
  0
VERTEX
  5
258
330
233
100
AcDbEntity
  8
PREDETERMINADA
 62
     7
100
AcDbVertex
100
AcDb2dVertex
 10
-933.8739549638475
 20
242.0954887414068
 30
0.0
  0
VERTEX
  5
259
330
233
100
AcDbEntity
  8
PREDETERMINADA
 62
     7
100
AcDbVertex
100
AcDb2dVertex
 10
-933.5413566520954
 20
241.9616798288833
 30
0.0
  0
VERTEX
  5
25A
330
233
100
AcDbEntity
  8
PREDETERMINADA
 62
     7
100
AcDbVertex
100
AcDb2dVertex
 10
-933.2095749830023
 20
241.8257693908883
 30
0.0
  0
VERTEX
  5
25B
330
233
100
AcDbEntity
  8
PREDETERMINADA
 62
     7
100
AcDbVertex
100
AcDb2dVertex
 10
-932.8786148658296
 20
241.6877690546191
 30
0.0
  0
VERTEX
  5
25C
330
233
100
AcDbEntity
  8
PREDETERMINADA
 62
     7
100
AcDbVertex
100
AcDb2dVertex
 10
-932.5484812098384
 20
241.5476904472729
 30
0.0
  0
VERTEX
  5
25D
330
233
100
AcDbEntity
  8
PREDETERMINADA
 62
     7
100
AcDbVertex
100
AcDb2dVertex
 10
-932.2191789242897
 20
241.4055451960471
 30
0.0
  0
VERTEX
  5
25E
330
233
100
AcDbEntity
  8
PREDETERMINADA
 62
     7
100
AcDbVertex
100
AcDb2dVertex
 10
-931.8907129184446
 20
241.2613449281388
 30
0.0
  0
VERTEX
  5
25F
330
233
100
AcDbEntity
  8
PREDETERMINADA
 62
     7
100
AcDbVertex
100
AcDb2dVertex
 10
-931.5630881015642
 20
241.1151012707453
 30
0.0
  0
VERTEX
  5
260
330
233
100
AcDbEntity
  8
PREDETERMINADA
 62
     7
100
AcDbVertex
100
AcDb2dVertex
 10
-931.2363093829094
 20
240.966825851064
 30
0.0
  0
VERTEX
  5
261
330
233
100
AcDbEntity
  8
PREDETERMINADA
 62
     7
100
AcDbVertex
100
AcDb2dVertex
 10
-930.9103816717416
 20
240.816530296292
 30
0.0
  0
VERTEX
  5
262
330
233
100
AcDbEntity
  8
PREDETERMINADA
 62
     7
100
AcDbVertex
100
AcDb2dVertex
 10
-930.5853098773214
 20
240.6642262336266
 30
0.0
  0
VERTEX
  5
263
330
233
100
AcDbEntity
  8
PREDETERMINADA
 62
     7
100
AcDbVertex
100
AcDb2dVertex
 10
-930.2610989089103
 20
240.5099252902652
 30
0.0
  0
VERTEX
  5
264
330
233
100
AcDbEntity
  8
PREDETERMINADA
 62
     7
100
AcDbVertex
100
AcDb2dVertex
 10
-929.937753675769
 20
240.3536390934048
 30
0.0
  0
SEQEND
  5
265
330
233
100
AcDbEntity
  8
PREDETERMINADA
 62
     7
  0
LINE
  5
266
330
1F
100
AcDbEntity
  8
PREDETERMINADA
 62
     7
100
AcDbLine
 10
-929.937753675769
 20
240.3536390934048
 30
0.0
 11
-921.5441120112009
 21
254.5586243676312
 31
0.0
  0
LINE
  5
267
330
1F
100
AcDbEntity
  8
PREDETERMINADA
 62
     7
100
AcDbLine
 10
-921.5441120112009
 20
254.5586243676312
 30
0.0
 11
-925.4180000657877
 21
256.848434367059
 31
0.0
  0
ARC
  5
268
330
1F
100
AcDbEntity
  8
PREDETERMINADA
 62
     7
100
AcDbCircle
 10
-917.2390084524651
 20
252.0158029392996
 30
0.0
 40
9.50001212248543
100
AcDbArc
 50
329.3840789971393
 51
149.4228971703869
  0
LINE
  5
269
330
1F
100
AcDbEntity
  8
PREDETERMINADA
 62
     7
100
AcDbLine
 10
-909.0632928476541
 20
247.177631313921
 30
0.0
 11
-912.9367575689081
 21
249.4681115911261
 31
0.0
  0
LINE
  5
26A
330
1F
100
AcDbEntity
  8
PREDETERMINADA
 62
     7
100
AcDbLine
 10
-912.9367575689081
 20
249.4681115911261
 30
0.0
 11
-921.328176733477
 21
235.2660543724546
 31
0.0
  0
POLYLINE
  5
26B
330
1F
100
AcDbEntity
  8
PREDETERMINADA
 62
     7
100
AcDb2dPolyline
 66
     1
 10
0.0
 20
0.0
 30
0.0
  0
VERTEX
  5
26C
330
26B
100
AcDbEntity
  8
PREDETERMINADA
 62
     7
100
AcDbVertex
100
AcDb2dVertex
 10
-921.328176733477
 20
235.2660543724546
 30
0.0
  0
VERTEX
  5
26D
330
26B
100
AcDbEntity
  8
PREDETERMINADA
 62
     7
100
AcDbVertex
100
AcDb2dVertex
 10
-920.9630393968966
 20
235.0083618653474
 30
0.0
  0
VERTEX
  5
26E
330
26B
100
AcDbEntity
  8
PREDETERMINADA
 62
     7
100
AcDbVertex
100
AcDb2dVertex
 10
-920.5995858658071
 20
234.7482216394298
 30
0.0
  0
VERTEX
  5
26F
330
26B
100
AcDbEntity
  8
PREDETERMINADA
 62
     7
100
AcDbVertex
100
AcDb2dVertex
 10
-920.2378289365847
 20
234.4856577630001
 30
0.0
  0
VERTEX
  5
270
330
26B
100
AcDbEntity
  8
PREDETERMINADA
 62
     7
100
AcDbVertex
100
AcDb2dVertex
 10
-919.8777814056061
 20
234.2206943043566
 30
0.0
  0
VERTEX
  5
271
330
26B
100
AcDbEntity
  8
PREDETERMINADA
 62
     7
100
AcDbVertex
100
AcDb2dVertex
 10
-919.5194560692479
 20
233.9533553317977
 30
0.0
  0
VERTEX
  5
272
330
26B
100
AcDbEntity
  8
PREDETERMINADA
 62
     7
100
AcDbVertex
100
AcDb2dVertex
 10
-919.1628657238866
 20
233.6836649136217
 30
0.0
  0
VERTEX
  5
273
330
26B
100
AcDbEntity
  8
PREDETERMINADA
 62
     7
100
AcDbVertex
100
AcDb2dVertex
 10
-918.8080231658987
 20
233.4116471181269
 30
0.0
  0
VERTEX
  5
274
330
26B
100
AcDbEntity
  8
PREDETERMINADA
 62
     7
100
AcDbVertex
100
AcDb2dVertex
 10
-918.4549411916607
 20
233.1373260136118
 30
0.0
  0
VERTEX
  5
275
330
26B
100
AcDbEntity
  8
PREDETERMINADA
 62
     7
100
AcDbVertex
100
AcDb2dVertex
 10
-918.1036325975493
 20
232.8607256683745
 30
0.0
  0
VERTEX
  5
276
330
26B
100
AcDbEntity
  8
PREDETERMINADA
 62
     7
100
AcDbVertex
100
AcDb2dVertex
 10
-917.7541101799409
 20
232.5818701507135
 30
0.0
  0
VERTEX
  5
277
330
26B
100
AcDbEntity
  8
PREDETERMINADA
 62
     7
100
AcDbVertex
100
AcDb2dVertex
 10
-917.406386735212
 20
232.3007835289271
 30
0.0
  0
VERTEX
  5
278
330
26B
100
AcDbEntity
  8
PREDETERMINADA
 62
     7
100
AcDbVertex
100
AcDb2dVertex
 10
-917.0604750597394
 20
232.0174898713136
 30
0.0
  0
VERTEX
  5
279
330
26B
100
AcDbEntity
  8
PREDETERMINADA
 62
     7
100
AcDbVertex
100
AcDb2dVertex
 10
-916.7163879498994
 20
231.7320132461713
 30
0.0
  0
VERTEX
  5
27A
330
26B
100
AcDbEntity
  8
PREDETERMINADA
 62
     7
100
AcDbVertex
100
AcDb2dVertex
 10
-916.3741382020686
 20
231.4443777217986
 30
0.0
  0
VERTEX
  5
27B
330
26B
100
AcDbEntity
  8
PREDETERMINADA
 62
     7
100
AcDbVertex
100
AcDb2dVertex
 10
-916.0337386126236
 20
231.1546073664938
 30
0.0
  0
VERTEX
  5
27C
330
26B
100
AcDbEntity
  8
PREDETERMINADA
 62
     7
100
AcDbVertex
100
AcDb2dVertex
 10
-915.6952019779409
 20
230.8627262485553
 30
0.0
  0
VERTEX
  5
27D
330
26B
100
AcDbEntity
  8
PREDETERMINADA
 62
     7
100
AcDbVertex
100
AcDb2dVertex
 10
-915.3585410943971
 20
230.5687584362814
 30
0.0
  0
VERTEX
  5
27E
330
26B
100
AcDbEntity
  8
PREDETERMINADA
 62
     7
100
AcDbVertex
100
AcDb2dVertex
 10
-915.0237687583685
 20
230.2727279979703
 30
0.0
  0
VERTEX
  5
27F
330
26B
100
AcDbEntity
  8
PREDETERMINADA
 62
     7
100
AcDbVertex
100
AcDb2dVertex
 10
-914.690897766232
 20
229.9746590019206
 30
0.0
  0
VERTEX
  5
280
330
26B
100
AcDbEntity
  8
PREDETERMINADA
 62
     7
100
AcDbVertex
100
AcDb2dVertex
 10
-914.359940914364
 20
229.6745755164304
 30
0.0
  0
VERTEX
  5
281
330
26B
100
AcDbEntity
  8
PREDETERMINADA
 62
     7
100
AcDbVertex
100
AcDb2dVertex
 10
-914.030910999141
 20
229.3725016097981
 30
0.0
  0
VERTEX
  5
282
330
26B
100
AcDbEntity
  8
PREDETERMINADA
 62
     7
100
AcDbVertex
100
AcDb2dVertex
 10
-913.7038208169397
 20
229.0684613503221
 30
0.0
  0
VERTEX
  5
283
330
26B
100
AcDbEntity
  8
PREDETERMINADA
 62
     7
100
AcDbVertex
100
AcDb2dVertex
 10
-913.3786831641364
 20
228.7624788063007
 30
0.0
  0
VERTEX
  5
284
330
26B
100
AcDbEntity
  8
PREDETERMINADA
 62
     7
100
AcDbVertex
100
AcDb2dVertex
 10
-913.0555108371077
 20
228.4545780460322
 30
0.0
  0
VERTEX
  5
285
330
26B
100
AcDbEntity
  8
PREDETERMINADA
 62
     7
100
AcDbVertex
100
AcDb2dVertex
 10
-912.7343166322303
 20
228.144783137815
 30
0.0
  0
VERTEX
  5
286
330
26B
100
AcDbEntity
  8
PREDETERMINADA
 62
     7
100
AcDbVertex
100
AcDb2dVertex
 10
-912.4151133458805
 20
227.8331181499474
 30
0.0
  0
VERTEX
  5
287
330
26B
100
AcDbEntity
  8
PREDETERMINADA
 62
     7
100
AcDbVertex
100
AcDb2dVertex
 10
-912.097913774435
 20
227.5196071507276
 30
0.0
  0
VERTEX
  5
288
330
26B
100
AcDbEntity
  8
PREDETERMINADA
 62
     7
100
AcDbVertex
100
AcDb2dVertex
 10
-911.7827307142704
 20
227.2042742084541
 30
0.0
  0
VERTEX
  5
289
330
26B
100
AcDbEntity
  8
PREDETERMINADA
 62
     7
100
AcDbVertex
100
AcDb2dVertex
 10
-911.4695769617632
 20
226.8871433914253
 30
0.0
  0
VERTEX
  5
28A
330
26B
100
AcDbEntity
  8
PREDETERMINADA
 62
     7
100
AcDbVertex
100
AcDb2dVertex
 10
-911.1584653132899
 20
226.5682387679393
 30
0.0
  0
VERTEX
  5
28B
330
26B
100
AcDbEntity
  8
PREDETERMINADA
 62
     7
100
AcDbVertex
100
AcDb2dVertex
 10
-910.849408565227
 20
226.2475844062946
 30
0.0
  0
VERTEX
  5
28C
330
26B
100
AcDbEntity
  8
PREDETERMINADA
 62
     7
100
AcDbVertex
100
AcDb2dVertex
 10
-910.5424195139512
 20
225.9252043747895
 30
0.0
  0
VERTEX
  5
28D
330
26B
100
AcDbEntity
  8
PREDETERMINADA
 62
     7
100
AcDbVertex
100
AcDb2dVertex
 10
-910.212115274057
 20
225.5739531361349
 30
0.0
  0
VERTEX
  5
28E
330
26B
100
AcDbEntity
  8
PREDETERMINADA
 62
     7
100
AcDbVertex
100
AcDb2dVertex
 10
-909.8842382245107
 20
225.2207221733598
 30
0.0
  0
VERTEX
  5
28F
330
26B
100
AcDbEntity
  8
PREDETERMINADA
 62
     7
100
AcDbVertex
100
AcDb2dVertex
 10
-909.5587731207645
 20
224.8655293665096
 30
0.0
  0
VERTEX
  5
290
330
26B
100
AcDbEntity
  8
PREDETERMINADA
 62
     7
100
AcDbVertex
100
AcDb2dVertex
 10
-909.2357047182709
 20
224.5083925956299
 30
0.0
  0
VERTEX
  5
291
330
26B
100
AcDbEntity
  8
PREDETERMINADA
 62
     7
100
AcDbVertex
100
AcDb2dVertex
 10
-908.9150177724824
 20
224.1493297407663
 30
0.0
  0
VERTEX
  5
292
330
26B
100
AcDbEntity
  8
PREDETERMINADA
 62
     7
100
AcDbVertex
100
AcDb2dVertex
 10
-908.5966970388515
 20
223.7883586819645
 30
0.0
  0
VERTEX
  5
293
330
26B
100
AcDbEntity
  8
PREDETERMINADA
 62
     7
100
AcDbVertex
100
AcDb2dVertex
 10
-908.2807272728307
 20
223.4254972992698
 30
0.0
  0
VERTEX
  5
294
330
26B
100
AcDbEntity
  8
PREDETERMINADA
 62
     7
100
AcDbVertex
100
AcDb2dVertex
 10
-907.9670932298727
 20
223.060763472728
 30
0.0
  0
VERTEX
  5
295
330
26B
100
AcDbEntity
  8
PREDETERMINADA
 62
     7
100
AcDbVertex
100
AcDb2dVertex
 10
-907.6557796654295
 20
222.6941750823846
 30
0.0
  0
VERTEX
  5
296
330
26B
100
AcDbEntity
  8
PREDETERMINADA
 62
     7
100
AcDbVertex
100
AcDb2dVertex
 10
-907.3467713349539
 20
222.325750008285
 30
0.0
  0
VERTEX
  5
297
330
26B
100
AcDbEntity
  8
PREDETERMINADA
 62
     7
100
AcDbVertex
100
AcDb2dVertex
 10
-907.0400529938984
 20
221.955506130475
 30
0.0
  0
VERTEX
  5
298
330
26B
100
AcDbEntity
  8
PREDETERMINADA
 62
     7
100
AcDbVertex
100
AcDb2dVertex
 10
-906.7356093977153
 20
221.5834613290001
 30
0.0
  0
VERTEX
  5
299
330
26B
100
AcDbEntity
  8
PREDETERMINADA
 62
     7
100
AcDbVertex
100
AcDb2dVertex
 10
-906.4334253018571
 20
221.2096334839058
 30
0.0
  0
VERTEX
  5
29A
330
26B
100
AcDbEntity
  8
PREDETERMINADA
 62
     7
100
AcDbVertex
100
AcDb2dVertex
 10
-906.1334854617764
 20
220.8340404752378
 30
0.0
  0
VERTEX
  5
29B
330
26B
100
AcDbEntity
  8
PREDETERMINADA
 62
     7
100
AcDbVertex
100
AcDb2dVertex
 10
-905.8357746329257
 20
220.4567001830415
 30
0.0
  0
VERTEX
  5
29C
330
26B
100
AcDbEntity
  8
PREDETERMINADA
 62
     7
100
AcDbVertex
100
AcDb2dVertex
 10
-905.5402775707573
 20
220.0776304873626
 30
0.0
  0
SEQEND
  5
29D
330
26B
100
AcDbEntity
  8
PREDETERMINADA
 62
     7
  0
LINE
  5
29E
330
1F
100
AcDbEntity
  8
PREDETERMINADA
 62
     7
100
AcDbLine
 10
-905.5402775707573
 20
220.0776304873626
 30
0.0
 11
-891.944645351934
 21
229.426065207248
 31
0.0
  0
LINE
  5
29F
330
1F
100
AcDbEntity
  8
PREDETERMINADA
 62
     7
100
AcDbLine
 10
-891.944645351934
 20
229.426065207248
 30
0.0
 11
-894.493782295741
 21
233.134429928543
 31
0.0
  0
ARC
  5
2A0
330
1F
100
AcDbEntity
  8
PREDETERMINADA
 62
     7
100
AcDbCircle
 10
-889.1109683049344
 20
225.3065794812095
 30
0.0
 40
9.499996267654083
100
AcDbArc
 50
304.4754935214243
 51
124.5143219194895
  0
LINE
  5
2A1
330
1F
100
AcDbEntity
  8
PREDETERMINADA
 62
     7
100
AcDbLine
 10
-883.733460353987
 20
217.4750829880136
 30
0.0
 11
-886.2819270200166
 21
221.1839063204195
 31
0.0
  0
LINE
  5
2A2
330
1F
100
AcDbEntity
  8
PREDETERMINADA
 62
     7
100
AcDbLine
 10
-886.2819270200166
 20
221.1839063204195
 30
0.0
 11
-899.8743136832851
 21
211.8371296560894
 31
0.0
  0
POLYLINE
  5
2A3
330
1F
100
AcDbEntity
  8
PREDETERMINADA
 62
     7
100
AcDb2dPolyline
 66
     1
 10
0.0
 20
0.0
 30
0.0
  0
VERTEX
  5
2A4
330
2A3
100
AcDbEntity
  8
PREDETERMINADA
 62
     7
100
AcDbVertex
100
AcDb2dVertex
 10
-899.8743136832851
 20
211.8371296560894
 30
0.0
  0
VERTEX
  5
2A5
330
2A3
100
AcDbEntity
  8
PREDETERMINADA
 62
     7
100
AcDbVertex
100
AcDb2dVertex
 10
-899.549059183609
 20
211.3016754243761
 30
0.0
  0
VERTEX
  5
2A6
330
2A3
100
AcDbEntity
  8
PREDETERMINADA
 62
     7
100
AcDbVertex
100
AcDb2dVertex
 10
-899.227027206871
 20
210.7640925952005
 30
0.0
  0
VERTEX
  5
2A7
330
2A3
100
AcDbEntity
  8
PREDETERMINADA
 62
     7
100
AcDbVertex
100
AcDb2dVertex
 10
-898.9081865211275
 20
210.2244240147842
 30
0.0
  0
VERTEX
  5
2A8
330
2A3
100
AcDbEntity
  8
PREDETERMINADA
 62
     7
100
AcDbVertex
100
AcDb2dVertex
 10
-898.5925058944347
 20
209.6827125293494
 30
0.0
  0
VERTEX
  5
2A9
330
2A3
100
AcDbEntity
  8
PREDETERMINADA
 62
     7
100
AcDbVertex
100
AcDb2dVertex
 10
-898.2799540948488
 20
209.1390009851179
 30
0.0
  0
VERTEX
  5
2AA
330
2A3
100
AcDbEntity
  8
PREDETERMINADA
 62
     7
100
AcDbVertex
100
AcDb2dVertex
 10
-897.9704998904261
 20
208.5933322283116
 30
0.0
  0
VERTEX
  5
2AB
330
2A3
100
AcDbEntity
  8
PREDETERMINADA
 62
     7
100
AcDbVertex
100
AcDb2dVertex
 10
-897.6641120492229
 20
208.0457491051524
 30
0.0
  0
VERTEX
  5
2AC
330
2A3
100
AcDbEntity
  8
PREDETERMINADA
 62
     7
100
AcDbVertex
100
AcDb2dVertex
 10
-897.3607593392954
 20
207.4962944618622
 30
0.0
  0
VERTEX
  5
2AD
330
2A3
100
AcDbEntity
  8
PREDETERMINADA
 62
     7
100
AcDbVertex
100
AcDb2dVertex
 10
-897.0604105286999
 20
206.945011144663
 30
0.0
  0
VERTEX
  5
2AE
330
2A3
100
AcDbEntity
  8
PREDETERMINADA
 62
     7
100
AcDbVertex
100
AcDb2dVertex
 10
-896.7630343854925
 20
206.3919419997766
 30
0.0
  0
VERTEX
  5
2AF
330
2A3
100
AcDbEntity
  8
PREDETERMINADA
 62
     7
100
AcDbVertex
100
AcDb2dVertex
 10
-896.4685996777296
 20
205.8371298734251
 30
0.0
  0
VERTEX
  5
2B0
330
2A3
100
AcDbEntity
  8
PREDETERMINADA
 62
     7
100
AcDbVertex
100
AcDb2dVertex
 10
-896.1770751734672
 20
205.2806176118302
 30
0.0
  0
VERTEX
  5
2B1
330
2A3
100
AcDbEntity
  8
PREDETERMINADA
 62
     7
100
AcDbVertex
100
AcDb2dVertex
 10
-895.8884296407618
 20
204.7224480612139
 30
0.0
  0
VERTEX
  5
2B2
330
2A3
100
AcDbEntity
  8
PREDETERMINADA
 62
     7
100
AcDbVertex
100
AcDb2dVertex
 10
-895.6026318476695
 20
204.1626640677981
 30
0.0
  0
VERTEX
  5
2B3
330
2A3
100
AcDbEntity
  8
PREDETERMINADA
 62
     7
100
AcDbVertex
100
AcDb2dVertex
 10
-895.3196505622466
 20
203.6013084778048
 30
0.0
  0
VERTEX
  5
2B4
330
2A3
100
AcDbEntity
  8
PREDETERMINADA
 62
     7
100
AcDbVertex
100
AcDb2dVertex
 10
-895.0394545525494
 20
203.0384241374558
 30
0.0
  0
VERTEX
  5
2B5
330
2A3
100
AcDbEntity
  8
PREDETERMINADA
 62
     7
100
AcDbVertex
100
AcDb2dVertex
 10
-894.762012586634
 20
202.4740538929731
 30
0.0
  0
VERTEX
  5
2B6
330
2A3
100
AcDbEntity
  8
PREDETERMINADA
 62
     7
100
AcDbVertex
100
AcDb2dVertex
 10
-894.4872934325567
 20
201.9082405905785
 30
0.0
  0
VERTEX
  5
2B7
330
2A3
100
AcDbEntity
  8
PREDETERMINADA
 62
     7
100
AcDbVertex
100
AcDb2dVertex
 10
-894.2152658583738
 20
201.341027076494
 30
0.0
  0
VERTEX
  5
2B8
330
2A3
100
AcDbEntity
  8
PREDETERMINADA
 62
     7
100
AcDbVertex
100
AcDb2dVertex
 10
-893.9458986321413
 20
200.7724561969416
 30
0.0
  0
VERTEX
  5
2B9
330
2A3
100
AcDbEntity
  8
PREDETERMINADA
 62
     7
100
AcDbVertex
100
AcDb2dVertex
 10
-893.6791605219157
 20
200.202570798143
 30
0.0
  0
VERTEX
  5
2BA
330
2A3
100
AcDbEntity
  8
PREDETERMINADA
 62
     7
100
AcDbVertex
100
AcDb2dVertex
 10
-893.4150202957533
 20
199.6314137263203
 30
0.0
  0
VERTEX
  5
2BB
330
2A3
100
AcDbEntity
  8
PREDETERMINADA
 62
     7
100
AcDbVertex
100
AcDb2dVertex
 10
-893.1534467217101
 20
199.0590278276953
 30
0.0
  0
VERTEX
  5
2BC
330
2A3
100
AcDbEntity
  8
PREDETERMINADA
 62
     7
100
AcDbVertex
100
AcDb2dVertex
 10
-892.8944085678424
 20
198.4854559484899
 30
0.0
  0
VERTEX
  5
2BD
330
2A3
100
AcDbEntity
  8
PREDETERMINADA
 62
     7
100
AcDbVertex
100
AcDb2dVertex
 10
-892.6378746022066
 20
197.9107409349261
 30
0.0
  0
VERTEX
  5
2BE
330
2A3
100
AcDbEntity
  8
PREDETERMINADA
 62
     7
100
AcDbVertex
100
AcDb2dVertex
 10
-892.3838135928588
 20
197.3349256332258
 30
0.0
  0
VERTEX
  5
2BF
330
2A3
100
AcDbEntity
  8
PREDETERMINADA
 62
     7
100
AcDbVertex
100
AcDb2dVertex
 10
-892.1321943078553
 20
196.7580528896108
 30
0.0
  0
VERTEX
  5
2C0
330
2A3
100
AcDbEntity
  8
PREDETERMINADA
 62
     7
100
AcDbVertex
100
AcDb2dVertex
 10
-891.8829855152524
 20
196.1801655503032
 30
0.0
  0
VERTEX
  5
2C1
330
2A3
100
AcDbEntity
  8
PREDETERMINADA
 62
     7
100
AcDbVertex
100
AcDb2dVertex
 10
-891.636155983106
 20
195.6013064615248
 30
0.0
  0
VERTEX
  5
2C2
330
2A3
100
AcDbEntity
  8
PREDETERMINADA
 62
     7
100
AcDbVertex
100
AcDb2dVertex
 10
-891.3916744794728
 20
195.0215184694975
 30
0.0
  0
VERTEX
  5
2C3
330
2A3
100
AcDbEntity
  8
PREDETERMINADA
 62
     7
100
AcDbVertex
100
AcDb2dVertex
 10
-891.1495097724089
 20
194.4408444204432
 30
0.0
  0
VERTEX
  5
2C4
330
2A3
100
AcDbEntity
  8
PREDETERMINADA
 62
     7
100
AcDbVertex
100
AcDb2dVertex
 10
-890.9096306299705
 20
193.8593271605839
 30
0.0
  0
VERTEX
  5
2C5
330
2A3
100
AcDbEntity
  8
PREDETERMINADA
 62
     7
100
AcDbVertex
100
AcDb2dVertex
 10
-890.5545950745038
 20
192.9869474038576
 30
0.0
  0
VERTEX
  5
2C6
330
2A3
100
AcDbEntity
  8
PREDETERMINADA
 62
     7
100
AcDbVertex
100
AcDb2dVertex
 10
-890.2046395190355
 20
192.1127949387982
 30
0.0
  0
SEQEND
  5
2C7
330
2A3
100
AcDbEntity
  8
PREDETERMINADA
 62
     7
  0
LINE
  5
2C8
330
1F
100
AcDbEntity
  8
PREDETERMINADA
 62
     7
100
AcDbLine
 10
-890.2046395190355
 20
192.1127949387982
 30
0.0
 11
-890.204145630147
 21
192.1115249387985
 31
0.0
  0
LINE
  5
2C9
330
1F
100
AcDbEntity
  8
PREDETERMINADA
 62
     7
100
AcDbLine
 10
-890.204145630147
 20
192.1115249387985
 30
0.0
 11
-874.9212478561901
 21
197.9115443817932
 31
0.0
  0
LINE
  5
2CA
330
1F
100
AcDbEntity
  8
PREDETERMINADA
 62
     7
100
AcDbLine
 10
-874.9212478561901
 20
197.9115443817932
 30
0.0
 11
-876.5170734113464
 21
202.1190896585192
 31
0.0
  0
ARC
  5
2CB
330
1F
100
AcDbEntity
  8
PREDETERMINADA
 62
     7
100
AcDbCircle
 10
-873.1466236121759
 20
193.2370786836633
 30
0.0
 40
9.500002674009567
100
AcDbArc
 50
290.741844868501
 51
110.7802123101058
  0
LINE
  5
2CC
330
1F
100
AcDbEntity
  8
PREDETERMINADA
 62
     7
100
AcDbLine
 10
-869.7821223019193
 20
184.3528127185163
 30
0.0
 11
-871.3772423015206
 21
188.5606049396862
 31
0.0
  0
LINE
  5
2CD
330
1F
100
AcDbEntity
  8
PREDETERMINADA
 62
     7
100
AcDbLine
 10
-871.3772423015206
 20
188.5606049396862
 30
0.0
 11
-886.8000517421091
 21
182.7081274411495
 31
0.0
  0
ARC
  5
2CE
330
1F
100
AcDbEntity
  8
PREDETERMINADA
 62
     7
100
AcDbCircle
 10
-1034.670769449615
 20
134.1598229131636
 30
0.0
 40
155.6363936483844
100
AcDbArc
 50
10.07808907341391
 51
18.17582944250033
  0
LINE
  5
2CF
330
1F
100
AcDbEntity
  8
PREDETERMINADA
 62
     7
100
AcDbLine
 10
-881.4358186878944
 20
161.3946699464781
 30
0.0
 11
-881.4355011878947
 21
161.3927649464786
 31
0.0
  0
POLYLINE
  5
2D0
330
1F
100
AcDbEntity
  8
PREDETERMINADA
 62
     1
100
AcDb2dPolyline
 66
     1
 10
0.0
 20
0.0
 30
0.0
 70
     1
  0
VERTEX
  5
2D1
330
2D0
100
AcDbEntity
  8
PREDETERMINADA
 62
     1
100
AcDbVertex
100
AcDb2dVertex
 10
-762.2487057155934
 20
58.56760705762891
 30
0.0
  0
VERTEX
  5
2D2
330
2D0
100
AcDbEntity
  8
PREDETERMINADA
 62
     1
100
AcDbVertex
100
AcDb2dVertex
 10
-763.5185998819427
 20
59.36597844631793
 30
0.0
  0
VERTEX
  5
2D3
330
2D0
100
AcDbEntity
  8
PREDETERMINADA
 62
     1
100
AcDbVertex
100
AcDb2dVertex
 10
-768.8409229361678
 20
50.89998205954593
 30
0.0
  0
VERTEX
  5
2D4
330
2D0
100
AcDbEntity
  8
PREDETERMINADA
 62
     1
100
AcDbVertex
100
AcDb2dVertex
 10
-767.5709934920409
 20
50.10161067085659
 30
0.0
  0
SEQEND
  5
2D5
330
2D0
100
AcDbEntity
  8
PREDETERMINADA
 62
     1
  0
POLYLINE
  5
2D6
330
1F
100
AcDbEntity
  8
PREDETERMINADA
 62
     1
100
AcDb2dPolyline
 66
     1
 10
0.0
 20
0.0
 30
0.0
 70
     1
  0
VERTEX
  5
2D7
330
2D6
100
AcDbEntity
  8
PREDETERMINADA
 62
     1
100
AcDbVertex
100
AcDb2dVertex
 10
-759.317298771882
 20
86.82087371723217
 30
0.0
  0
VERTEX
  5
2D8
330
2D6
100
AcDbEntity
  8
PREDETERMINADA
 62
     1
100
AcDbVertex
100
AcDb2dVertex
 10
-760.816075160396
 20
86.88123399499503
 30
0.0
  0
VERTEX
  5
2D9
330
2D6
100
AcDbEntity
  8
PREDETERMINADA
 62
     1
100
AcDbVertex
100
AcDb2dVertex
 10
-761.2185946047404
 20
76.88933260860397
 30
0.0
  0
VERTEX
  5
2DA
330
2D6
100
AcDbEntity
  8
PREDETERMINADA
 62
     1
100
AcDbVertex
100
AcDb2dVertex
 10
-759.7198182162256
 20
76.82897233084142
 30
0.0
  0
SEQEND
  5
2DB
330
2D6
100
AcDbEntity
  8
PREDETERMINADA
 62
     1
  0
POLYLINE
  5
2DC
330
1F
100
AcDbEntity
  8
PREDETERMINADA
 62
     1
100
AcDb2dPolyline
 66
     1
 10
0.0
 20
0.0
 30
0.0
 70
     1
  0
VERTEX
  5
2DD
330
2DC
100
AcDbEntity
  8
PREDETERMINADA
 62
     1
100
AcDbVertex
100
AcDb2dVertex
 10
-758.4378590498799
 20
116.7084539875383
 30
0.0
  0
VERTEX
  5
2DE
330
2DC
100
AcDbEntity
  8
PREDETERMINADA
 62
     1
100
AcDbVertex
100
AcDb2dVertex
 10
-759.9373409939494
 20
116.7477887097504
 30
0.0
  0
VERTEX
  5
2DF
330
2DC
100
AcDbEntity
  8
PREDETERMINADA
 62
     1
100
AcDbVertex
100
AcDb2dVertex
 10
-760.1995959938837
 20
106.751230656694
 30
0.0
  0
VERTEX
  5
2E0
330
2DC
100
AcDbEntity
  8
PREDETERMINADA
 62
     1
100
AcDbVertex
100
AcDb2dVertex
 10
-758.700114049814
 20
106.7118959344816
 30
0.0
  0
SEQEND
  5
2E1
330
2DC
100
AcDbEntity
  8
PREDETERMINADA
 62
     1
  0
POLYLINE
  5
2E2
330
1F
100
AcDbEntity
  8
PREDETERMINADA
 62
     1
100
AcDb2dPolyline
 66
     1
 10
0.0
 20
0.0
 30
0.0
 70
     1
  0
VERTEX
  5
2E3
330
2E2
100
AcDbEntity
  8
PREDETERMINADA
 62
     1
100
AcDbVertex
100
AcDb2dVertex
 10
-754.8815415507686
 20
146.9726245355275
 30
0.0
  0
VERTEX
  5
2E4
330
2E2
100
AcDbEntity
  8
PREDETERMINADA
 62
     1
100
AcDbVertex
100
AcDb2dVertex
 10
-756.3367146059607
 20
147.3364795354365
 30
0.0
  0
VERTEX
  5
2E5
330
2E2
100
AcDbEntity
  8
PREDETERMINADA
 62
     1
100
AcDbVertex
100
AcDb2dVertex
 10
-758.7625204386875
 20
137.6351612045286
 30
0.0
  0
VERTEX
  5
2E6
330
2E2
100
AcDbEntity
  8
PREDETERMINADA
 62
     1
100
AcDbVertex
100
AcDb2dVertex
 10
-757.3073473834954
 20
137.2713062046196
 30
0.0
  0
SEQEND
  5
2E7
330
2E2
100
AcDbEntity
  8
PREDETERMINADA
 62
     1
  0
POLYLINE
  5
2E8
330
1F
100
AcDbEntity
  8
PREDETERMINADA
 62
     1
100
AcDb2dPolyline
 66
     1
 10
0.0
 20
0.0
 30
0.0
 70
     1
  0
VERTEX
  5
2E9
330
2E8
100
AcDbEntity
  8
PREDETERMINADA
 62
     1
100
AcDbVertex
100
AcDb2dVertex
 10
-746.6919465528163
 20
175.7428164727796
 30
0.0
  0
VERTEX
  5
2EA
330
2E8
100
AcDbEntity
  8
PREDETERMINADA
 62
     1
100
AcDbVertex
100
AcDb2dVertex
 10
-748.1499418302297
 20
176.0954178615803
 30
0.0
  0
VERTEX
  5
2EB
330
2E8
100
AcDbEntity
  8
PREDETERMINADA
 62
     1
100
AcDbVertex
100
AcDb2dVertex
 10
-750.5005707185306
 20
166.3756139751213
 30
0.0
  0
VERTEX
  5
2EC
330
2E8
100
AcDbEntity
  8
PREDETERMINADA
 62
     1
100
AcDbVertex
100
AcDb2dVertex
 10
-749.0426107188953
 20
166.0230125863206
 30
0.0
  0
SEQEND
  5
2ED
330
2E8
100
AcDbEntity
  8
PREDETERMINADA
 62
     1
  0
POLYLINE
  5
2EE
330
1F
100
AcDbEntity
  8
PREDETERMINADA
 62
     1
100
AcDb2dPolyline
 66
     1
 10
0.0
 20
0.0
 30
0.0
 70
     1
  0
VERTEX
  5
2EF
330
2EE
100
AcDbEntity
  8
PREDETERMINADA
 62
     1
100
AcDbVertex
100
AcDb2dVertex
 10
-750.9314534962008
 20
262.5116153399761
 30
0.0
  0
VERTEX
  5
2F0
330
2EE
100
AcDbEntity
  8
PREDETERMINADA
 62
     1
100
AcDbVertex
100
AcDb2dVertex
 10
-752.3406948847371
 20
261.9977592289936
 30
0.0
  0
VERTEX
  5
2F1
330
2EE
100
AcDbEntity
  8
PREDETERMINADA
 62
     1
100
AcDbVertex
100
AcDb2dVertex
 10
-748.9151168300384
 20
252.6027931202311
 30
0.0
  0
VERTEX
  5
2F2
330
2EE
100
AcDbEntity
  8
PREDETERMINADA
 62
     1
100
AcDbVertex
100
AcDb2dVertex
 10
-747.5058754415014
 20
253.1166139534361
 30
0.0
  0
SEQEND
  5
2F3
330
2EE
100
AcDbEntity
  8
PREDETERMINADA
 62
     1
  0
POLYLINE
  5
2F4
330
1F
100
AcDbEntity
  8
PREDETERMINADA
 62
     1
100
AcDb2dPolyline
 66
     1
 10
0.0
 20
0.0
 30
0.0
 70
     1
  0
VERTEX
  5
2F5
330
2F4
100
AcDbEntity
  8
PREDETERMINADA
 62
     1
100
AcDbVertex
100
AcDb2dVertex
 10
-793.6978568188426
 20
292.6222569991153
 30
0.0
  0
VERTEX
  5
2F6
330
2F4
100
AcDbEntity
  8
PREDETERMINADA
 62
     1
100
AcDbVertex
100
AcDb2dVertex
 10
-793.6979626521758
 20
291.1222458883792
 30
0.0
  0
VERTEX
  5
2F7
330
2F4
100
AcDbEntity
  8
PREDETERMINADA
 62
     1
100
AcDbVertex
100
AcDb2dVertex
 10
-783.6979826546757
 20
291.1214697772681
 30
0.0
  0
VERTEX
  5
2F8
330
2F4
100
AcDbEntity
  8
PREDETERMINADA
 62
     1
100
AcDbVertex
100
AcDb2dVertex
 10
-783.6978768213424
 20
292.6214808880044
 30
0.0
  0
SEQEND
  5
2F9
330
2F4
100
AcDbEntity
  8
PREDETERMINADA
 62
     1
  0
POLYLINE
  5
2FA
330
1F
100
AcDbEntity
  8
PREDETERMINADA
 62
     1
100
AcDb2dPolyline
 66
     1
 10
0.0
 20
0.0
 30
0.0
 70
     1
  0
VERTEX
  5
2FB
330
2FA
100
AcDbEntity
  8
PREDETERMINADA
 62
     1
100
AcDbVertex
100
AcDb2dVertex
 10
-817.0088126463479
 20
278.5622633915191
 30
0.0
  0
VERTEX
  5
2FC
330
2FA
100
AcDbEntity
  8
PREDETERMINADA
 62
     1
100
AcDbVertex
100
AcDb2dVertex
 10
-815.9592987577213
 20
277.4905597806759
 30
0.0
  0
VERTEX
  5
2FD
330
2FA
100
AcDbEntity
  8
PREDETERMINADA
 62
     1
100
AcDbVertex
100
AcDb2dVertex
 10
-808.8145962595078
 20
284.4872014455935
 30
0.0
  0
VERTEX
  5
2FE
330
2FA
100
AcDbEntity
  8
PREDETERMINADA
 62
     1
100
AcDbVertex
100
AcDb2dVertex
 10
-809.8640748703563
 20
285.5589050564366
 30
0.0
  0
SEQEND
  5
2FF
330
2FA
100
AcDbEntity
  8
PREDETERMINADA
 62
     1
  0
POLYLINE
  5
300
330
1F
100
AcDbEntity
  8
PREDETERMINADA
 62
     1
100
AcDb2dPolyline
 66
     1
 10
0.0
 20
0.0
 30
0.0
 70
     1
  0
VERTEX
  5
301
330
300
100
AcDbEntity
  8
PREDETERMINADA
 62
     1
100
AcDbVertex
100
AcDb2dVertex
 10
-829.8953968097933
 20
253.1245161756563
 30
0.0
  0
VERTEX
  5
302
330
300
100
AcDbEntity
  8
PREDETERMINADA
 62
     1
100
AcDbVertex
100
AcDb2dVertex
 10
-828.4861906990345
 20
252.6105895091181
 30
0.0
  0
VERTEX
  5
303
330
300
100
AcDbEntity
  8
PREDETERMINADA
 62
     1
100
AcDbVertex
100
AcDb2dVertex
 10
-825.0600129221128
 20
262.0053439512138
 30
0.0
  0
VERTEX
  5
304
330
300
100
AcDbEntity
  8
PREDETERMINADA
 62
     1
100
AcDbVertex
100
AcDb2dVertex
 10
-826.4692190328716
 20
262.519270617752
 30
0.0
  0
SEQEND
  5
305
330
300
100
AcDbEntity
  8
PREDETERMINADA
 62
     1
  0
POLYLINE
  5
306
330
1F
100
AcDbEntity
  8
PREDETERMINADA
 62
     1
100
AcDb2dPolyline
 66
     1
 10
0.0
 20
0.0
 30
0.0
 70
     1
  0
VERTEX
  5
307
330
306
100
AcDbEntity
  8
PREDETERMINADA
 62
     1
100
AcDbVertex
100
AcDb2dVertex
 10
-834.6726781974874
 20
224.4108392383905
 30
0.0
  0
VERTEX
  5
308
330
306
100
AcDbEntity
  8
PREDETERMINADA
 62
     1
100
AcDbVertex
100
AcDb2dVertex
 10
-833.1782056978614
 20
224.2819342384225
 30
0.0
  0
VERTEX
  5
309
330
306
100
AcDbEntity
  8
PREDETERMINADA
 62
     1
100
AcDbVertex
100
AcDb2dVertex
 10
-832.3189448647429
 20
234.2449431248204
 30
0.0
  0
VERTEX
  5
30A
330
306
100
AcDbEntity
  8
PREDETERMINADA
 62
     1
100
AcDbVertex
100
AcDb2dVertex
 10
-833.8134173643688
 20
234.3738481247884
 30
0.0
  0
SEQEND
  5
30B
330
306
100
AcDbEntity
  8
PREDETERMINADA
 62
     1
  0
POLYLINE
  5
30C
330
1F
100
AcDbEntity
  8
PREDETERMINADA
 62
     1
100
AcDb2dPolyline
 66
     1
 10
0.0
 20
0.0
 30
0.0
 70
     1
  0
VERTEX
  5
30D
330
30C
100
AcDbEntity
  8
PREDETERMINADA
 62
     1
100
AcDbVertex
100
AcDb2dVertex
 10
-833.6907918088442
 20
194.9820111901919
 30
0.0
  0
VERTEX
  5
30E
330
30C
100
AcDbEntity
  8
PREDETERMINADA
 62
     1
100
AcDbVertex
100
AcDb2dVertex
 10
-832.1951551425511
 20
195.0965581346078
 30
0.0
  0
VERTEX
  5
30F
330
30C
100
AcDbEntity
  8
PREDETERMINADA
 62
     1
100
AcDbVertex
100
AcDb2dVertex
 10
-832.9587426423606
 20
205.0673634098927
 30
0.0
  0
VERTEX
  5
310
330
30C
100
AcDbEntity
  8
PREDETERMINADA
 62
     1
100
AcDbVertex
100
AcDb2dVertex
 10
-834.4543793086535
 20
204.9528164654771
 30
0.0
  0
SEQEND
  5
311
330
30C
100
AcDbEntity
  8
PREDETERMINADA
 62
     1
  0
POLYLINE
  5
312
330
1F
100
AcDbEntity
  8
PREDETERMINADA
 62
     1
100
AcDb2dPolyline
 66
     1
 10
0.0
 20
0.0
 30
0.0
 70
     1
  0
VERTEX
  5
313
330
312
100
AcDbEntity
  8
PREDETERMINADA
 62
     1
100
AcDbVertex
100
AcDb2dVertex
 10
-828.3633534768429
 20
166.0312675863186
 30
0.0
  0
VERTEX
  5
314
330
312
100
AcDbEntity
  8
PREDETERMINADA
 62
     1
100
AcDbVertex
100
AcDb2dVertex
 10
-826.905393477207
 20
166.3838336973414
 30
0.0
  0
VERTEX
  5
315
330
312
100
AcDbEntity
  8
PREDETERMINADA
 62
     1
100
AcDbVertex
100
AcDb2dVertex
 10
-829.2559165321753
 20
176.1036728615782
 30
0.0
  0
VERTEX
  5
316
330
312
100
AcDbEntity
  8
PREDETERMINADA
 62
     1
100
AcDbVertex
100
AcDb2dVertex
 10
-830.7138765318106
 20
175.7510714727775
 30
0.0
  0
SEQEND
  5
317
330
312
100
AcDbEntity
  8
PREDETERMINADA
 62
     1
  0
POLYLINE
  5
318
330
1F
100
AcDbEntity
  8
PREDETERMINADA
 62
     1
100
AcDb2dPolyline
 66
     1
 10
0.0
 20
0.0
 30
0.0
 70
     1
  0
VERTEX
  5
319
330
318
100
AcDbEntity
  8
PREDETERMINADA
 62
     1
100
AcDbVertex
100
AcDb2dVertex
 10
-820.0978407011315
 20
137.2801962046174
 30
0.0
  0
VERTEX
  5
31A
330
318
100
AcDbEntity
  8
PREDETERMINADA
 62
     1
100
AcDbVertex
100
AcDb2dVertex
 10
-818.642702923717
 20
137.6442628711928
 30
0.0
  0
VERTEX
  5
31B
330
318
100
AcDbEntity
  8
PREDETERMINADA
 62
     1
100
AcDbVertex
100
AcDb2dVertex
 10
-821.0698140342217
 20
147.3452284243236
 30
0.0
  0
VERTEX
  5
31C
330
318
100
AcDbEntity
  8
PREDETERMINADA
 62
     1
100
AcDbVertex
100
AcDb2dVertex
 10
-822.5249518116356
 20
146.9811617577475
 30
0.0
  0
SEQEND
  5
31D
330
318
100
AcDbEntity
  8
PREDETERMINADA
 62
     1
  0
POLYLINE
  5
31E
330
1F
100
AcDbEntity
  8
PREDETERMINADA
 62
     1
100
AcDb2dPolyline
 66
     1
 10
0.0
 20
0.0
 30
0.0
 70
     1
  0
VERTEX
  5
31F
330
31E
100
AcDbEntity
  8
PREDETERMINADA
 62
     1
100
AcDbVertex
100
AcDb2dVertex
 10
-818.7033454237023
 20
106.7206095455905
 30
0.0
  0
VERTEX
  5
320
330
31E
100
AcDbEntity
  8
PREDETERMINADA
 62
     1
100
AcDbVertex
100
AcDb2dVertex
 10
-817.2038634796327
 20
106.7599795455808
 30
0.0
  0
VERTEX
  5
321
330
31E
100
AcDbEntity
  8
PREDETERMINADA
 62
     1
100
AcDbVertex
100
AcDb2dVertex
 10
-817.466400701789
 20
116.7565375986371
 30
0.0
  0
VERTEX
  5
322
330
31E
100
AcDbEntity
  8
PREDETERMINADA
 62
     1
100
AcDbVertex
100
AcDb2dVertex
 10
-818.9658826458586
 20
116.7171675986472
 30
0.0
  0
SEQEND
  5
323
330
31E
100
AcDbEntity
  8
PREDETERMINADA
 62
     1
  0
POLYLINE
  5
324
330
1F
100
AcDbEntity
  8
PREDETERMINADA
 62
     1
100
AcDb2dPolyline
 66
     1
 10
0.0
 20
0.0
 30
0.0
 70
     1
  0
VERTEX
  5
325
330
324
100
AcDbEntity
  8
PREDETERMINADA
 62
     1
100
AcDbVertex
100
AcDb2dVertex
 10
-817.684029312846
 20
76.83761538639466
 30
0.0
  0
VERTEX
  5
326
330
324
100
AcDbEntity
  8
PREDETERMINADA
 62
     1
100
AcDbVertex
100
AcDb2dVertex
 10
-816.1852176465537
 20
76.89801094193535
 30
0.0
  0
VERTEX
  5
327
330
324
100
AcDbEntity
  8
PREDETERMINADA
 62
     1
100
AcDbVertex
100
AcDb2dVertex
 10
-816.5878429242313
 20
86.88991232832609
 30
0.0
  0
VERTEX
  5
328
330
324
100
AcDbEntity
  8
PREDETERMINADA
 62
     1
100
AcDbVertex
100
AcDb2dVertex
 10
-818.0866193127454
 20
86.82951677278572
 30
0.0
  0
SEQEND
  5
329
330
324
100
AcDbEntity
  8
PREDETERMINADA
 62
     1
  0
POLYLINE
  5
32A
330
1F
100
AcDbEntity
  8
PREDETERMINADA
 62
     1
100
AcDb2dPolyline
 66
     1
 10
0.0
 20
0.0
 30
0.0
 70
     1
  0
VERTEX
  5
32B
330
32A
100
AcDbEntity
  8
PREDETERMINADA
 62
     1
100
AcDbVertex
100
AcDb2dVertex
 10
-809.8381457036966
 20
50.10750205974406
 30
0.0
  0
VERTEX
  5
32C
330
32A
100
AcDbEntity
  8
PREDETERMINADA
 62
     1
100
AcDbVertex
100
AcDb2dVertex
 10
-808.5680398706808
 20
50.90548539287779
 30
0.0
  0
VERTEX
  5
32D
330
32A
100
AcDbEntity
  8
PREDETERMINADA
 62
     1
100
AcDbVertex
100
AcDb2dVertex
 10
-813.8879993137947
 20
59.37296344631619
 30
0.0
  0
VERTEX
  5
32E
330
32A
100
AcDbEntity
  8
PREDETERMINADA
 62
     1
100
AcDbVertex
100
AcDb2dVertex
 10
-815.1581051468105
 20
58.57498011318278
 30
0.0
  0
SEQEND
  5
32F
330
32A
100
AcDbEntity
  8
PREDETERMINADA
 62
     1
  0
POLYLINE
  5
330
330
1F
100
AcDbEntity
  8
PREDETERMINADA
 62
     1
100
AcDb2dPolyline
 66
     1
 10
0.0
 20
0.0
 30
0.0
 70
     1
  0
VERTEX
  5
331
330
330
100
AcDbEntity
  8
PREDETERMINADA
 62
     1
100
AcDbVertex
100
AcDb2dVertex
 10
-783.706202376896
 20
44.84832622772546
 30
0.0
  0
VERTEX
  5
332
330
330
100
AcDbEntity
  8
PREDETERMINADA
 62
     1
100
AcDbVertex
100
AcDb2dVertex
 10
-783.706202376896
 20
46.34833733846139
 30
0.0
  0
VERTEX
  5
333
330
330
100
AcDbEntity
  8
PREDETERMINADA
 62
     1
100
AcDbVertex
100
AcDb2dVertex
 10
-793.7061823743962
 20
46.34833733846139
 30
0.0
  0
VERTEX
  5
334
330
330
100
AcDbEntity
  8
PREDETERMINADA
 62
     1
100
AcDbVertex
100
AcDb2dVertex
 10
-793.7061823743962
 20
44.84832622772546
 30
0.0
  0
SEQEND
  5
335
330
330
100
AcDbEntity
  8
PREDETERMINADA
 62
     1
  0
POLYLINE
  5
336
330
1F
100
AcDbEntity
  8
PREDETERMINADA
 62
     1
100
AcDb2dPolyline
 66
     1
 10
0.0
 20
0.0
 30
0.0
 70
     1
  0
VERTEX
  5
337
330
336
100
AcDbEntity
  8
PREDETERMINADA
 62
     1
100
AcDbVertex
100
AcDb2dVertex
 10
-742.9501737759736
 20
204.9443497988125
 30
0.0
  0
VERTEX
  5
338
330
336
100
AcDbEntity
  8
PREDETERMINADA
 62
     1
100
AcDbVertex
100
AcDb2dVertex
 10
-744.4458104422666
 20
205.0588967432283
 30
0.0
  0
VERTEX
  5
339
330
336
100
AcDbEntity
  8
PREDETERMINADA
 62
     1
100
AcDbVertex
100
AcDb2dVertex
 10
-745.2094684976311
 20
195.0881267457209
 30
0.0
  0
VERTEX
  5
33A
330
336
100
AcDbEntity
  8
PREDETERMINADA
 62
     1
100
AcDbVertex
100
AcDb2dVertex
 10
-743.7138318313387
 20
194.9735798013051
 30
0.0
  0
SEQEND
  5
33B
330
336
100
AcDbEntity
  8
PREDETERMINADA
 62
     1
  0
POLYLINE
  5
33C
330
1F
100
AcDbEntity
  8
PREDETERMINADA
 62
     1
100
AcDb2dPolyline
 66
     1
 10
0.0
 20
0.0
 30
0.0
 70
     1
  0
VERTEX
  5
33D
330
33C
100
AcDbEntity
  8
PREDETERMINADA
 62
     1
100
AcDbVertex
100
AcDb2dVertex
 10
-743.5896187758141
 20
234.3654872914573
 30
0.0
  0
VERTEX
  5
33E
330
33C
100
AcDbEntity
  8
PREDETERMINADA
 62
     1
100
AcDbVertex
100
AcDb2dVertex
 10
-745.08409127544
 20
234.236652847045
 30
0.0
  0
VERTEX
  5
33F
330
33C
100
AcDbEntity
  8
PREDETERMINADA
 62
     1
100
AcDbVertex
100
AcDb2dVertex
 10
-744.2251832200992
 20
224.2736086828689
 30
0.0
  0
VERTEX
  5
340
330
33C
100
AcDbEntity
  8
PREDETERMINADA
 62
     1
100
AcDbVertex
100
AcDb2dVertex
 10
-742.7307107204733
 20
224.4024431272812
 30
0.0
  0
SEQEND
  5
341
330
33C
100
AcDbEntity
  8
PREDETERMINADA
 62
     1
  0
POLYLINE
  5
342
330
1F
100
AcDbEntity
  8
PREDETERMINADA
 62
     1
100
AcDb2dPolyline
 66
     1
 10
0.0
 20
0.0
 30
0.0
 70
     1
  0
VERTEX
  5
343
330
342
100
AcDbEntity
  8
PREDETERMINADA
 62
     1
100
AcDbVertex
100
AcDb2dVertex
 10
-767.5333873809388
 20
285.5538250564379
 30
0.0
  0
VERTEX
  5
344
330
342
100
AcDbEntity
  8
PREDETERMINADA
 62
     1
100
AcDbVertex
100
AcDb2dVertex
 10
-768.5830423806768
 20
284.4822625567058
 30
0.0
  0
VERTEX
  5
345
330
342
100
AcDbEntity
  8
PREDETERMINADA
 62
     1
100
AcDbVertex
100
AcDb2dVertex
 10
-761.4393276602402
 20
277.484597836233
 30
0.0
  0
VERTEX
  5
346
330
342
100
AcDbEntity
  8
PREDETERMINADA
 62
     1
100
AcDbVertex
100
AcDb2dVertex
 10
-760.3896726605029
 20
278.556160335965
 30
0.0
  0
SEQEND
  5
347
330
342
100
AcDbEntity
  8
PREDETERMINADA
 62
     1
  0
LINE
  5
349
330
1F
100
AcDbEntity
  8
CAPA_1
 62
     7
100
AcDbLine
 10
-788.7011123756471
 20
41.84833928403112
 30
0.0
 11
-788.7028057089802
 21
41.84833928403112
 31
0.0
  0
POLYLINE
  5
34A
330
1F
100
AcDbEntity
  8
CAPA_1
 62
     7
100
AcDb2dPolyline
 66
     1
 10
0.0
 20
0.0
 30
0.0
  0
VERTEX
  5
34B
330
34A
100
AcDbEntity
  8
CAPA_1
 62
     7
100
AcDbVertex
100
AcDb2dVertex
 10
-788.7028057089802
 20
41.84833928403112
 30
0.0
  0
VERTEX
  5
34C
330
34A
100
AcDbEntity
  8
CAPA_1
 62
     7
100
AcDbVertex
100
AcDb2dVertex
 10
-789.4217981035317
 20
41.8496161010135
 30
0.0
  0
VERTEX
  5
34D
330
34A
100
AcDbEntity
  8
CAPA_1
 62
     7
100
AcDbVertex
100
AcDb2dVertex
 10
-790.1221411067103
 20
41.85373798981319
 30
0.0
  0
VERTEX
  5
34E
330
34A
100
AcDbEntity
  8
CAPA_1
 62
     7
100
AcDbVertex
100
AcDb2dVertex
 10
-790.8048312597548
 20
41.86114210720907
 30
0.0
  0
VERTEX
  5
34F
330
34A
100
AcDbEntity
  8
CAPA_1
 62
     7
100
AcDbVertex
100
AcDb2dVertex
 10
-791.4708651039045
 20
41.87226560998
 30
0.0
  0
VERTEX
  5
350
330
34A
100
AcDbEntity
  8
CAPA_1
 62
     7
100
AcDbVertex
100
AcDb2dVertex
 10
-792.1212391803988
 20
41.88754565490483
 30
0.0
  0
VERTEX
  5
351
330
34A
100
AcDbEntity
  8
CAPA_1
 62
     7
100
AcDbVertex
100
AcDb2dVertex
 10
-792.7569500304764
 20
41.90741939876244
 30
0.0
  0
VERTEX
  5
352
330
34A
100
AcDbEntity
  8
CAPA_1
 62
     7
100
AcDbVertex
100
AcDb2dVertex
 10
-793.3789941953769
 20
41.93232399833167
 30
0.0
  0
VERTEX
  5
353
330
34A
100
AcDbEntity
  8
CAPA_1
 62
     7
100
AcDbVertex
100
AcDb2dVertex
 10
-793.9883682163394
 20
41.9626966103914
 30
0.0
  0
VERTEX
  5
354
330
34A
100
AcDbEntity
  8
CAPA_1
 62
     7
100
AcDbVertex
100
AcDb2dVertex
 10
-794.586068634603
 20
41.99897439172049
 30
0.0
  0
VERTEX
  5
355
330
34A
100
AcDbEntity
  8
CAPA_1
 62
     7
100
AcDbVertex
100
AcDb2dVertex
 10
-795.1730919914067
 20
42.0415944990978
 30
0.0
  0
VERTEX
  5
356
330
34A
100
AcDbEntity
  8
CAPA_1
 62
     7
100
AcDbVertex
100
AcDb2dVertex
 10
-795.7504348279899
 20
42.09099408930219
 30
0.0
  0
VERTEX
  5
357
330
34A
100
AcDbEntity
  8
CAPA_1
 62
     7
100
AcDbVertex
100
AcDb2dVertex
 10
-796.0357874703361
 20
42.11837280195792
 30
0.0
  0
VERTEX
  5
358
330
34A
100
AcDbEntity
  8
CAPA_1
 62
     7
100
AcDbVertex
100
AcDb2dVertex
 10
-796.3190936855917
 20
42.14761031911252
 30
0.0
  0
VERTEX
  5
359
330
34A
100
AcDbEntity
  8
CAPA_1
 62
     7
100
AcDbVertex
100
AcDb2dVertex
 10
-796.600478041412
 20
42.17876128536331
 30
0.0
  0
VERTEX
  5
35A
330
34A
100
AcDbEntity
  8
CAPA_1
 62
     7
100
AcDbVertex
100
AcDb2dVertex
 10
-796.8800651054514
 20
42.21188034530765
 30
0.0
  0
VERTEX
  5
35B
330
34A
100
AcDbEntity
  8
CAPA_1
 62
     7
100
AcDbVertex
100
AcDb2dVertex
 10
-797.1579794453651
 20
42.24702214354291
 30
0.0
  0
VERTEX
  5
35C
330
34A
100
AcDbEntity
  8
CAPA_1
 62
     7
100
AcDbVertex
100
AcDb2dVertex
 10
-797.4343456288079
 20
42.28424132466645
 30
0.0
  0
VERTEX
  5
35D
330
34A
100
AcDbEntity
  8
CAPA_1
 62
     7
100
AcDbVertex
100
AcDb2dVertex
 10
-797.7092882234349
 20
42.32359253327562
 30
0.0
  0
VERTEX
  5
35E
330
34A
100
AcDbEntity
  8
CAPA_1
 62
     7
100
AcDbVertex
100
AcDb2dVertex
 10
-797.9829317969006
 20
42.36513041396778
 30
0.0
  0
VERTEX
  5
35F
330
34A
100
AcDbEntity
  8
CAPA_1
 62
     7
100
AcDbVertex
100
AcDb2dVertex
 10
-798.2554009168603
 20
42.40890961134029
 30
0.0
  0
VERTEX
  5
360
330
34A
100
AcDbEntity
  8
CAPA_1
 62
     7
100
AcDbVertex
100
AcDb2dVertex
 10
-798.5268201509687
 20
42.4549847699905
 30
0.0
  0
VERTEX
  5
361
330
34A
100
AcDbEntity
  8
CAPA_1
 62
     7
100
AcDbVertex
100
AcDb2dVertex
 10
-798.7973140668806
 20
42.50341053451578
 30
0.0
  0
VERTEX
  5
362
330
34A
100
AcDbEntity
  8
CAPA_1
 62
     7
100
AcDbVertex
100
AcDb2dVertex
 10
-799.0670072322512
 20
42.55424154951348
 30
0.0
  0
VERTEX
  5
363
330
34A
100
AcDbEntity
  8
CAPA_1
 62
     7
100
AcDbVertex
100
AcDb2dVertex
 10
-799.3360242147351
 20
42.60753245958095
 30
0.0
  0
VERTEX
  5
364
330
34A
100
AcDbEntity
  8
CAPA_1
 62
     7
100
AcDbVertex
100
AcDb2dVertex
 10
-799.6044895819873
 20
42.66333790931557
 30
0.0
  0
VERTEX
  5
365
330
34A
100
AcDbEntity
  8
CAPA_1
 62
     7
100
AcDbVertex
100
AcDb2dVertex
 10
-799.8725279016627
 20
42.72171254331468
 30
0.0
  0
VERTEX
  5
366
330
34A
100
AcDbEntity
  8
CAPA_1
 62
     7
100
AcDbVertex
100
AcDb2dVertex
 10
-800.1402637414162
 20
42.78271100617565
 30
0.0
  0
VERTEX
  5
367
330
34A
100
AcDbEntity
  8
CAPA_1
 62
     7
100
AcDbVertex
100
AcDb2dVertex
 10
-800.4078216689027
 20
42.84638794249581
 30
0.0
  0
VERTEX
  5
368
330
34A
100
AcDbEntity
  8
CAPA_1
 62
     7
100
AcDbVertex
100
AcDb2dVertex
 10
-800.675326251777
 20
42.91279799687255
 30
0.0
  0
VERTEX
  5
369
330
34A
100
AcDbEntity
  8
CAPA_1
 62
     7
100
AcDbVertex
100
AcDb2dVertex
 10
-800.9429020576943
 20
42.98199581390321
 30
0.0
  0
VERTEX
  5
36A
330
34A
100
AcDbEntity
  8
CAPA_1
 62
     7
100
AcDbVertex
100
AcDb2dVertex
 10
-801.2106736543091
 20
43.05403603818515
 30
0.0
  0
VERTEX
  5
36B
330
34A
100
AcDbEntity
  8
CAPA_1
 62
     7
100
AcDbVertex
100
AcDb2dVertex
 10
-801.4787656092765
 20
43.12897331431574
 30
0.0
  0
VERTEX
  5
36C
330
34A
100
AcDbEntity
  8
CAPA_1
 62
     7
100
AcDbVertex
100
AcDb2dVertex
 10
-801.7473024902514
 20
43.20686228689233
 30
0.0
  0
VERTEX
  5
36D
330
34A
100
AcDbEntity
  8
CAPA_1
 62
     7
100
AcDbVertex
100
AcDb2dVertex
 10
-802.0164088648887
 20
43.28775760051228
 30
0.0
  0
VERTEX
  5
36E
330
34A
100
AcDbEntity
  8
CAPA_1
 62
     7
100
AcDbVertex
100
AcDb2dVertex
 10
-802.2862093008432
 20
43.37171389977293
 30
0.0
  0
VERTEX
  5
36F
330
34A
100
AcDbEntity
  8
CAPA_1
 62
     7
100
AcDbVertex
100
AcDb2dVertex
 10
-802.5568283657699
 20
43.45878582927166
 30
0.0
  0
VERTEX
  5
370
330
34A
100
AcDbEntity
  8
CAPA_1
 62
     7
100
AcDbVertex
100
AcDb2dVertex
 10
-802.8283906273238
 20
43.54902803360582
 30
0.0
  0
VERTEX
  5
371
330
34A
100
AcDbEntity
  8
CAPA_1
 62
     7
100
AcDbVertex
100
AcDb2dVertex
 10
-803.1010206531595
 20
43.64249515737276
 30
0.0
  0
VERTEX
  5
372
330
34A
100
AcDbEntity
  8
CAPA_1
 62
     7
100
AcDbVertex
100
AcDb2dVertex
 10
-803.3748430109322
 20
43.73924184516986
 30
0.0
  0
VERTEX
  5
373
330
34A
100
AcDbEntity
  8
CAPA_1
 62
     7
100
AcDbVertex
100
AcDb2dVertex
 10
-803.6499822682965
 20
43.83932274159445
 30
0.0
  0
VERTEX
  5
374
330
34A
100
AcDbEntity
  8
CAPA_1
 62
     7
100
AcDbVertex
100
AcDb2dVertex
 10
-803.9265629929075
 20
43.94279249124391
 30
0.0
  0
VERTEX
  5
375
330
34A
100
AcDbEntity
  8
CAPA_1
 62
     7
100
AcDbVertex
100
AcDb2dVertex
 10
-804.2047097524201
 20
44.04970573871557
 30
0.0
  0
VERTEX
  5
376
330
34A
100
AcDbEntity
  8
CAPA_1
 62
     7
100
AcDbVertex
100
AcDb2dVertex
 10
-804.484547114489
 20
44.16011712860683
 30
0.0
  0
VERTEX
  5
377
330
34A
100
AcDbEntity
  8
CAPA_1
 62
     7
100
AcDbVertex
100
AcDb2dVertex
 10
-804.7661996467695
 20
44.27408130551501
 30
0.0
  0
VERTEX
  5
378
330
34A
100
AcDbEntity
  8
CAPA_1
 62
     7
100
AcDbVertex
100
AcDb2dVertex
 10
-805.049791916916
 20
44.39165291403749
 30
0.0
  0
VERTEX
  5
379
330
34A
100
AcDbEntity
  8
CAPA_1
 62
     7
100
AcDbVertex
100
AcDb2dVertex
 10
-805.3354484925837
 20
44.51288659877161
 30
0.0
  0
VERTEX
  5
37A
330
34A
100
AcDbEntity
  8
CAPA_1
 62
     7
100
AcDbVertex
100
AcDb2dVertex
 10
-805.6232939414274
 20
44.63783700431474
 30
0.0
  0
VERTEX
  5
37B
330
34A
100
AcDbEntity
  8
CAPA_1
 62
     7
100
AcDbVertex
100
AcDb2dVertex
 10
-805.913452831102
 20
44.76655877526424
 30
0.0
  0
VERTEX
  5
37C
330
34A
100
AcDbEntity
  8
CAPA_1
 62
     7
100
AcDbVertex
100
AcDb2dVertex
 10
-806.2060497292625
 20
44.89910655621746
 30
0.0
  0
VERTEX
  5
37D
330
34A
100
AcDbEntity
  8
CAPA_1
 62
     7
100
AcDbVertex
100
AcDb2dVertex
 10
-806.5012092035637
 20
45.03553499177175
 30
0.0
  0
VERTEX
  5
37E
330
34A
100
AcDbEntity
  8
CAPA_1
 62
     7
100
AcDbVertex
100
AcDb2dVertex
 10
-806.7990558216604
 20
45.17589872652449
 30
0.0
  0
VERTEX
  5
37F
330
34A
100
AcDbEntity
  8
CAPA_1
 62
     7
100
AcDbVertex
100
AcDb2dVertex
 10
-807.0997141512078
 20
45.32025240507303
 30
0.0
  0
VERTEX
  5
380
330
34A
100
AcDbEntity
  8
CAPA_1
 62
     7
100
AcDbVertex
100
AcDb2dVertex
 10
-807.4033087598606
 20
45.46865067201472
 30
0.0
  0
VERTEX
  5
381
330
34A
100
AcDbEntity
  8
CAPA_1
 62
     7
100
AcDbVertex
100
AcDb2dVertex
 10
-807.5884836160042
 20
45.56153166881812
 30
0.0
  0
VERTEX
  5
382
330
34A
100
AcDbEntity
  8
CAPA_1
 62
     7
100
AcDbVertex
100
AcDb2dVertex
 10
-807.7721992364848
 20
45.65682773491887
 30
0.0
  0
VERTEX
  5
383
330
34A
100
AcDbEntity
  8
CAPA_1
 62
     7
100
AcDbVertex
100
AcDb2dVertex
 10
-807.9544582343937
 20
45.75451317128403
 30
0.0
  0
VERTEX
  5
384
330
34A
100
AcDbEntity
  8
CAPA_1
 62
     7
100
AcDbVertex
100
AcDb2dVertex
 10
-808.1352632228225
 20
45.85456227888066
 30
0.0
  0
VERTEX
  5
385
330
34A
100
AcDbEntity
  8
CAPA_1
 62
     7
100
AcDbVertex
100
AcDb2dVertex
 10
-808.3146168148626
 20
45.95694935867584
 30
0.0
  0
VERTEX
  5
386
330
34A
100
AcDbEntity
  8
CAPA_1
 62
     7
100
AcDbVertex
100
AcDb2dVertex
 10
-808.4925216236056
 20
46.06164871163661
 30
0.0
  0
VERTEX
  5
387
330
34A
100
AcDbEntity
  8
CAPA_1
 62
     7
100
AcDbVertex
100
AcDb2dVertex
 10
-808.668980262143
 20
46.16863463873004
 30
0.0
  0
VERTEX
  5
388
330
34A
100
AcDbEntity
  8
CAPA_1
 62
     7
100
AcDbVertex
100
AcDb2dVertex
 10
-808.8439953435661
 20
46.27788144092321
 30
0.0
  0
VERTEX
  5
389
330
34A
100
AcDbEntity
  8
CAPA_1
 62
     7
100
AcDbVertex
100
AcDb2dVertex
 10
-809.0175694809664
 20
46.38936341918317
 30
0.0
  0
VERTEX
  5
38A
330
34A
100
AcDbEntity
  8
CAPA_1
 62
     7
100
AcDbVertex
100
AcDb2dVertex
 10
-809.1897052874353
 20
46.50305487447699
 30
0.0
  0
VERTEX
  5
38B
330
34A
100
AcDbEntity
  8
CAPA_1
 62
     7
100
AcDbVertex
100
AcDb2dVertex
 10
-809.3604053760646
 20
46.61893010777172
 30
0.0
  0
VERTEX
  5
38C
330
34A
100
AcDbEntity
  8
CAPA_1
 62
     7
100
AcDbVertex
100
AcDb2dVertex
 10
-809.5296723599454
 20
46.73696342003444
 30
0.0
  0
VERTEX
  5
38D
330
34A
100
AcDbEntity
  8
CAPA_1
 62
     7
100
AcDbVertex
100
AcDb2dVertex
 10
-809.6975088521692
 20
46.85712911223222
 30
0.0
  0
VERTEX
  5
38E
330
34A
100
AcDbEntity
  8
CAPA_1
 62
     7
100
AcDbVertex
100
AcDb2dVertex
 10
-809.8639174658279
 20
46.9794014853321
 30
0.0
  0
VERTEX
  5
38F
330
34A
100
AcDbEntity
  8
CAPA_1
 62
     7
100
AcDbVertex
100
AcDb2dVertex
 10
-810.0289008140124
 20
47.10375484030116
 30
0.0
  0
VERTEX
  5
390
330
34A
100
AcDbEntity
  8
CAPA_1
 62
     7
100
AcDbVertex
100
AcDb2dVertex
 10
-810.1924615098144
 20
47.23016347810646
 30
0.0
  0
VERTEX
  5
391
330
34A
100
AcDbEntity
  8
CAPA_1
 62
     7
100
AcDbVertex
100
AcDb2dVertex
 10
-810.3546021663253
 20
47.35860169971508
 30
0.0
  0
VERTEX
  5
392
330
34A
100
AcDbEntity
  8
CAPA_1
 62
     7
100
AcDbVertex
100
AcDb2dVertex
 10
-810.5153253966367
 20
47.48904380609406
 30
0.0
  0
VERTEX
  5
393
330
34A
100
AcDbEntity
  8
CAPA_1
 62
     7
100
AcDbVertex
100
AcDb2dVertex
 10
-810.67463381384
 20
47.62146409821047
 30
0.0
  0
VERTEX
  5
394
330
34A
100
AcDbEntity
  8
CAPA_1
 62
     7
100
AcDbVertex
100
AcDb2dVertex
 10
-810.8325300310269
 20
47.75583687703138
 30
0.0
  0
VERTEX
  5
395
330
34A
100
AcDbEntity
  8
CAPA_1
 62
     7
100
AcDbVertex
100
AcDb2dVertex
 10
-810.9890166612885
 20
47.89213644352385
 30
0.0
  0
VERTEX
  5
396
330
34A
100
AcDbEntity
  8
CAPA_1
 62
     7
100
AcDbVertex
100
AcDb2dVertex
 10
-811.1440963177163
 20
48.03033709865495
 30
0.0
  0
VERTEX
  5
397
330
34A
100
AcDbEntity
  8
CAPA_1
 62
     7
100
AcDbVertex
100
AcDb2dVertex
 10
-811.2977716134019
 20
48.17041314339173
 30
0.0
  0
VERTEX
  5
398
330
34A
100
AcDbEntity
  8
CAPA_1
 62
     7
100
AcDbVertex
100
AcDb2dVertex
 10
-811.4500451614368
 20
48.31233887870127
 30
0.0
  0
VERTEX
  5
399
330
34A
100
AcDbEntity
  8
CAPA_1
 62
     7
100
AcDbVertex
100
AcDb2dVertex
 10
-811.6009195749124
 20
48.45608860555063
 30
0.0
  0
VERTEX
  5
39A
330
34A
100
AcDbEntity
  8
CAPA_1
 62
     7
100
AcDbVertex
100
AcDb2dVertex
 10
-811.7503974669203
 20
48.60163662490686
 30
0.0
  0
VERTEX
  5
39B
330
34A
100
AcDbEntity
  8
CAPA_1
 62
     7
100
AcDbVertex
100
AcDb2dVertex
 10
-811.8984814505518
 20
48.74895723773704
 30
0.0
  0
VERTEX
  5
39C
330
34A
100
AcDbEntity
  8
CAPA_1
 62
     7
100
AcDbVertex
100
AcDb2dVertex
 10
-812.0451741388983
 20
48.89802474500823
 30
0.0
  0
VERTEX
  5
39D
330
34A
100
AcDbEntity
  8
CAPA_1
 62
     7
100
AcDbVertex
100
AcDb2dVertex
 10
-812.1904781450515
 20
49.04881344768749
 30
0.0
  0
VERTEX
  5
39E
330
34A
100
AcDbEntity
  8
CAPA_1
 62
     7
100
AcDbVertex
100
AcDb2dVertex
 10
-812.3343960821028
 20
49.20129764674189
 30
0.0
  0
VERTEX
  5
39F
330
34A
100
AcDbEntity
  8
CAPA_1
 62
     7
100
AcDbVertex
100
AcDb2dVertex
 10
-812.4769305631435
 20
49.35545164313849
 30
0.0
  0
VERTEX
  5
3A0
330
34A
100
AcDbEntity
  8
CAPA_1
 62
     7
100
AcDbVertex
100
AcDb2dVertex
 10
-812.6180842012652
 20
49.51124973784435
 30
0.0
  0
VERTEX
  5
3A1
330
34A
100
AcDbEntity
  8
CAPA_1
 62
     7
100
AcDbVertex
100
AcDb2dVertex
 10
-812.7578596095595
 20
49.66866623182654
 30
0.0
  0
VERTEX
  5
3A2
330
34A
100
AcDbEntity
  8
CAPA_1
 62
     7
100
AcDbVertex
100
AcDb2dVertex
 10
-812.8962594011177
 20
49.82767542605213
 30
0.0
  0
VERTEX
  5
3A3
330
34A
100
AcDbEntity
  8
CAPA_1
 62
     7
100
AcDbVertex
100
AcDb2dVertex
 10
-813.0332861890312
 20
49.98825162148817
 30
0.0
  0
VERTEX
  5
3A4
330
34A
100
AcDbEntity
  8
CAPA_1
 62
     7
100
AcDbVertex
100
AcDb2dVertex
 10
-813.1689425863916
 20
50.15036911910174
 30
0.0
  0
VERTEX
  5
3A5
330
34A
100
AcDbEntity
  8
CAPA_1
 62
     7
100
AcDbVertex
100
AcDb2dVertex
 10
-813.4361546618189
 20
50.47912522472969
 30
0.0
  0
VERTEX
  5
3A6
330
34A
100
AcDbEntity
  8
CAPA_1
 62
     7
100
AcDbVertex
100
AcDb2dVertex
 10
-813.6979165321313
 20
50.81373815067249
 30
0.0
  0
VERTEX
  5
3A7
330
34A
100
AcDbEntity
  8
CAPA_1
 62
     7
100
AcDbVertex
100
AcDb2dVertex
 10
-813.9542491020605
 20
51.15400230466665
 30
0.0
  0
VERTEX
  5
3A8
330
34A
100
AcDbEntity
  8
CAPA_1
 62
     7
100
AcDbVertex
100
AcDb2dVertex
 10
-814.2051732763384
 20
51.49971209444867
 30
0.0
  0
VERTEX
  5
3A9
330
34A
100
AcDbEntity
  8
CAPA_1
 62
     7
100
AcDbVertex
100
AcDb2dVertex
 10
-814.4507099596967
 20
51.85066192775508
 30
0.0
  0
VERTEX
  5
3AA
330
34A
100
AcDbEntity
  8
CAPA_1
 62
     7
100
AcDbVertex
100
AcDb2dVertex
 10
-814.690880056867
 20
52.2066462123224
 30
0.0
  0
VERTEX
  5
3AB
330
34A
100
AcDbEntity
  8
CAPA_1
 62
     7
100
AcDbVertex
100
AcDb2dVertex
 10
-814.925704472581
 20
52.56745935588713
 30
0.0
  0
VERTEX
  5
3AC
330
34A
100
AcDbEntity
  8
CAPA_1
 62
     7
100
AcDbVertex
100
AcDb2dVertex
 10
-815.1552041115706
 20
52.93289576618578
 30
0.0
  0
VERTEX
  5
3AD
330
34A
100
AcDbEntity
  8
CAPA_1
 62
     7
100
AcDbVertex
100
AcDb2dVertex
 10
-815.3793998785675
 20
53.30274985095485
 30
0.0
  0
VERTEX
  5
3AE
330
34A
100
AcDbEntity
  8
CAPA_1
 62
     7
100
AcDbVertex
100
AcDb2dVertex
 10
-815.5983126783035
 20
53.67681601793088
 30
0.0
  0
VERTEX
  5
3AF
330
34A
100
AcDbEntity
  8
CAPA_1
 62
     7
100
AcDbVertex
100
AcDb2dVertex
 10
-815.8119634155103
 20
54.05488867485035
 30
0.0
  0
VERTEX
  5
3B0
330
34A
100
AcDbEntity
  8
CAPA_1
 62
     7
100
AcDbVertex
100
AcDb2dVertex
 10
-816.0203729949196
 20
54.4367622294498
 30
0.0
  0
VERTEX
  5
3B1
330
34A
100
AcDbEntity
  8
CAPA_1
 62
     7
100
AcDbVertex
100
AcDb2dVertex
 10
-816.2235623212632
 20
54.82223108946573
 30
0.0
  0
VERTEX
  5
3B2
330
34A
100
AcDbEntity
  8
CAPA_1
 62
     7
100
AcDbVertex
100
AcDb2dVertex
 10
-816.4215522992728
 20
55.21108966263464
 30
0.0
  0
VERTEX
  5
3B3
330
34A
100
AcDbEntity
  8
CAPA_1
 62
     7
100
AcDbVertex
100
AcDb2dVertex
 10
-816.6143638336802
 20
55.60313235669306
 30
0.0
  0
VERTEX
  5
3B4
330
34A
100
AcDbEntity
  8
CAPA_1
 62
     7
100
AcDbVertex
100
AcDb2dVertex
 10
-816.8020178292171
 20
55.9981535793775
 30
0.0
  0
VERTEX
  5
3B5
330
34A
100
AcDbEntity
  8
CAPA_1
 62
     7
100
AcDbVertex
100
AcDb2dVertex
 10
-816.9845351906154
 20
56.39594773842447
 30
0.0
  0
VERTEX
  5
3B6
330
34A
100
AcDbEntity
  8
CAPA_1
 62
     7
100
AcDbVertex
100
AcDb2dVertex
 10
-817.1619368226065
 20
56.79630924157047
 30
0.0
  0
VERTEX
  5
3B7
330
34A
100
AcDbEntity
  8
CAPA_1
 62
     7
100
AcDbVertex
100
AcDb2dVertex
 10
-817.3342436299224
 20
57.19903249655202
 30
0.0
  0
VERTEX
  5
3B8
330
34A
100
AcDbEntity
  8
CAPA_1
 62
     7
100
AcDbVertex
100
AcDb2dVertex
 10
-817.5014765172949
 20
57.60391191110563
 30
0.0
  0
VERTEX
  5
3B9
330
34A
100
AcDbEntity
  8
CAPA_1
 62
     7
100
AcDbVertex
100
AcDb2dVertex
 10
-817.6636563894556
 20
58.01074189296782
 30
0.0
  0
VERTEX
  5
3BA
330
34A
100
AcDbEntity
  8
CAPA_1
 62
     7
100
AcDbVertex
100
AcDb2dVertex
 10
-817.8208041511365
 20
58.4193168498751
 30
0.0
  0
VERTEX
  5
3BB
330
34A
100
AcDbEntity
  8
CAPA_1
 62
     7
100
AcDbVertex
100
AcDb2dVertex
 10
-817.972940707069
 20
58.82943118956398
 30
0.0
  0
VERTEX
  5
3BC
330
34A
100
AcDbEntity
  8
CAPA_1
 62
     7
100
AcDbVertex
100
AcDb2dVertex
 10
-818.120086961985
 20
59.24087931977095
 30
0.0
  0
VERTEX
  5
3BD
330
34A
100
AcDbEntity
  8
CAPA_1
 62
     7
100
AcDbVertex
100
AcDb2dVertex
 10
-818.2622638206161
 20
59.65345564823256
 30
0.0
  0
VERTEX
  5
3BE
330
34A
100
AcDbEntity
  8
CAPA_1
 62
     7
100
AcDbVertex
100
AcDb2dVertex
 10
-818.3994921876942
 20
60.0669545826853
 30
0.0
  0
VERTEX
  5
3BF
330
34A
100
AcDbEntity
  8
CAPA_1
 62
     7
100
AcDbVertex
100
AcDb2dVertex
 10
-818.5317929679511
 20
60.48117053086568
 30
0.0
  0
VERTEX
  5
3C0
330
34A
100
AcDbEntity
  8
CAPA_1
 62
     7
100
AcDbVertex
100
AcDb2dVertex
 10
-818.6591870661185
 20
60.89589790051021
 30
0.0
  0
VERTEX
  5
3C1
330
34A
100
AcDbEntity
  8
CAPA_1
 62
     7
100
AcDbVertex
100
AcDb2dVertex
 10
-818.781695386928
 20
61.31093109935542
 30
0.0
  0
VERTEX
  5
3C2
330
34A
100
AcDbEntity
  8
CAPA_1
 62
     7
100
AcDbVertex
100
AcDb2dVertex
 10
-818.8993388351116
 20
61.72606453513781
 30
0.0
  0
VERTEX
  5
3C3
330
34A
100
AcDbEntity
  8
CAPA_1
 62
     7
100
AcDbVertex
100
AcDb2dVertex
 10
-819.0121383154008
 20
62.14109261559389
 30
0.0
  0
VERTEX
  5
3C4
330
34A
100
AcDbEntity
  8
CAPA_1
 62
     7
100
AcDbVertex
100
AcDb2dVertex
 10
-819.1201147325276
 20
62.55580974846017
 30
0.0
  0
VERTEX
  5
3C5
330
34A
100
AcDbEntity
  8
CAPA_1
 62
     7
100
AcDbVertex
100
AcDb2dVertex
 10
-819.2232889912234
 20
62.97001034147316
 30
0.0
  0
VERTEX
  5
3C6
330
34A
100
AcDbEntity
  8
CAPA_1
 62
     7
100
AcDbVertex
100
AcDb2dVertex
 10
-819.3216819962201
 20
63.38348880236938
 30
0.0
  0
VERTEX
  5
3C7
330
34A
100
AcDbEntity
  8
CAPA_1
 62
     7
100
AcDbVertex
100
AcDb2dVertex
 10
-819.4153146522497
 20
63.79603953888535
 30
0.0
  0
VERTEX
  5
3C8
330
34A
100
AcDbEntity
  8
CAPA_1
 62
     7
100
AcDbVertex
100
AcDb2dVertex
 10
-819.5042078640436
 20
64.20745695875756
 30
0.0
  0
VERTEX
  5
3C9
330
34A
100
AcDbEntity
  8
CAPA_1
 62
     7
100
AcDbVertex
100
AcDb2dVertex
 10
-819.5883825363337
 20
64.61753546972254
 30
0.0
  0
VERTEX
  5
3CA
330
34A
100
AcDbEntity
  8
CAPA_1
 62
     7
100
AcDbVertex
100
AcDb2dVertex
 10
-819.6678595738517
 20
65.02606947951679
 30
0.0
  0
VERTEX
  5
3CB
330
34A
100
AcDbEntity
  8
CAPA_1
 62
     7
100
AcDbVertex
100
AcDb2dVertex
 10
-819.7426598813295
 20
65.43285339587683
 30
0.0
  0
VERTEX
  5
3CC
330
34A
100
AcDbEntity
  8
CAPA_1
 62
     7
100
AcDbVertex
100
AcDb2dVertex
 10
-819.8128043634986
 20
65.83768162653917
 30
0.0
  0
VERTEX
  5
3CD
330
34A
100
AcDbEntity
  8
CAPA_1
 62
     7
100
AcDbVertex
100
AcDb2dVertex
 10
-819.8783139250908
 20
66.2403485792403
 30
0.0
  0
VERTEX
  5
3CE
330
34A
100
AcDbEntity
  8
CAPA_1
 62
     7
100
AcDbVertex
100
AcDb2dVertex
 10
-819.9392094708378
 20
66.64064866171677
 30
0.0
  0
VERTEX
  5
3CF
330
34A
100
AcDbEntity
  8
CAPA_1
 62
     7
100
AcDbVertex
100
AcDb2dVertex
 10
-819.9955119054715
 20
67.03837628170507
 30
0.0
  0
VERTEX
  5
3D0
330
34A
100
AcDbEntity
  8
CAPA_1
 62
     7
100
AcDbVertex
100
AcDb2dVertex
 10
-820.0472421337238
 20
67.43332584694173
 30
0.0
  0
VERTEX
  5
3D1
330
34A
100
AcDbEntity
  8
CAPA_1
 62
     7
100
AcDbVertex
100
AcDb2dVertex
 10
-820.0944210603261
 20
67.82529176516323
 30
0.0
  0
VERTEX
  5
3D2
330
34A
100
AcDbEntity
  8
CAPA_1
 62
     7
100
AcDbVertex
100
AcDb2dVertex
 10
-820.1370695900104
 20
68.21406844410609
 30
0.0
  0
VERTEX
  5
3D3
330
34A
100
AcDbEntity
  8
CAPA_1
 62
     7
100
AcDbVertex
100
AcDb2dVertex
 10
-820.1656078655544
 20
68.49997673446427
 30
0.0
  0
VERTEX
  5
3D4
330
34A
100
AcDbEntity
  8
CAPA_1
 62
     7
100
AcDbVertex
100
AcDb2dVertex
 10
-820.1944699472381
 20
68.81321072849374
 30
0.0
  0
VERTEX
  5
3D5
330
34A
100
AcDbEntity
  8
CAPA_1
 62
     7
100
AcDbVertex
100
AcDb2dVertex
 10
-820.2531281217466
 20
69.52033697072997
 30
0.0
  0
VERTEX
  5
3D6
330
34A
100
AcDbEntity
  8
CAPA_1
 62
     7
100
AcDbVertex
100
AcDb2dVertex
 10
-820.3129692989812
 20
70.33280945714152
 30
0.0
  0
VERTEX
  5
3D7
330
34A
100
AcDbEntity
  8
CAPA_1
 62
     7
100
AcDbVertex
100
AcDb2dVertex
 10
-820.3739186643868
 20
71.24799047405514
 30
0.0
  0
VERTEX
  5
3D8
330
34A
100
AcDbEntity
  8
CAPA_1
 62
     7
100
AcDbVertex
100
AcDb2dVertex
 10
-820.4359014034087
 20
72.26324230779758
 30
0.0
  0
VERTEX
  5
3D9
330
34A
100
AcDbEntity
  8
CAPA_1
 62
     7
100
AcDbVertex
100
AcDb2dVertex
 10
-820.4988427014921
 20
73.37592724469559
 30
0.0
  0
VERTEX
  5
3DA
330
34A
100
AcDbEntity
  8
CAPA_1
 62
     7
100
AcDbVertex
100
AcDb2dVertex
 10
-820.5626677440821
 20
74.58340757107592
 30
0.0
  0
VERTEX
  5
3DB
330
34A
100
AcDbEntity
  8
CAPA_1
 62
     7
100
AcDbVertex
100
AcDb2dVertex
 10
-820.6273017166238
 20
75.88304557326533
 30
0.0
  0
VERTEX
  5
3DC
330
34A
100
AcDbEntity
  8
CAPA_1
 62
     7
100
AcDbVertex
100
AcDb2dVertex
 10
-820.6926698045626
 20
77.27220353759057
 30
0.0
  0
VERTEX
  5
3DD
330
34A
100
AcDbEntity
  8
CAPA_1
 62
     7
100
AcDbVertex
100
AcDb2dVertex
 10
-820.7586971933434
 20
78.74824375037836
 30
0.0
  0
VERTEX
  5
3DE
330
34A
100
AcDbEntity
  8
CAPA_1
 62
     7
100
AcDbVertex
100
AcDb2dVertex
 10
-820.8253090684116
 20
80.30852849795548
 30
0.0
  0
VERTEX
  5
3DF
330
34A
100
AcDbEntity
  8
CAPA_1
 62
     7
100
AcDbVertex
100
AcDb2dVertex
 10
-820.8924306152122
 20
81.95042006664869
 30
0.0
  0
VERTEX
  5
3E0
330
34A
100
AcDbEntity
  8
CAPA_1
 62
     7
100
AcDbVertex
100
AcDb2dVertex
 10
-820.9599870191905
 20
83.67128074278472
 30
0.0
  0
VERTEX
  5
3E1
330
34A
100
AcDbEntity
  8
CAPA_1
 62
     7
100
AcDbVertex
100
AcDb2dVertex
 10
-821.0279034657915
 20
85.4684728126903
 30
0.0
  0
VERTEX
  5
3E2
330
34A
100
AcDbEntity
  8
CAPA_1
 62
     7
100
AcDbVertex
100
AcDb2dVertex
 10
-821.0961051404604
 20
87.33935856269221
 30
0.0
  0
VERTEX
  5
3E3
330
34A
100
AcDbEntity
  8
CAPA_1
 62
     7
100
AcDbVertex
100
AcDb2dVertex
 10
-821.1645172286425
 20
89.28130027911719
 30
0.0
  0
VERTEX
  5
3E4
330
34A
100
AcDbEntity
  8
CAPA_1
 62
     7
100
AcDbVertex
100
AcDb2dVertex
 10
-821.233064915783
 20
91.29166024829198
 30
0.0
  0
VERTEX
  5
3E5
330
34A
100
AcDbEntity
  8
CAPA_1
 62
     7
100
AcDbVertex
100
AcDb2dVertex
 10
-821.3016733873268
 20
93.36780075654337
 30
0.0
  0
VERTEX
  5
3E6
330
34A
100
AcDbEntity
  8
CAPA_1
 62
     7
100
AcDbVertex
100
AcDb2dVertex
 10
-821.4387734254055
 20
97.70687253558285
 30
0.0
  0
VERTEX
  5
3E7
330
34A
100
AcDbEntity
  8
CAPA_1
 62
     7
100
AcDbVertex
100
AcDb2dVertex
 10
-821.5752188264403
 20
102.2774139068496
 30
0.0
  0
VERTEX
  5
3E8
330
34A
100
AcDbEntity
  8
CAPA_1
 62
     7
100
AcDbVertex
100
AcDb2dVertex
 10
-821.7104110739922
 20
107.0583231609577
 30
0.0
  0
VERTEX
  5
3E9
330
34A
100
AcDbEntity
  8
CAPA_1
 62
     7
100
AcDbVertex
100
AcDb2dVertex
 10
-821.8437516516227
 20
112.028498588521
 30
0.0
  0
VERTEX
  5
3EA
330
34A
100
AcDbEntity
  8
CAPA_1
 62
     7
100
AcDbVertex
100
AcDb2dVertex
 10
-821.9746420428933
 20
117.1668384801537
 30
0.0
  0
VERTEX
  5
3EB
330
34A
100
AcDbEntity
  8
CAPA_1
 62
     7
100
AcDbVertex
100
AcDb2dVertex
 10
-822.1024837313648
 20
122.4522411264696
 30
0.0
  0
VERTEX
  5
3EC
330
34A
100
AcDbEntity
  8
CAPA_1
 62
     7
100
AcDbVertex
100
AcDb2dVertex
 10
-822.2266782005993
 20
127.8636048180828
 30
0.0
  0
SEQEND
  5
3ED
330
34A
100
AcDbEntity
  8
CAPA_1
 62
     7
  0
POLYLINE
  5
3EE
330
1F
100
AcDbEntity
  8
CAPA_1
 62
     7
100
AcDb2dPolyline
 66
     1
 10
0.0
 20
0.0
 30
0.0
  0
VERTEX
  5
3EF
330
3EE
100
AcDbEntity
  8
CAPA_1
 62
     7
100
AcDbVertex
100
AcDb2dVertex
 10
-822.2266782005993
 20
127.8636048180828
 30
0.0
  0
VERTEX
  5
3F0
330
3EE
100
AcDbEntity
  8
CAPA_1
 62
     7
100
AcDbVertex
100
AcDb2dVertex
 10
-822.2407577222671
 20
128.373813424447
 30
0.0
  0
VERTEX
  5
3F1
330
3EE
100
AcDbEntity
  8
CAPA_1
 62
     7
100
AcDbVertex
100
AcDb2dVertex
 10
-822.2600733192746
 20
128.8820807986684
 30
0.0
  0
VERTEX
  5
3F2
330
3EE
100
AcDbEntity
  8
CAPA_1
 62
     7
100
AcDbVertex
100
AcDb2dVertex
 10
-822.2845404614939
 20
129.3885257379007
 30
0.0
  0
VERTEX
  5
3F3
330
3EE
100
AcDbEntity
  8
CAPA_1
 62
     7
100
AcDbVertex
100
AcDb2dVertex
 10
-822.3140746187971
 20
129.8932670392975
 30
0.0
  0
VERTEX
  5
3F4
330
3EE
100
AcDbEntity
  8
CAPA_1
 62
     7
100
AcDbVertex
100
AcDb2dVertex
 10
-822.3485912610564
 20
130.3964235000122
 30
0.0
  0
VERTEX
  5
3F5
330
3EE
100
AcDbEntity
  8
CAPA_1
 62
     7
100
AcDbVertex
100
AcDb2dVertex
 10
-822.3880058581441
 20
130.8981139171987
 30
0.0
  0
VERTEX
  5
3F6
330
3EE
100
AcDbEntity
  8
CAPA_1
 62
     7
100
AcDbVertex
100
AcDb2dVertex
 10
-822.4322338799321
 20
131.3984570880103
 30
0.0
  0
VERTEX
  5
3F7
330
3EE
100
AcDbEntity
  8
CAPA_1
 62
     7
100
AcDbVertex
100
AcDb2dVertex
 10
-822.4811907962929
 20
131.8975718096009
 30
0.0
  0
VERTEX
  5
3F8
330
3EE
100
AcDbEntity
  8
CAPA_1
 62
     7
100
AcDbVertex
100
AcDb2dVertex
 10
-822.5347920770986
 20
132.3955768791238
 30
0.0
  0
VERTEX
  5
3F9
330
3EE
100
AcDbEntity
  8
CAPA_1
 62
     7
100
AcDbVertex
100
AcDb2dVertex
 10
-822.5929531922212
 20
132.8925910937329
 30
0.0
  0
VERTEX
  5
3FA
330
3EE
100
AcDbEntity
  8
CAPA_1
 62
     7
100
AcDbVertex
100
AcDb2dVertex
 10
-822.6555896115331
 20
133.3887332505816
 30
0.0
  0
VERTEX
  5
3FB
330
3EE
100
AcDbEntity
  8
CAPA_1
 62
     7
100
AcDbVertex
100
AcDb2dVertex
 10
-822.7226168049062
 20
133.8841221468236
 30
0.0
  0
VERTEX
  5
3FC
330
3EE
100
AcDbEntity
  8
CAPA_1
 62
     7
100
AcDbVertex
100
AcDb2dVertex
 10
-822.7939502422132
 20
134.3788765796124
 30
0.0
  0
VERTEX
  5
3FD
330
3EE
100
AcDbEntity
  8
CAPA_1
 62
     7
100
AcDbVertex
100
AcDb2dVertex
 10
-822.8695053933257
 20
134.8731153461018
 30
0.0
  0
VERTEX
  5
3FE
330
3EE
100
AcDbEntity
  8
CAPA_1
 62
     7
100
AcDbVertex
100
AcDb2dVertex
 10
-822.9491977281161
 20
135.3669572434451
 30
0.0
  0
VERTEX
  5
3FF
330
3EE
100
AcDbEntity
  8
CAPA_1
 62
     7
100
AcDbVertex
100
AcDb2dVertex
 10
-823.0329427164565
 20
135.8605210687962
 30
0.0
  0
VERTEX
  5
400
330
3EE
100
AcDbEntity
  8
CAPA_1
 62
     7
100
AcDbVertex
100
AcDb2dVertex
 10
-823.1206558282192
 20
136.3539256193085
 30
0.0
  0
VERTEX
  5
401
330
3EE
100
AcDbEntity
  8
CAPA_1
 62
     7
100
AcDbVertex
100
AcDb2dVertex
 10
-823.2122525332766
 20
136.8472896921357
 30
0.0
  0
VERTEX
  5
402
330
3EE
100
AcDbEntity
  8
CAPA_1
 62
     7
100
AcDbVertex
100
AcDb2dVertex
 10
-823.3076483015004
 20
137.3407320844314
 30
0.0
  0
VERTEX
  5
403
330
3EE
100
AcDbEntity
  8
CAPA_1
 62
     7
100
AcDbVertex
100
AcDb2dVertex
 10
-823.4067586027631
 20
137.8343715933491
 30
0.0
  0
VERTEX
  5
404
330
3EE
100
AcDbEntity
  8
CAPA_1
 62
     7
100
AcDbVertex
100
AcDb2dVertex
 10
-823.5094989069369
 20
138.3283270160426
 30
0.0
  0
VERTEX
  5
405
330
3EE
100
AcDbEntity
  8
CAPA_1
 62
     7
100
AcDbVertex
100
AcDb2dVertex
 10
-823.6157846838936
 20
138.8227171496654
 30
0.0
  0
VERTEX
  5
406
330
3EE
100
AcDbEntity
  8
CAPA_1
 62
     7
100
AcDbVertex
100
AcDb2dVertex
 10
-823.7255314035058
 20
139.317660791371
 30
0.0
  0
VERTEX
  5
407
330
3EE
100
AcDbEntity
  8
CAPA_1
 62
     7
100
AcDbVertex
100
AcDb2dVertex
 10
-823.8386545356453
 20
139.8132767383131
 30
0.0
  0
VERTEX
  5
408
330
3EE
100
AcDbEntity
  8
CAPA_1
 62
     7
100
AcDbVertex
100
AcDb2dVertex
 10
-823.9550695501846
 20
140.3096837876453
 30
0.0
  0
VERTEX
  5
409
330
3EE
100
AcDbEntity
  8
CAPA_1
 62
     7
100
AcDbVertex
100
AcDb2dVertex
 10
-824.0746919169958
 20
140.8070007365212
 30
0.0
  0
VERTEX
  5
40A
330
3EE
100
AcDbEntity
  8
CAPA_1
 62
     7
100
AcDbVertex
100
AcDb2dVertex
 10
-824.1974371059509
 20
141.3053463820944
 30
0.0
  0
VERTEX
  5
40B
330
3EE
100
AcDbEntity
  8
CAPA_1
 62
     7
100
AcDbVertex
100
AcDb2dVertex
 10
-824.3232205869226
 20
141.8048395215185
 30
0.0
  0
VERTEX
  5
40C
330
3EE
100
AcDbEntity
  8
CAPA_1
 62
     7
100
AcDbVertex
100
AcDb2dVertex
 10
-824.4519578297825
 20
142.305598951947
 30
0.0
  0
VERTEX
  5
40D
330
3EE
100
AcDbEntity
  8
CAPA_1
 62
     7
100
AcDbVertex
100
AcDb2dVertex
 10
-824.583564304403
 20
142.8077434705338
 30
0.0
  0
VERTEX
  5
40E
330
3EE
100
AcDbEntity
  8
CAPA_1
 62
     7
100
AcDbVertex
100
AcDb2dVertex
 10
-824.7179554806562
 20
143.3113918744321
 30
0.0
  0
VERTEX
  5
40F
330
3EE
100
AcDbEntity
  8
CAPA_1
 62
     7
100
AcDbVertex
100
AcDb2dVertex
 10
-824.8550468284143
 20
143.8166629607958
 30
0.0
  0
VERTEX
  5
410
330
3EE
100
AcDbEntity
  8
CAPA_1
 62
     7
100
AcDbVertex
100
AcDb2dVertex
 10
-825.136991917934
 20
144.8325483695336
 30
0.0
  0
VERTEX
  5
411
330
3EE
100
AcDbEntity
  8
CAPA_1
 62
     7
100
AcDbVertex
100
AcDb2dVertex
 10
-825.4287233319398
 20
145.8563500739758
 30
0.0
  0
VERTEX
  5
412
330
3EE
100
AcDbEntity
  8
CAPA_1
 62
     7
100
AcDbVertex
100
AcDb2dVertex
 10
-825.7295648294088
 20
146.8890184513512
 30
0.0
  0
VERTEX
  5
413
330
3EE
100
AcDbEntity
  8
CAPA_1
 62
     7
100
AcDbVertex
100
AcDb2dVertex
 10
-826.0388401693185
 20
147.9315038788887
 30
0.0
  0
VERTEX
  5
414
330
3EE
100
AcDbEntity
  8
CAPA_1
 62
     7
100
AcDbVertex
100
AcDb2dVertex
 10
-826.3558731106464
 20
148.9847567338172
 30
0.0
  0
VERTEX
  5
415
330
3EE
100
AcDbEntity
  8
CAPA_1
 62
     7
100
AcDbVertex
100
AcDb2dVertex
 10
-826.6799874123698
 20
150.0497273933653
 30
0.0
  0
VERTEX
  5
416
330
3EE
100
AcDbEntity
  8
CAPA_1
 62
     7
100
AcDbVertex
100
AcDb2dVertex
 10
-827.3467551329129
 20
152.2186236352361
 30
0.0
  0
VERTEX
  5
417
330
3EE
100
AcDbEntity
  8
CAPA_1
 62
     7
100
AcDbVertex
100
AcDb2dVertex
 10
-828.0337334027674
 20
154.4457956223316
 30
0.0
  0
VERTEX
  5
418
330
3EE
100
AcDbEntity
  8
CAPA_1
 62
     7
100
AcDbVertex
100
AcDb2dVertex
 10
-828.3831108911302
 20
155.5836109634106
 30
0.0
  0
VERTEX
  5
419
330
3EE
100
AcDbEntity
  8
CAPA_1
 62
     7
100
AcDbVertex
100
AcDb2dVertex
 10
-828.7355122937529
 20
156.7388463724822
 30
0.0
  0
VERTEX
  5
41A
330
3EE
100
AcDbEntity
  8
CAPA_1
 62
     7
100
AcDbVertex
100
AcDb2dVertex
 10
-829.0902613696131
 20
157.9124522267753
 30
0.0
  0
VERTEX
  5
41B
330
3EE
100
AcDbEntity
  8
CAPA_1
 62
     7
100
AcDbVertex
100
AcDb2dVertex
 10
-829.4466818776882
 20
159.1053789035187
 30
0.0
  0
VERTEX
  5
41C
330
3EE
100
AcDbEntity
  8
CAPA_1
 62
     7
100
AcDbVertex
100
AcDb2dVertex
 10
-829.8040975769559
 20
160.3185767799411
 30
0.0
  0
VERTEX
  5
41D
330
3EE
100
AcDbEntity
  8
CAPA_1
 62
     7
100
AcDbVertex
100
AcDb2dVertex
 10
-830.1618322263932
 20
161.5529962332714
 30
0.0
  0
VERTEX
  5
41E
330
3EE
100
AcDbEntity
  8
CAPA_1
 62
     7
100
AcDbVertex
100
AcDb2dVertex
 10
-830.5192095849778
 20
162.8095876407384
 30
0.0
  0
VERTEX
  5
41F
330
3EE
100
AcDbEntity
  8
CAPA_1
 62
     7
100
AcDbVertex
100
AcDb2dVertex
 10
-830.8755534116871
 20
164.089301379571
 30
0.0
  0
VERTEX
  5
420
330
3EE
100
AcDbEntity
  8
CAPA_1
 62
     7
100
AcDbVertex
100
AcDb2dVertex
 10
-831.0531264252688
 20
164.7381261161334
 30
0.0
  0
VERTEX
  5
421
330
3EE
100
AcDbEntity
  8
CAPA_1
 62
     7
100
AcDbVertex
100
AcDb2dVertex
 10
-831.2301874654984
 20
165.3930878269979
 30
0.0
  0
VERTEX
  5
422
330
3EE
100
AcDbEntity
  8
CAPA_1
 62
     7
100
AcDbVertex
100
AcDb2dVertex
 10
-831.4066520022477
 20
166.0543053093182
 30
0.0
  0
VERTEX
  5
423
330
3EE
100
AcDbEntity
  8
CAPA_1
 62
     7
100
AcDbVertex
100
AcDb2dVertex
 10
-831.5824355053892
 20
166.721897360248
 30
0.0
  0
VERTEX
  5
424
330
3EE
100
AcDbEntity
  8
CAPA_1
 62
     7
100
AcDbVertex
100
AcDb2dVertex
 10
-831.7574534447949
 20
167.3959827769407
 30
0.0
  0
VERTEX
  5
425
330
3EE
100
AcDbEntity
  8
CAPA_1
 62
     7
100
AcDbVertex
100
AcDb2dVertex
 10
-831.9316212903368
 20
168.07668035655
 30
0.0
  0
VERTEX
  5
426
330
3EE
100
AcDbEntity
  8
CAPA_1
 62
     7
100
AcDbVertex
100
AcDb2dVertex
 10
-832.1048545118874
 20
168.7641088962295
 30
0.0
  0
VERTEX
  5
427
330
3EE
100
AcDbEntity
  8
CAPA_1
 62
     7
100
AcDbVertex
100
AcDb2dVertex
 10
-832.277068579319
 20
169.4583871931328
 30
0.0
  0
VERTEX
  5
428
330
3EE
100
AcDbEntity
  8
CAPA_1
 62
     7
100
AcDbVertex
100
AcDb2dVertex
 10
-832.4481789625033
 20
170.1596340444135
 30
0.0
  0
VERTEX
  5
429
330
3EE
100
AcDbEntity
  8
CAPA_1
 62
     7
100
AcDbVertex
100
AcDb2dVertex
 10
-832.6181011313129
 20
170.8679682472253
 30
0.0
  0
VERTEX
  5
42A
330
3EE
100
AcDbEntity
  8
CAPA_1
 62
     7
100
AcDbVertex
100
AcDb2dVertex
 10
-832.7867505556196
 20
171.5835085987216
 30
0.0
  0
VERTEX
  5
42B
330
3EE
100
AcDbEntity
  8
CAPA_1
 62
     7
100
AcDbVertex
100
AcDb2dVertex
 10
-832.9540427052959
 20
172.3063738960562
 30
0.0
  0
VERTEX
  5
42C
330
3EE
100
AcDbEntity
  8
CAPA_1
 62
     7
100
AcDbVertex
100
AcDb2dVertex
 10
-833.1198930502138
 20
173.0366829363825
 30
0.0
  0
VERTEX
  5
42D
330
3EE
100
AcDbEntity
  8
CAPA_1
 62
     7
100
AcDbVertex
100
AcDb2dVertex
 10
-833.2842170602455
 20
173.7745545168543
 30
0.0
  0
VERTEX
  5
42E
330
3EE
100
AcDbEntity
  8
CAPA_1
 62
     7
100
AcDbVertex
100
AcDb2dVertex
 10
-833.4469302052632
 20
174.5201074346251
 30
0.0
  0
VERTEX
  5
42F
330
3EE
100
AcDbEntity
  8
CAPA_1
 62
     7
100
AcDbVertex
100
AcDb2dVertex
 10
-833.6079479551391
 20
175.2734604868484
 30
0.0
  0
VERTEX
  5
430
330
3EE
100
AcDbEntity
  8
CAPA_1
 62
     7
100
AcDbVertex
100
AcDb2dVertex
 10
-833.7671857797455
 20
176.0347324706781
 30
0.0
  0
VERTEX
  5
431
330
3EE
100
AcDbEntity
  8
CAPA_1
 62
     7
100
AcDbVertex
100
AcDb2dVertex
 10
-833.9245591489542
 20
176.8040421832675
 30
0.0
  0
VERTEX
  5
432
330
3EE
100
AcDbEntity
  8
CAPA_1
 62
     7
100
AcDbVertex
100
AcDb2dVertex
 10
-834.0799835326378
 20
177.5815084217704
 30
0.0
  0
VERTEX
  5
433
330
3EE
100
AcDbEntity
  8
CAPA_1
 62
     7
100
AcDbVertex
100
AcDb2dVertex
 10
-834.2333744006683
 20
178.3672499833403
 30
0.0
  0
VERTEX
  5
434
330
3EE
100
AcDbEntity
  8
CAPA_1
 62
     7
100
AcDbVertex
100
AcDb2dVertex
 10
-834.3846472229178
 20
179.1613856651308
 30
0.0
  0
VERTEX
  5
435
330
3EE
100
AcDbEntity
  8
CAPA_1
 62
     7
100
AcDbVertex
100
AcDb2dVertex
 10
-834.5337174692586
 20
179.9640342642956
 30
0.0
  0
VERTEX
  5
436
330
3EE
100
AcDbEntity
  8
CAPA_1
 62
     7
100
AcDbVertex
100
AcDb2dVertex
 10
-834.6805006095628
 20
180.7753145779882
 30
0.0
  0
VERTEX
  5
437
330
3EE
100
AcDbEntity
  8
CAPA_1
 62
     7
100
AcDbVertex
100
AcDb2dVertex
 10
-834.8249121137027
 20
181.5953454033622
 30
0.0
  0
VERTEX
  5
438
330
3EE
100
AcDbEntity
  8
CAPA_1
 62
     7
100
AcDbVertex
100
AcDb2dVertex
 10
-834.9668674515503
 20
182.4242455375712
 30
0.0
  0
VERTEX
  5
439
330
3EE
100
AcDbEntity
  8
CAPA_1
 62
     7
100
AcDbVertex
100
AcDb2dVertex
 10
-835.1062820929778
 20
183.262133777769
 30
0.0
  0
VERTEX
  5
43A
330
3EE
100
AcDbEntity
  8
CAPA_1
 62
     7
100
AcDbVertex
100
AcDb2dVertex
 10
-835.2430715078576
 20
184.1091289211089
 30
0.0
  0
VERTEX
  5
43B
330
3EE
100
AcDbEntity
  8
CAPA_1
 62
     7
100
AcDbVertex
100
AcDb2dVertex
 10
-835.3771511660616
 20
184.9653497647447
 30
0.0
  0
VERTEX
  5
43C
330
3EE
100
AcDbEntity
  8
CAPA_1
 62
     7
100
AcDbVertex
100
AcDb2dVertex
 10
-835.5084365374621
 20
185.8309151058299
 30
0.0
  0
VERTEX
  5
43D
330
3EE
100
AcDbEntity
  8
CAPA_1
 62
     7
100
AcDbVertex
100
AcDb2dVertex
 10
-835.6368430919313
 20
186.7059437415182
 30
0.0
  0
VERTEX
  5
43E
330
3EE
100
AcDbEntity
  8
CAPA_1
 62
     7
100
AcDbVertex
100
AcDb2dVertex
 10
-835.7622862993412
 20
187.5905544689631
 30
0.0
  0
VERTEX
  5
43F
330
3EE
100
AcDbEntity
  8
CAPA_1
 62
     7
100
AcDbVertex
100
AcDb2dVertex
 10
-835.8846816295645
 20
188.4848660853183
 30
0.0
  0
VERTEX
  5
440
330
3EE
100
AcDbEntity
  8
CAPA_1
 62
     7
100
AcDbVertex
100
AcDb2dVertex
 10
-836.0039445524728
 20
189.3889973877374
 30
0.0
  0
VERTEX
  5
441
330
3EE
100
AcDbEntity
  8
CAPA_1
 62
     7
100
AcDbVertex
100
AcDb2dVertex
 10
-836.1199905379386
 20
190.3030671733739
 30
0.0
  0
VERTEX
  5
442
330
3EE
100
AcDbEntity
  8
CAPA_1
 62
     7
100
AcDbVertex
100
AcDb2dVertex
 10
-836.2327350558338
 20
191.2271942393814
 30
0.0
  0
VERTEX
  5
443
330
3EE
100
AcDbEntity
  8
CAPA_1
 62
     7
100
AcDbVertex
100
AcDb2dVertex
 10
-836.3420935760308
 20
192.1614973829136
 30
0.0
  0
VERTEX
  5
444
330
3EE
100
AcDbEntity
  8
CAPA_1
 62
     7
100
AcDbVertex
100
AcDb2dVertex
 10
-836.4479815684017
 20
193.1060954011241
 30
0.0
  0
VERTEX
  5
445
330
3EE
100
AcDbEntity
  8
CAPA_1
 62
     7
100
AcDbVertex
100
AcDb2dVertex
 10
-836.5503145028188
 20
194.0611070911665
 30
0.0
  0
VERTEX
  5
446
330
3EE
100
AcDbEntity
  8
CAPA_1
 62
     7
100
AcDbVertex
100
AcDb2dVertex
 10
-836.649007849154
 20
195.0266512501943
 30
0.0
  0
VERTEX
  5
447
330
3EE
100
AcDbEntity
  8
CAPA_1
 62
     7
100
AcDbVertex
100
AcDb2dVertex
 10
-836.7439770772799
 20
196.0028466753611
 30
0.0
  0
VERTEX
  5
448
330
3EE
100
AcDbEntity
  8
CAPA_1
 62
     7
100
AcDbVertex
100
AcDb2dVertex
 10
-836.8351376570683
 20
196.9898121638207
 30
0.0
  0
VERTEX
  5
449
330
3EE
100
AcDbEntity
  8
CAPA_1
 62
     7
100
AcDbVertex
100
AcDb2dVertex
 10
-836.9224050583916
 20
197.9876665127265
 30
0.0
  0
VERTEX
  5
44A
330
3EE
100
AcDbEntity
  8
CAPA_1
 62
     7
100
AcDbVertex
100
AcDb2dVertex
 10
-837.0056947511218
 20
198.9965285192322
 30
0.0
  0
VERTEX
  5
44B
330
3EE
100
AcDbEntity
  8
CAPA_1
 62
     7
100
AcDbVertex
100
AcDb2dVertex
 10
-837.0849222051312
 20
200.0165169804914
 30
0.0
  0
VERTEX
  5
44C
330
3EE
100
AcDbEntity
  8
CAPA_1
 62
     7
100
AcDbVertex
100
AcDb2dVertex
 10
-837.1600028902919
 20
201.0477506936577
 30
0.0
  0
VERTEX
  5
44D
330
3EE
100
AcDbEntity
  8
CAPA_1
 62
     7
100
AcDbVertex
100
AcDb2dVertex
 10
-837.2308522764762
 20
202.0903484558846
 30
0.0
  0
VERTEX
  5
44E
330
3EE
100
AcDbEntity
  8
CAPA_1
 62
     7
100
AcDbVertex
100
AcDb2dVertex
 10
-837.2973858335561
 20
203.1444290643259
 30
0.0
  0
VERTEX
  5
44F
330
3EE
100
AcDbEntity
  8
CAPA_1
 62
     7
100
AcDbVertex
100
AcDb2dVertex
 10
-837.3595190314039
 20
204.210111316135
 30
0.0
  0
VERTEX
  5
450
330
3EE
100
AcDbEntity
  8
CAPA_1
 62
     7
100
AcDbVertex
100
AcDb2dVertex
 10
-837.4171673398919
 20
205.2875140084656
 30
0.0
  0
VERTEX
  5
451
330
3EE
100
AcDbEntity
  8
CAPA_1
 62
     7
100
AcDbVertex
100
AcDb2dVertex
 10
-837.4702462288919
 20
206.3767559384713
 30
0.0
  0
VERTEX
  5
452
330
3EE
100
AcDbEntity
  8
CAPA_1
 62
     7
100
AcDbVertex
100
AcDb2dVertex
 10
-837.5186711682766
 20
207.4779559033057
 30
0.0
  0
VERTEX
  5
453
330
3EE
100
AcDbEntity
  8
CAPA_1
 62
     7
100
AcDbVertex
100
AcDb2dVertex
 10
-837.5623576279177
 20
208.5912327001224
 30
0.0
  0
VERTEX
  5
454
330
3EE
100
AcDbEntity
  8
CAPA_1
 62
     7
100
AcDbVertex
100
AcDb2dVertex
 10
-837.6012210776875
 20
209.7167051260749
 30
0.0
  0
VERTEX
  5
455
330
3EE
100
AcDbEntity
  8
CAPA_1
 62
     7
100
AcDbVertex
100
AcDb2dVertex
 10
-837.6351769874584
 20
210.854491978317
 30
0.0
  0
VERTEX
  5
456
330
3EE
100
AcDbEntity
  8
CAPA_1
 62
     7
100
AcDbVertex
100
AcDb2dVertex
 10
-837.6641408271023
 20
212.0047120540022
 30
0.0
  0
VERTEX
  5
457
330
3EE
100
AcDbEntity
  8
CAPA_1
 62
     7
100
AcDbVertex
100
AcDb2dVertex
 10
-837.6880280664916
 20
213.1674841502841
 30
0.0
  0
VERTEX
  5
458
330
3EE
100
AcDbEntity
  8
CAPA_1
 62
     7
100
AcDbVertex
100
AcDb2dVertex
 10
-837.7067541754983
 20
214.3429270643163
 30
0.0
  0
VERTEX
  5
459
330
3EE
100
AcDbEntity
  8
CAPA_1
 62
     7
100
AcDbVertex
100
AcDb2dVertex
 10
-837.7202346239948
 20
215.5311595932524
 30
0.0
  0
VERTEX
  5
45A
330
3EE
100
AcDbEntity
  8
CAPA_1
 62
     7
100
AcDbVertex
100
AcDb2dVertex
 10
-837.7283848818531
 20
216.732300534246
 30
0.0
  0
VERTEX
  5
45B
330
3EE
100
AcDbEntity
  8
CAPA_1
 62
     7
100
AcDbVertex
100
AcDb2dVertex
 10
-837.7311204189454
 20
217.9464686844507
 30
0.0
  0
VERTEX
  5
45C
330
3EE
100
AcDbEntity
  8
CAPA_1
 62
     7
100
AcDbVertex
100
AcDb2dVertex
 10
-837.72777165267
 20
218.9127892444787
 30
0.0
  0
VERTEX
  5
45D
330
3EE
100
AcDbEntity
  8
CAPA_1
 62
     7
100
AcDbVertex
100
AcDb2dVertex
 10
-837.7177365763766
 20
219.8772393237584
 30
0.0
  0
VERTEX
  5
45E
330
3EE
100
AcDbEntity
  8
CAPA_1
 62
     7
100
AcDbVertex
100
AcDb2dVertex
 10
-837.7010320238653
 20
220.8397286687953
 30
0.0
  0
VERTEX
  5
45F
330
3EE
100
AcDbEntity
  8
CAPA_1
 62
     7
100
AcDbVertex
100
AcDb2dVertex
 10
-837.6776748289353
 20
221.8001670260946
 30
0.0
  0
VERTEX
  5
460
330
3EE
100
AcDbEntity
  8
CAPA_1
 62
     7
100
AcDbVertex
100
AcDb2dVertex
 10
-837.6476818253866
 20
222.7584641421619
 30
0.0
  0
VERTEX
  5
461
330
3EE
100
AcDbEntity
  8
CAPA_1
 62
     7
100
AcDbVertex
100
AcDb2dVertex
 10
-837.6110698470188
 20
223.7145297635026
 30
0.0
  0
VERTEX
  5
462
330
3EE
100
AcDbEntity
  8
CAPA_1
 62
     7
100
AcDbVertex
100
AcDb2dVertex
 10
-837.5678557276315
 20
224.6682736366222
 30
0.0
  0
VERTEX
  5
463
330
3EE
100
AcDbEntity
  8
CAPA_1
 62
     7
100
AcDbVertex
100
AcDb2dVertex
 10
-837.5180563010244
 20
225.6196055080262
 30
0.0
  0
VERTEX
  5
464
330
3EE
100
AcDbEntity
  8
CAPA_1
 62
     7
100
AcDbVertex
100
AcDb2dVertex
 10
-837.4616884009972
 20
226.5684351242198
 30
0.0
  0
VERTEX
  5
465
330
3EE
100
AcDbEntity
  8
CAPA_1
 62
     7
100
AcDbVertex
100
AcDb2dVertex
 10
-837.3987688613497
 20
227.5146722317087
 30
0.0
  0
VERTEX
  5
466
330
3EE
100
AcDbEntity
  8
CAPA_1
 62
     7
100
AcDbVertex
100
AcDb2dVertex
 10
-837.3293145158815
 20
228.4582265769982
 30
0.0
  0
VERTEX
  5
467
330
3EE
100
AcDbEntity
  8
CAPA_1
 62
     7
100
AcDbVertex
100
AcDb2dVertex
 10
-837.2533421983921
 20
229.3990079065937
 30
0.0
  0
VERTEX
  5
468
330
3EE
100
AcDbEntity
  8
CAPA_1
 62
     7
100
AcDbVertex
100
AcDb2dVertex
 10
-837.1708687426815
 20
230.3369259670008
 30
0.0
  0
VERTEX
  5
469
330
3EE
100
AcDbEntity
  8
CAPA_1
 62
     7
100
AcDbVertex
100
AcDb2dVertex
 10
-837.0819109825491
 20
231.2718905047248
 30
0.0
  0
VERTEX
  5
46A
330
3EE
100
AcDbEntity
  8
CAPA_1
 62
     7
100
AcDbVertex
100
AcDb2dVertex
 10
-836.9864857517946
 20
232.2038112662712
 30
0.0
  0
VERTEX
  5
46B
330
3EE
100
AcDbEntity
  8
CAPA_1
 62
     7
100
AcDbVertex
100
AcDb2dVertex
 10
-836.8846098842178
 20
233.1325979981455
 30
0.0
  0
VERTEX
  5
46C
330
3EE
100
AcDbEntity
  8
CAPA_1
 62
     7
100
AcDbVertex
100
AcDb2dVertex
 10
-836.7763002136182
 20
234.058160446853
 30
0.0
  0
VERTEX
  5
46D
330
3EE
100
AcDbEntity
  8
CAPA_1
 62
     7
100
AcDbVertex
100
AcDb2dVertex
 10
-836.6615735737957
 20
234.9804083588993
 30
0.0
  0
VERTEX
  5
46E
330
3EE
100
AcDbEntity
  8
CAPA_1
 62
     7
100
AcDbVertex
100
AcDb2dVertex
 10
-836.5404467985499
 20
235.8992514807898
 30
0.0
  0
VERTEX
  5
46F
330
3EE
100
AcDbEntity
  8
CAPA_1
 62
     7
100
AcDbVertex
100
AcDb2dVertex
 10
-836.4129367216804
 20
236.8145995590298
 30
0.0
  0
VERTEX
  5
470
330
3EE
100
AcDbEntity
  8
CAPA_1
 62
     7
100
AcDbVertex
100
AcDb2dVertex
 10
-836.2790601769868
 20
237.726362340125
 30
0.0
  0
VERTEX
  5
471
330
3EE
100
AcDbEntity
  8
CAPA_1
 62
     7
100
AcDbVertex
100
AcDb2dVertex
 10
-836.1388339982691
 20
238.6344495705806
 30
0.0
  0
VERTEX
  5
472
330
3EE
100
AcDbEntity
  8
CAPA_1
 62
     7
100
AcDbVertex
100
AcDb2dVertex
 10
-835.9922750193266
 20
239.5387709969021
 30
0.0
  0
VERTEX
  5
473
330
3EE
100
AcDbEntity
  8
CAPA_1
 62
     7
100
AcDbVertex
100
AcDb2dVertex
 10
-835.8394000739593
 20
240.4392363655951
 30
0.0
  0
VERTEX
  5
474
330
3EE
100
AcDbEntity
  8
CAPA_1
 62
     7
100
AcDbVertex
100
AcDb2dVertex
 10
-835.6802259959666
 20
241.3357554231648
 30
0.0
  0
VERTEX
  5
475
330
3EE
100
AcDbEntity
  8
CAPA_1
 62
     7
100
AcDbVertex
100
AcDb2dVertex
 10
-835.5147696191484
 20
242.2282379161169
 30
0.0
  0
VERTEX
  5
476
330
3EE
100
AcDbEntity
  8
CAPA_1
 62
     7
100
AcDbVertex
100
AcDb2dVertex
 10
-835.3430477773043
 20
243.1165935909565
 30
0.0
  0
VERTEX
  5
477
330
3EE
100
AcDbEntity
  8
CAPA_1
 62
     7
100
AcDbVertex
100
AcDb2dVertex
 10
-835.1650773042338
 20
244.0007321941894
 30
0.0
  0
VERTEX
  5
478
330
3EE
100
AcDbEntity
  8
CAPA_1
 62
     7
100
AcDbVertex
100
AcDb2dVertex
 10
-834.9808750337368
 20
244.8805634723209
 30
0.0
  0
VERTEX
  5
479
330
3EE
100
AcDbEntity
  8
CAPA_1
 62
     7
100
AcDbVertex
100
AcDb2dVertex
 10
-834.7904577996129
 20
245.7559971718563
 30
0.0
  0
VERTEX
  5
47A
330
3EE
100
AcDbEntity
  8
CAPA_1
 62
     7
100
AcDbVertex
100
AcDb2dVertex
 10
-834.5938424356618
 20
246.6269430393013
 30
0.0
  0
VERTEX
  5
47B
330
3EE
100
AcDbEntity
  8
CAPA_1
 62
     7
100
AcDbVertex
100
AcDb2dVertex
 10
-834.3910457756831
 20
247.4933108211612
 30
0.0
  0
VERTEX
  5
47C
330
3EE
100
AcDbEntity
  8
CAPA_1
 62
     7
100
AcDbVertex
100
AcDb2dVertex
 10
-834.1820846534765
 20
248.3550102639414
 30
0.0
  0
VERTEX
  5
47D
330
3EE
100
AcDbEntity
  8
CAPA_1
 62
     7
100
AcDbVertex
100
AcDb2dVertex
 10
-833.9669759028418
 20
249.2119511141475
 30
0.0
  0
VERTEX
  5
47E
330
3EE
100
AcDbEntity
  8
CAPA_1
 62
     7
100
AcDbVertex
100
AcDb2dVertex
 10
-833.7457363575786
 20
250.0640431182848
 30
0.0
  0
VERTEX
  5
47F
330
3EE
100
AcDbEntity
  8
CAPA_1
 62
     7
100
AcDbVertex
100
AcDb2dVertex
 10
-833.5183828514865
 20
250.9111960228587
 30
0.0
  0
VERTEX
  5
480
330
3EE
100
AcDbEntity
  8
CAPA_1
 62
     7
100
AcDbVertex
100
AcDb2dVertex
 10
-833.2849322183652
 20
251.7533195743748
 30
0.0
  0
VERTEX
  5
481
330
3EE
100
AcDbEntity
  8
CAPA_1
 62
     7
100
AcDbVertex
100
AcDb2dVertex
 10
-833.0454012920145
 20
252.5903235193384
 30
0.0
  0
VERTEX
  5
482
330
3EE
100
AcDbEntity
  8
CAPA_1
 62
     7
100
AcDbVertex
100
AcDb2dVertex
 10
-832.7998069062339
 20
253.422117604255
 30
0.0
  0
VERTEX
  5
483
330
3EE
100
AcDbEntity
  8
CAPA_1
 62
     7
100
AcDbVertex
100
AcDb2dVertex
 10
-832.5481658948232
 20
254.2486115756301
 30
0.0
  0
VERTEX
  5
484
330
3EE
100
AcDbEntity
  8
CAPA_1
 62
     7
100
AcDbVertex
100
AcDb2dVertex
 10
-832.2904950915821
 20
255.0697151799691
 30
0.0
  0
VERTEX
  5
485
330
3EE
100
AcDbEntity
  8
CAPA_1
 62
     7
100
AcDbVertex
100
AcDb2dVertex
 10
-832.0268113303101
 20
255.8853381637774
 30
0.0
  0
VERTEX
  5
486
330
3EE
100
AcDbEntity
  8
CAPA_1
 62
     7
100
AcDbVertex
100
AcDb2dVertex
 10
-831.7571314448071
 20
256.6953902735606
 30
0.0
  0
VERTEX
  5
487
330
3EE
100
AcDbEntity
  8
CAPA_1
 62
     7
100
AcDbVertex
100
AcDb2dVertex
 10
-831.4814722688726
 20
257.4997812558239
 30
0.0
  0
VERTEX
  5
488
330
3EE
100
AcDbEntity
  8
CAPA_1
 62
     7
100
AcDbVertex
100
AcDb2dVertex
 10
-831.1998506363063
 20
258.2984208570729
 30
0.0
  0
VERTEX
  5
489
330
3EE
100
AcDbEntity
  8
CAPA_1
 62
     7
100
AcDbVertex
100
AcDb2dVertex
 10
-830.9122833809081
 20
259.0912188238129
 30
0.0
  0
VERTEX
  5
48A
330
3EE
100
AcDbEntity
  8
CAPA_1
 62
     7
100
AcDbVertex
100
AcDb2dVertex
 10
-830.6187873364773
 20
259.8780849025496
 30
0.0
  0
VERTEX
  5
48B
330
3EE
100
AcDbEntity
  8
CAPA_1
 62
     7
100
AcDbVertex
100
AcDb2dVertex
 10
-830.3193793368139
 20
260.6589288397882
 30
0.0
  0
VERTEX
  5
48C
330
3EE
100
AcDbEntity
  8
CAPA_1
 62
     7
100
AcDbVertex
100
AcDb2dVertex
 10
-830.0140762157173
 20
261.4336603820342
 30
0.0
  0
VERTEX
  5
48D
330
3EE
100
AcDbEntity
  8
CAPA_1
 62
     7
100
AcDbVertex
100
AcDb2dVertex
 10
-829.7028948069874
 20
262.2021892757931
 30
0.0
  0
VERTEX
  5
48E
330
3EE
100
AcDbEntity
  8
CAPA_1
 62
     7
100
AcDbVertex
100
AcDb2dVertex
 10
-829.3858519444237
 20
262.9644252675704
 30
0.0
  0
VERTEX
  5
48F
330
3EE
100
AcDbEntity
  8
CAPA_1
 62
     7
100
AcDbVertex
100
AcDb2dVertex
 10
-829.0629644618261
 20
263.7202781038714
 30
0.0
  0
VERTEX
  5
490
330
3EE
100
AcDbEntity
  8
CAPA_1
 62
     7
100
AcDbVertex
100
AcDb2dVertex
 10
-828.7342491929942
 20
264.4696575312015
 30
0.0
  0
VERTEX
  5
491
330
3EE
100
AcDbEntity
  8
CAPA_1
 62
     7
100
AcDbVertex
100
AcDb2dVertex
 10
-828.5677113993027
 20
264.8418915122855
 30
0.0
  0
VERTEX
  5
492
330
3EE
100
AcDbEntity
  8
CAPA_1
 62
     7
100
AcDbVertex
100
AcDb2dVertex
 10
-828.3997229717274
 20
265.2124732960664
 30
0.0
  0
VERTEX
  5
493
330
3EE
100
AcDbEntity
  8
CAPA_1
 62
     7
100
AcDbVertex
100
AcDb2dVertex
 10
-828.2302860144936
 20
265.5813916008572
 30
0.0
  0
VERTEX
  5
494
330
3EE
100
AcDbEntity
  8
CAPA_1
 62
     7
100
AcDbVertex
100
AcDb2dVertex
 10
-828.0594026318258
 20
265.9486351449713
 30
0.0
  0
VERTEX
  5
495
330
3EE
100
AcDbEntity
  8
CAPA_1
 62
     7
100
AcDbVertex
100
AcDb2dVertex
 10
-827.8870749279492
 20
266.3141926467217
 30
0.0
  0
VERTEX
  5
496
330
3EE
100
AcDbEntity
  8
CAPA_1
 62
     7
100
AcDbVertex
100
AcDb2dVertex
 10
-827.7133050070888
 20
266.6780528244216
 30
0.0
  0
VERTEX
  5
497
330
3EE
100
AcDbEntity
  8
CAPA_1
 62
     7
100
AcDbVertex
100
AcDb2dVertex
 10
-827.5380949734695
 20
267.0402043963844
 30
0.0
  0
VERTEX
  5
498
330
3EE
100
AcDbEntity
  8
CAPA_1
 62
     7
100
AcDbVertex
100
AcDb2dVertex
 10
-827.3614469313161
 20
267.400636080923
 30
0.0
  0
VERTEX
  5
499
330
3EE
100
AcDbEntity
  8
CAPA_1
 62
     7
100
AcDbVertex
100
AcDb2dVertex
 10
-827.1833629848538
 20
267.7593365963507
 30
0.0
  0
VERTEX
  5
49A
330
3EE
100
AcDbEntity
  8
CAPA_1
 62
     7
100
AcDbVertex
100
AcDb2dVertex
 10
-827.0038452383076
 20
268.1162946609808
 30
0.0
  0
VERTEX
  5
49B
330
3EE
100
AcDbEntity
  8
CAPA_1
 62
     7
100
AcDbVertex
100
AcDb2dVertex
 10
-826.8228957959022
 20
268.4714989931263
 30
0.0
  0
VERTEX
  5
49C
330
3EE
100
AcDbEntity
  8
CAPA_1
 62
     7
100
AcDbVertex
100
AcDb2dVertex
 10
-826.6405167618627
 20
268.8249383111005
 30
0.0
  0
VERTEX
  5
49D
330
3EE
100
AcDbEntity
  8
CAPA_1
 62
     7
100
AcDbVertex
100
AcDb2dVertex
 10
-826.4567102404139
 20
269.1766013332165
 30
0.0
  0
VERTEX
  5
49E
330
3EE
100
AcDbEntity
  8
CAPA_1
 62
     7
100
AcDbVertex
100
AcDb2dVertex
 10
-826.2714783357811
 20
269.5264767777874
 30
0.0
  0
VERTEX
  5
49F
330
3EE
100
AcDbEntity
  8
CAPA_1
 62
     7
100
AcDbVertex
100
AcDb2dVertex
 10
-826.0848231521891
 20
269.8745533631264
 30
0.0
  0
VERTEX
  5
4A0
330
3EE
100
AcDbEntity
  8
CAPA_1
 62
     7
100
AcDbVertex
100
AcDb2dVertex
 10
-825.8967467938626
 20
270.220819807547
 30
0.0
  0
VERTEX
  5
4A1
330
3EE
100
AcDbEntity
  8
CAPA_1
 62
     7
100
AcDbVertex
100
AcDb2dVertex
 10
-825.7072513650269
 20
270.5652648293621
 30
0.0
  0
VERTEX
  5
4A2
330
3EE
100
AcDbEntity
  8
CAPA_1
 62
     7
100
AcDbVertex
100
AcDb2dVertex
 10
-825.5163389699069
 20
270.9078771468849
 30
0.0
  0
VERTEX
  5
4A3
330
3EE
100
AcDbEntity
  8
CAPA_1
 62
     7
100
AcDbVertex
100
AcDb2dVertex
 10
-825.3240117127275
 20
271.2486454784286
 30
0.0
  0
VERTEX
  5
4A4
330
3EE
100
AcDbEntity
  8
CAPA_1
 62
     7
100
AcDbVertex
100
AcDb2dVertex
 10
-825.1302716977136
 20
271.5875585423063
 30
0.0
  0
VERTEX
  5
4A5
330
3EE
100
AcDbEntity
  8
CAPA_1
 62
     7
100
AcDbVertex
100
AcDb2dVertex
 10
-824.9351210290902
 20
271.9246050568313
 30
0.0
  0
VERTEX
  5
4A6
330
3EE
100
AcDbEntity
  8
CAPA_1
 62
     7
100
AcDbVertex
100
AcDb2dVertex
 10
-824.7385618110823
 20
272.2597737403168
 30
0.0
  0
VERTEX
  5
4A7
330
3EE
100
AcDbEntity
  8
CAPA_1
 62
     7
100
AcDbVertex
100
AcDb2dVertex
 10
-824.5405961479148
 20
272.5930533110759
 30
0.0
  0
VERTEX
  5
4A8
330
3EE
100
AcDbEntity
  8
CAPA_1
 62
     7
100
AcDbVertex
100
AcDb2dVertex
 10
-824.3412261438127
 20
272.9244324874218
 30
0.0
  0
VERTEX
  5
4A9
330
3EE
100
AcDbEntity
  8
CAPA_1
 62
     7
100
AcDbVertex
100
AcDb2dVertex
 10
-824.140453903001
 20
273.2538999876676
 30
0.0
  0
VERTEX
  5
4AA
330
3EE
100
AcDbEntity
  8
CAPA_1
 62
     7
100
AcDbVertex
100
AcDb2dVertex
 10
-823.9382815297047
 20
273.5814445301267
 30
0.0
  0
VERTEX
  5
4AB
330
3EE
100
AcDbEntity
  8
CAPA_1
 62
     7
100
AcDbVertex
100
AcDb2dVertex
 10
-823.7347111281485
 20
273.9070548331121
 30
0.0
  0
VERTEX
  5
4AC
330
3EE
100
AcDbEntity
  8
CAPA_1
 62
     7
100
AcDbVertex
100
AcDb2dVertex
 10
-823.5297448025576
 20
274.2307196149371
 30
0.0
  0
VERTEX
  5
4AD
330
3EE
100
AcDbEntity
  8
CAPA_1
 62
     7
100
AcDbVertex
100
AcDb2dVertex
 10
-823.323384657157
 20
274.5524275939147
 30
0.0
  0
VERTEX
  5
4AE
330
3EE
100
AcDbEntity
  8
CAPA_1
 62
     7
100
AcDbVertex
100
AcDb2dVertex
 10
-823.1156327961714
 20
274.8721674883582
 30
0.0
  0
VERTEX
  5
4AF
330
3EE
100
AcDbEntity
  8
CAPA_1
 62
     7
100
AcDbVertex
100
AcDb2dVertex
 10
-822.906491323826
 20
275.1899280165808
 30
0.0
  0
VERTEX
  5
4B0
330
3EE
100
AcDbEntity
  8
CAPA_1
 62
     7
100
AcDbVertex
100
AcDb2dVertex
 10
-822.6959623443457
 20
275.5056978968957
 30
0.0
  0
VERTEX
  5
4B1
330
3EE
100
AcDbEntity
  8
CAPA_1
 62
     7
100
AcDbVertex
100
AcDb2dVertex
 10
-822.4840479619555
 20
275.819465847616
 30
0.0
  0
VERTEX
  5
4B2
330
3EE
100
AcDbEntity
  8
CAPA_1
 62
     7
100
AcDbVertex
100
AcDb2dVertex
 10
-822.2707502808802
 20
276.1312205870548
 30
0.0
  0
VERTEX
  5
4B3
330
3EE
100
AcDbEntity
  8
CAPA_1
 62
     7
100
AcDbVertex
100
AcDb2dVertex
 10
-822.0560714053448
 20
276.4409508335254
 30
0.0
  0
VERTEX
  5
4B4
330
3EE
100
AcDbEntity
  8
CAPA_1
 62
     7
100
AcDbVertex
100
AcDb2dVertex
 10
-821.8400134395745
 20
276.7486453053411
 30
0.0
  0
VERTEX
  5
4B5
330
3EE
100
AcDbEntity
  8
CAPA_1
 62
     7
100
AcDbVertex
100
AcDb2dVertex
 10
-821.622578487794
 20
277.0542927208148
 30
0.0
  0
VERTEX
  5
4B6
330
3EE
100
AcDbEntity
  8
CAPA_1
 62
     7
100
AcDbVertex
100
AcDb2dVertex
 10
-821.4037686542283
 20
277.35788179826
 30
0.0
  0
VERTEX
  5
4B7
330
3EE
100
AcDbEntity
  8
CAPA_1
 62
     7
100
AcDbVertex
100
AcDb2dVertex
 10
-821.1835860431024
 20
277.6594012559896
 30
0.0
  0
VERTEX
  5
4B8
330
3EE
100
AcDbEntity
  8
CAPA_1
 62
     7
100
AcDbVertex
100
AcDb2dVertex
 10
-820.9620327586413
 20
277.9588398123169
 30
0.0
  0
VERTEX
  5
4B9
330
3EE
100
AcDbEntity
  8
CAPA_1
 62
     7
100
AcDbVertex
100
AcDb2dVertex
 10
-820.7391109050697
 20
278.2561861855551
 30
0.0
  0
VERTEX
  5
4BA
330
3EE
100
AcDbEntity
  8
CAPA_1
 62
     7
100
AcDbVertex
100
AcDb2dVertex
 10
-820.5148225866128
 20
278.5514290940173
 30
0.0
  0
VERTEX
  5
4BB
330
3EE
100
AcDbEntity
  8
CAPA_1
 62
     7
100
AcDbVertex
100
AcDb2dVertex
 10
-820.2891699074956
 20
278.8445572560167
 30
0.0
  0
VERTEX
  5
4BC
330
3EE
100
AcDbEntity
  8
CAPA_1
 62
     7
100
AcDbVertex
100
AcDb2dVertex
 10
-820.0621549719431
 20
279.1355593898666
 30
0.0
  0
VERTEX
  5
4BD
330
3EE
100
AcDbEntity
  8
CAPA_1
 62
     7
100
AcDbVertex
100
AcDb2dVertex
 10
-819.8337798841801
 20
279.4244242138801
 30
0.0
  0
VERTEX
  5
4BE
330
3EE
100
AcDbEntity
  8
CAPA_1
 62
     7
100
AcDbVertex
100
AcDb2dVertex
 10
-819.6040467484315
 20
279.7111404463703
 30
0.0
  0
VERTEX
  5
4BF
330
3EE
100
AcDbEntity
  8
CAPA_1
 62
     7
100
AcDbVertex
100
AcDb2dVertex
 10
-819.3729576689225
 20
279.9956968056505
 30
0.0
  0
VERTEX
  5
4C0
330
3EE
100
AcDbEntity
  8
CAPA_1
 62
     7
100
AcDbVertex
100
AcDb2dVertex
 10
-819.1405147498779
 20
280.2780820100338
 30
0.0
  0
VERTEX
  5
4C1
330
3EE
100
AcDbEntity
  8
CAPA_1
 62
     7
100
AcDbVertex
100
AcDb2dVertex
 10
-818.9067200955226
 20
280.5582847778334
 30
0.0
  0
VERTEX
  5
4C2
330
3EE
100
AcDbEntity
  8
CAPA_1
 62
     7
100
AcDbVertex
100
AcDb2dVertex
 10
-818.6715758100818
 20
280.8362938273625
 30
0.0
  0
VERTEX
  5
4C3
330
3EE
100
AcDbEntity
  8
CAPA_1
 62
     7
100
AcDbVertex
100
AcDb2dVertex
 10
-818.4350839977802
 20
281.1120978769342
 30
0.0
  0
VERTEX
  5
4C4
330
3EE
100
AcDbEntity
  8
CAPA_1
 62
     7
100
AcDbVertex
100
AcDb2dVertex
 10
-818.197246762843
 20
281.3856856448618
 30
0.0
  0
VERTEX
  5
4C5
330
3EE
100
AcDbEntity
  8
CAPA_1
 62
     7
100
AcDbVertex
100
AcDb2dVertex
 10
-817.9580662094947
 20
281.6570458494585
 30
0.0
  0
VERTEX
  5
4C6
330
3EE
100
AcDbEntity
  8
CAPA_1
 62
     7
100
AcDbVertex
100
AcDb2dVertex
 10
-817.7175444419609
 20
281.9261672090374
 30
0.0
  0
VERTEX
  5
4C7
330
3EE
100
AcDbEntity
  8
CAPA_1
 62
     7
100
AcDbVertex
100
AcDb2dVertex
 10
-817.4756835644661
 20
282.1930384419116
 30
0.0
  0
VERTEX
  5
4C8
330
3EE
100
AcDbEntity
  8
CAPA_1
 62
     7
100
AcDbVertex
100
AcDb2dVertex
 10
-817.2324856812354
 20
282.4576482663945
 30
0.0
  0
VERTEX
  5
4C9
330
3EE
100
AcDbEntity
  8
CAPA_1
 62
     7
100
AcDbVertex
100
AcDb2dVertex
 10
-816.9879528964938
 20
282.7199854007991
 30
0.0
  0
VERTEX
  5
4CA
330
3EE
100
AcDbEntity
  8
CAPA_1
 62
     7
100
AcDbVertex
100
AcDb2dVertex
 10
-816.7420873144662
 20
282.9800385634386
 30
0.0
  0
VERTEX
  5
4CB
330
3EE
100
AcDbEntity
  8
CAPA_1
 62
     7
100
AcDbVertex
100
AcDb2dVertex
 10
-816.4948910393775
 20
283.2377964726262
 30
0.0
  0
VERTEX
  5
4CC
330
3EE
100
AcDbEntity
  8
CAPA_1
 62
     7
100
AcDbVertex
100
AcDb2dVertex
 10
-816.2463661754529
 20
283.4932478466752
 30
0.0
  0
VERTEX
  5
4CD
330
3EE
100
AcDbEntity
  8
CAPA_1
 62
     7
100
AcDbVertex
100
AcDb2dVertex
 10
-815.9965148269171
 20
283.7463814038986
 30
0.0
  0
VERTEX
  5
4CE
330
3EE
100
AcDbEntity
  8
CAPA_1
 62
     7
100
AcDbVertex
100
AcDb2dVertex
 10
-815.7453390979952
 20
283.9971858626096
 30
0.0
  0
VERTEX
  5
4CF
330
3EE
100
AcDbEntity
  8
CAPA_1
 62
     7
100
AcDbVertex
100
AcDb2dVertex
 10
-815.492841092912
 20
284.2456499411215
 30
0.0
  0
VERTEX
  5
4D0
330
3EE
100
AcDbEntity
  8
CAPA_1
 62
     7
100
AcDbVertex
100
AcDb2dVertex
 10
-815.2390229158927
 20
284.4917623577475
 30
0.0
  0
VERTEX
  5
4D1
330
3EE
100
AcDbEntity
  8
CAPA_1
 62
     7
100
AcDbVertex
100
AcDb2dVertex
 10
-814.9838866711622
 20
284.7355118308005
 30
0.0
  0
VERTEX
  5
4D2
330
3EE
100
AcDbEntity
  8
CAPA_1
 62
     7
100
AcDbVertex
100
AcDb2dVertex
 10
-814.7274344629453
 20
284.976887078594
 30
0.0
  0
VERTEX
  5
4D3
330
3EE
100
AcDbEntity
  8
CAPA_1
 62
     7
100
AcDbVertex
100
AcDb2dVertex
 10
-814.4696683954671
 20
285.2158768194411
 30
0.0
  0
VERTEX
  5
4D4
330
3EE
100
AcDbEntity
  8
CAPA_1
 62
     7
100
AcDbVertex
100
AcDb2dVertex
 10
-814.2105905729525
 20
285.4524697716549
 30
0.0
  0
VERTEX
  5
4D5
330
3EE
100
AcDbEntity
  8
CAPA_1
 62
     7
100
AcDbVertex
100
AcDb2dVertex
 10
-813.9502030996264
 20
285.6866546535486
 30
0.0
  0
VERTEX
  5
4D6
330
3EE
100
AcDbEntity
  8
CAPA_1
 62
     7
100
AcDbVertex
100
AcDb2dVertex
 10
-813.688508079714
 20
285.9184201834354
 30
0.0
  0
VERTEX
  5
4D7
330
3EE
100
AcDbEntity
  8
CAPA_1
 62
     7
100
AcDbVertex
100
AcDb2dVertex
 10
-813.42550761744
 20
286.1477550796284
 30
0.0
  0
VERTEX
  5
4D8
330
3EE
100
AcDbEntity
  8
CAPA_1
 62
     7
100
AcDbVertex
100
AcDb2dVertex
 10
-813.1612038170294
 20
286.374648060441
 30
0.0
  0
VERTEX
  5
4D9
330
3EE
100
AcDbEntity
  8
CAPA_1
 62
     7
100
AcDbVertex
100
AcDb2dVertex
 10
-812.8955987827073
 20
286.5990878441861
 30
0.0
  0
VERTEX
  5
4DA
330
3EE
100
AcDbEntity
  8
CAPA_1
 62
     7
100
AcDbVertex
100
AcDb2dVertex
 10
-812.6286946186985
 20
286.8210631491771
 30
0.0
  0
VERTEX
  5
4DB
330
3EE
100
AcDbEntity
  8
CAPA_1
 62
     7
100
AcDbVertex
100
AcDb2dVertex
 10
-812.3604934292281
 20
287.0405626937271
 30
0.0
  0
VERTEX
  5
4DC
330
3EE
100
AcDbEntity
  8
CAPA_1
 62
     7
100
AcDbVertex
100
AcDb2dVertex
 10
-812.090997318521
 20
287.2575751961492
 30
0.0
  0
VERTEX
  5
4DD
330
3EE
100
AcDbEntity
  8
CAPA_1
 62
     7
100
AcDbVertex
100
AcDb2dVertex
 10
-811.8202083908021
 20
287.4720893747567
 30
0.0
  0
VERTEX
  5
4DE
330
3EE
100
AcDbEntity
  8
CAPA_1
 62
     7
100
AcDbVertex
100
AcDb2dVertex
 10
-811.5481287502964
 20
287.6840939478628
 30
0.0
  0
VERTEX
  5
4DF
330
3EE
100
AcDbEntity
  8
CAPA_1
 62
     7
100
AcDbVertex
100
AcDb2dVertex
 10
-811.2747605012289
 20
287.8935776337805
 30
0.0
  0
VERTEX
  5
4E0
330
3EE
100
AcDbEntity
  8
CAPA_1
 62
     7
100
AcDbVertex
100
AcDb2dVertex
 10
-811.0001057478246
 20
288.1005291508232
 30
0.0
  0
VERTEX
  5
4E1
330
3EE
100
AcDbEntity
  8
CAPA_1
 62
     7
100
AcDbVertex
100
AcDb2dVertex
 10
-810.7241665943084
 20
288.304937217304
 30
0.0
  0
VERTEX
  5
4E2
330
3EE
100
AcDbEntity
  8
CAPA_1
 62
     7
100
AcDbVertex
100
AcDb2dVertex
 10
-810.446945144905
 20
288.5067905515359
 30
0.0
  0
VERTEX
  5
4E3
330
3EE
100
AcDbEntity
  8
CAPA_1
 62
     7
100
AcDbVertex
100
AcDb2dVertex
 10
-810.1684435038399
 20
288.7060778718323
 30
0.0
  0
VERTEX
  5
4E4
330
3EE
100
AcDbEntity
  8
CAPA_1
 62
     7
100
AcDbVertex
100
AcDb2dVertex
 10
-809.8886637753376
 20
288.9027878965064
 30
0.0
  0
VERTEX
  5
4E5
330
3EE
100
AcDbEntity
  8
CAPA_1
 62
     7
100
AcDbVertex
100
AcDb2dVertex
 10
-809.6076080636233
 20
289.0969093438713
 30
0.0
  0
VERTEX
  5
4E6
330
3EE
100
AcDbEntity
  8
CAPA_1
 62
     7
100
AcDbVertex
100
AcDb2dVertex
 10
-809.3252784729218
 20
289.2884309322402
 30
0.0
  0
VERTEX
  5
4E7
330
3EE
100
AcDbEntity
  8
CAPA_1
 62
     7
100
AcDbVertex
100
AcDb2dVertex
 10
-809.0416771074582
 20
289.4773413799262
 30
0.0
  0
VERTEX
  5
4E8
330
3EE
100
AcDbEntity
  8
CAPA_1
 62
     7
100
AcDbVertex
100
AcDb2dVertex
 10
-808.7568060714574
 20
289.6636294052425
 30
0.0
  0
VERTEX
  5
4E9
330
3EE
100
AcDbEntity
  8
CAPA_1
 62
     7
100
AcDbVertex
100
AcDb2dVertex
 10
-808.4706674691444
 20
289.8472837265024
 30
0.0
  0
VERTEX
  5
4EA
330
3EE
100
AcDbEntity
  8
CAPA_1
 62
     7
100
AcDbVertex
100
AcDb2dVertex
 10
-808.1832634047441
 20
290.028293062019
 30
0.0
  0
VERTEX
  5
4EB
330
3EE
100
AcDbEntity
  8
CAPA_1
 62
     7
100
AcDbVertex
100
AcDb2dVertex
 10
-807.8945959824815
 20
290.2066461301055
 30
0.0
  0
VERTEX
  5
4EC
330
3EE
100
AcDbEntity
  8
CAPA_1
 62
     7
100
AcDbVertex
100
AcDb2dVertex
 10
-807.6046673065816
 20
290.382331649075
 30
0.0
  0
VERTEX
  5
4ED
330
3EE
100
AcDbEntity
  8
CAPA_1
 62
     7
100
AcDbVertex
100
AcDb2dVertex
 10
-807.3134794812693
 20
290.5553383372408
 30
0.0
  0
VERTEX
  5
4EE
330
3EE
100
AcDbEntity
  8
CAPA_1
 62
     7
100
AcDbVertex
100
AcDb2dVertex
 10
-807.0210346107694
 20
290.725654912916
 30
0.0
  0
VERTEX
  5
4EF
330
3EE
100
AcDbEntity
  8
CAPA_1
 62
     7
100
AcDbVertex
100
AcDb2dVertex
 10
-806.7273347993072
 20
290.8932700944138
 30
0.0
  0
VERTEX
  5
4F0
330
3EE
100
AcDbEntity
  8
CAPA_1
 62
     7
100
AcDbVertex
100
AcDb2dVertex
 10
-806.4323821511073
 20
291.0581726000473
 30
0.0
  0
VERTEX
  5
4F1
330
3EE
100
AcDbEntity
  8
CAPA_1
 62
     7
100
AcDbVertex
100
AcDb2dVertex
 10
-806.136178770395
 20
291.2203511481299
 30
0.0
  0
VERTEX
  5
4F2
330
3EE
100
AcDbEntity
  8
CAPA_1
 62
     7
100
AcDbVertex
100
AcDb2dVertex
 10
-805.838726761395
 20
291.3797944569745
 30
0.0
  0
VERTEX
  5
4F3
330
3EE
100
AcDbEntity
  8
CAPA_1
 62
     7
100
AcDbVertex
100
AcDb2dVertex
 10
-805.5400282283324
 20
291.5364912448945
 30
0.0
  0
VERTEX
  5
4F4
330
3EE
100
AcDbEntity
  8
CAPA_1
 62
     7
100
AcDbVertex
100
AcDb2dVertex
 10
-805.2400852754322
 20
291.690430230203
 30
0.0
  0
VERTEX
  5
4F5
330
3EE
100
AcDbEntity
  8
CAPA_1
 62
     7
100
AcDbVertex
100
AcDb2dVertex
 10
-804.9389000069192
 20
291.8416001312132
 30
0.0
  0
VERTEX
  5
4F6
330
3EE
100
AcDbEntity
  8
CAPA_1
 62
     7
100
AcDbVertex
100
AcDb2dVertex
 10
-804.6364745270183
 20
291.9899896662383
 30
0.0
  0
VERTEX
  5
4F7
330
3EE
100
AcDbEntity
  8
CAPA_1
 62
     7
100
AcDbVertex
100
AcDb2dVertex
 10
-804.3328109399547
 20
292.1355875535914
 30
0.0
  0
VERTEX
  5
4F8
330
3EE
100
AcDbEntity
  8
CAPA_1
 62
     7
100
AcDbVertex
100
AcDb2dVertex
 10
-804.0279113499532
 20
292.2783825115857
 30
0.0
  0
VERTEX
  5
4F9
330
3EE
100
AcDbEntity
  8
CAPA_1
 62
     7
100
AcDbVertex
100
AcDb2dVertex
 10
-803.7217778612389
 20
292.4183632585344
 30
0.0
  0
VERTEX
  5
4FA
330
3EE
100
AcDbEntity
  8
CAPA_1
 62
     7
100
AcDbVertex
100
AcDb2dVertex
 10
-803.4144125780368
 20
292.5555185127507
 30
0.0
  0
VERTEX
  5
4FB
330
3EE
100
AcDbEntity
  8
CAPA_1
 62
     7
100
AcDbVertex
100
AcDb2dVertex
 10
-803.1058176045717
 20
292.6898369925478
 30
0.0
  0
VERTEX
  5
4FC
330
3EE
100
AcDbEntity
  8
CAPA_1
 62
     7
100
AcDbVertex
100
AcDb2dVertex
 10
-802.7959950450686
 20
292.8213074162388
 30
0.0
  0
VERTEX
  5
4FD
330
3EE
100
AcDbEntity
  8
CAPA_1
 62
     7
100
AcDbVertex
100
AcDb2dVertex
 10
-802.4849470037523
 20
292.949918502137
 30
0.0
  0
VERTEX
  5
4FE
330
3EE
100
AcDbEntity
  8
CAPA_1
 62
     7
100
AcDbVertex
100
AcDb2dVertex
 10
-802.172675584848
 20
293.0756589685554
 30
0.0
  0
VERTEX
  5
4FF
330
3EE
100
AcDbEntity
  8
CAPA_1
 62
     7
100
AcDbVertex
100
AcDb2dVertex
 10
-801.8591828925805
 20
293.1985175338074
 30
0.0
  0
VERTEX
  5
500
330
3EE
100
AcDbEntity
  8
CAPA_1
 62
     7
100
AcDbVertex
100
AcDb2dVertex
 10
-801.5444710311749
 20
293.318482916206
 30
0.0
  0
VERTEX
  5
501
330
3EE
100
AcDbEntity
  8
CAPA_1
 62
     7
100
AcDbVertex
100
AcDb2dVertex
 10
-801.228542104856
 20
293.4355438340644
 30
0.0
  0
VERTEX
  5
502
330
3EE
100
AcDbEntity
  8
CAPA_1
 62
     7
100
AcDbVertex
100
AcDb2dVertex
 10
-800.9113982178491
 20
293.5496890056959
 30
0.0
  0
VERTEX
  5
503
330
3EE
100
AcDbEntity
  8
CAPA_1
 62
     7
100
AcDbVertex
100
AcDb2dVertex
 10
-800.5930414743788
 20
293.6609071494136
 30
0.0
  0
VERTEX
  5
504
330
3EE
100
AcDbEntity
  8
CAPA_1
 62
     7
100
AcDbVertex
100
AcDb2dVertex
 10
-800.27347397867
 20
293.7691869835306
 30
0.0
  0
VERTEX
  5
505
330
3EE
100
AcDbEntity
  8
CAPA_1
 62
     7
100
AcDbVertex
100
AcDb2dVertex
 10
-799.9526978349479
 20
293.8745172263603
 30
0.0
  0
VERTEX
  5
506
330
3EE
100
AcDbEntity
  8
CAPA_1
 62
     7
100
AcDbVertex
100
AcDb2dVertex
 10
-799.6307151474375
 20
293.9768865962157
 30
0.0
  0
VERTEX
  5
507
330
3EE
100
AcDbEntity
  8
CAPA_1
 62
     7
100
AcDbVertex
100
AcDb2dVertex
 10
-799.3075280203636
 20
294.0762838114101
 30
0.0
  0
VERTEX
  5
508
330
3EE
100
AcDbEntity
  8
CAPA_1
 62
     7
100
AcDbVertex
100
AcDb2dVertex
 10
-798.9831385579512
 20
294.1726975902565
 30
0.0
  0
VERTEX
  5
509
330
3EE
100
AcDbEntity
  8
CAPA_1
 62
     7
100
AcDbVertex
100
AcDb2dVertex
 10
-798.6575488644253
 20
294.2661166510682
 30
0.0
  0
VERTEX
  5
50A
330
3EE
100
AcDbEntity
  8
CAPA_1
 62
     7
100
AcDbVertex
100
AcDb2dVertex
 10
-798.3307610440108
 20
294.3565297121584
 30
0.0
  0
VERTEX
  5
50B
330
3EE
100
AcDbEntity
  8
CAPA_1
 62
     7
100
AcDbVertex
100
AcDb2dVertex
 10
-798.0027772009328
 20
294.4439254918402
 30
0.0
  0
VERTEX
  5
50C
330
3EE
100
AcDbEntity
  8
CAPA_1
 62
     7
100
AcDbVertex
100
AcDb2dVertex
 10
-797.673599439416
 20
294.5282927084269
 30
0.0
  0
VERTEX
  5
50D
330
3EE
100
AcDbEntity
  8
CAPA_1
 62
     7
100
AcDbVertex
100
AcDb2dVertex
 10
-797.3432298636856
 20
294.6096200802316
 30
0.0
  0
VERTEX
  5
50E
330
3EE
100
AcDbEntity
  8
CAPA_1
 62
     7
100
AcDbVertex
100
AcDb2dVertex
 10
-797.0116705779664
 20
294.6878963255674
 30
0.0
  0
VERTEX
  5
50F
330
3EE
100
AcDbEntity
  8
CAPA_1
 62
     7
100
AcDbVertex
100
AcDb2dVertex
 10
-796.6789236864834
 20
294.7631101627476
 30
0.0
  0
VERTEX
  5
510
330
3EE
100
AcDbEntity
  8
CAPA_1
 62
     7
100
AcDbVertex
100
AcDb2dVertex
 10
-796.3449912934616
 20
294.8352503100854
 30
0.0
  0
VERTEX
  5
511
330
3EE
100
AcDbEntity
  8
CAPA_1
 62
     7
100
AcDbVertex
100
AcDb2dVertex
 10
-796.0098755031261
 20
294.904305485894
 30
0.0
  0
VERTEX
  5
512
330
3EE
100
AcDbEntity
  8
CAPA_1
 62
     7
100
AcDbVertex
100
AcDb2dVertex
 10
-795.6735784197015
 20
294.9702644084864
 30
0.0
  0
VERTEX
  5
513
330
3EE
100
AcDbEntity
  8
CAPA_1
 62
     7
100
AcDbVertex
100
AcDb2dVertex
 10
-795.3361021474129
 20
295.0331157961759
 30
0.0
  0
VERTEX
  5
514
330
3EE
100
AcDbEntity
  8
CAPA_1
 62
     7
100
AcDbVertex
100
AcDb2dVertex
 10
-794.9974487904856
 20
295.0928483672757
 30
0.0
  0
VERTEX
  5
515
330
3EE
100
AcDbEntity
  8
CAPA_1
 62
     7
100
AcDbVertex
100
AcDb2dVertex
 10
-794.657620453144
 20
295.149450840099
 30
0.0
  0
VERTEX
  5
516
330
3EE
100
AcDbEntity
  8
CAPA_1
 62
     7
100
AcDbVertex
100
AcDb2dVertex
 10
-794.3166192396135
 20
295.2029119329589
 30
0.0
  0
VERTEX
  5
517
330
3EE
100
AcDbEntity
  8
CAPA_1
 62
     7
100
AcDbVertex
100
AcDb2dVertex
 10
-793.9744472541189
 20
295.2532203641686
 30
0.0
  0
VERTEX
  5
518
330
3EE
100
AcDbEntity
  8
CAPA_1
 62
     7
100
AcDbVertex
100
AcDb2dVertex
 10
-793.631106600885
 20
295.3003648520413
 30
0.0
  0
VERTEX
  5
519
330
3EE
100
AcDbEntity
  8
CAPA_1
 62
     7
100
AcDbVertex
100
AcDb2dVertex
 10
-793.286599384137
 20
295.3443341148902
 30
0.0
  0
VERTEX
  5
51A
330
3EE
100
AcDbEntity
  8
CAPA_1
 62
     7
100
AcDbVertex
100
AcDb2dVertex
 10
-792.9409277080999
 20
295.3851168710283
 30
0.0
  0
VERTEX
  5
51B
330
3EE
100
AcDbEntity
  8
CAPA_1
 62
     7
100
AcDbVertex
100
AcDb2dVertex
 10
-792.5940936769986
 20
295.4227018387691
 30
0.0
  0
VERTEX
  5
51C
330
3EE
100
AcDbEntity
  8
CAPA_1
 62
     7
100
AcDbVertex
100
AcDb2dVertex
 10
-792.2460993950579
 20
295.4570777364256
 30
0.0
  0
VERTEX
  5
51D
330
3EE
100
AcDbEntity
  8
CAPA_1
 62
     7
100
AcDbVertex
100
AcDb2dVertex
 10
-791.8969469665027
 20
295.4882332823109
 30
0.0
  0
VERTEX
  5
51E
330
3EE
100
AcDbEntity
  8
CAPA_1
 62
     7
100
AcDbVertex
100
AcDb2dVertex
 10
-791.5466384955583
 20
295.5161571947384
 30
0.0
  0
VERTEX
  5
51F
330
3EE
100
AcDbEntity
  8
CAPA_1
 62
     7
100
AcDbVertex
100
AcDb2dVertex
 10
-791.1951760864496
 20
295.5408381920211
 30
0.0
  0
VERTEX
  5
520
330
3EE
100
AcDbEntity
  8
CAPA_1
 62
     7
100
AcDbVertex
100
AcDb2dVertex
 10
-790.8425618434012
 20
295.5622649924721
 30
0.0
  0
VERTEX
  5
521
330
3EE
100
AcDbEntity
  8
CAPA_1
 62
     7
100
AcDbVertex
100
AcDb2dVertex
 10
-790.4887978706383
 20
295.5804263144049
 30
0.0
  0
VERTEX
  5
522
330
3EE
100
AcDbEntity
  8
CAPA_1
 62
     7
100
AcDbVertex
100
AcDb2dVertex
 10
-790.1338862723859
 20
295.5953108761324
 30
0.0
  0
VERTEX
  5
523
330
3EE
100
AcDbEntity
  8
CAPA_1
 62
     7
100
AcDbVertex
100
AcDb2dVertex
 10
-789.777829152869
 20
295.6069073959679
 30
0.0
  0
VERTEX
  5
524
330
3EE
100
AcDbEntity
  8
CAPA_1
 62
     7
100
AcDbVertex
100
AcDb2dVertex
 10
-789.4206286163123
 20
295.6152045922246
 30
0.0
  0
VERTEX
  5
525
330
3EE
100
AcDbEntity
  8
CAPA_1
 62
     7
100
AcDbVertex
100
AcDb2dVertex
 10
-789.062286766941
 20
295.6201911832156
 30
0.0
  0
VERTEX
  5
526
330
3EE
100
AcDbEntity
  8
CAPA_1
 62
     7
100
AcDbVertex
100
AcDb2dVertex
 10
-788.7028057089802
 20
295.6218558872541
 30
0.0
  0
SEQEND
  5
527
330
3EE
100
AcDbEntity
  8
CAPA_1
 62
     7
  0
LINE
  5
528
330
1F
100
AcDbEntity
  8
CAPA_1
 62
     7
100
AcDbLine
 10
-788.7028057089802
 20
295.6218558872541
 30
0.0
 11
-788.7011123756471
 21
295.6218558872541
 31
0.0
  0
POLYLINE
  5
529
330
1F
100
AcDbEntity
  8
CAPA_1
 62
     7
100
AcDb2dPolyline
 66
     1
 10
0.0
 20
0.0
 30
0.0
  0
VERTEX
  5
52A
330
529
100
AcDbEntity
  8
CAPA_1
 62
     7
100
AcDbVertex
100
AcDb2dVertex
 10
-788.7011123756471
 20
295.6218558872541
 30
0.0
  0
VERTEX
  5
52B
330
529
100
AcDbEntity
  8
CAPA_1
 62
     7
100
AcDbVertex
100
AcDb2dVertex
 10
-788.3416251648663
 20
295.6201911832156
 30
0.0
  0
VERTEX
  5
52C
330
529
100
AcDbEntity
  8
CAPA_1
 62
     7
100
AcDbVertex
100
AcDb2dVertex
 10
-787.9832772590007
 20
295.6152045922246
 30
0.0
  0
VERTEX
  5
52D
330
529
100
AcDbEntity
  8
CAPA_1
 62
     7
100
AcDbVertex
100
AcDb2dVertex
 10
-787.6260707617079
 20
295.6069073959679
 30
0.0
  0
VERTEX
  5
52E
330
529
100
AcDbEntity
  8
CAPA_1
 62
     7
100
AcDbVertex
100
AcDb2dVertex
 10
-787.2700077766445
 20
295.5953108761324
 30
0.0
  0
VERTEX
  5
52F
330
529
100
AcDbEntity
  8
CAPA_1
 62
     7
100
AcDbVertex
100
AcDb2dVertex
 10
-786.9150904074683
 20
295.5804263144049
 30
0.0
  0
VERTEX
  5
530
330
529
100
AcDbEntity
  8
CAPA_1
 62
     7
100
AcDbVertex
100
AcDb2dVertex
 10
-786.5613207578361
 20
295.5622649924721
 30
0.0
  0
VERTEX
  5
531
330
529
100
AcDbEntity
  8
CAPA_1
 62
     7
100
AcDbVertex
100
AcDb2dVertex
 10
-786.2087009314055
 20
295.5408381920211
 30
0.0
  0
VERTEX
  5
532
330
529
100
AcDbEntity
  8
CAPA_1
 62
     7
100
AcDbVertex
100
AcDb2dVertex
 10
-785.8572330318333
 20
295.5161571947384
 30
0.0
  0
VERTEX
  5
533
330
529
100
AcDbEntity
  8
CAPA_1
 62
     7
100
AcDbVertex
100
AcDb2dVertex
 10
-785.506919162777
 20
295.4882332823109
 30
0.0
  0
VERTEX
  5
534
330
529
100
AcDbEntity
  8
CAPA_1
 62
     7
100
AcDbVertex
100
AcDb2dVertex
 10
-785.1577614278939
 20
295.4570777364256
 30
0.0
  0
VERTEX
  5
535
330
529
100
AcDbEntity
  8
CAPA_1
 62
     7
100
AcDbVertex
100
AcDb2dVertex
 10
-784.809761930841
 20
295.4227018387691
 30
0.0
  0
VERTEX
  5
536
330
529
100
AcDbEntity
  8
CAPA_1
 62
     7
100
AcDbVertex
100
AcDb2dVertex
 10
-784.4629227752757
 20
295.3851168710283
 30
0.0
  0
VERTEX
  5
537
330
529
100
AcDbEntity
  8
CAPA_1
 62
     7
100
AcDbVertex
100
AcDb2dVertex
 10
-784.1172460648552
 20
295.3443341148902
 30
0.0
  0
VERTEX
  5
538
330
529
100
AcDbEntity
  8
CAPA_1
 62
     7
100
AcDbVertex
100
AcDb2dVertex
 10
-783.7727339032367
 20
295.3003648520413
 30
0.0
  0
VERTEX
  5
539
330
529
100
AcDbEntity
  8
CAPA_1
 62
     7
100
AcDbVertex
100
AcDb2dVertex
 10
-783.4293883940774
 20
295.2532203641686
 30
0.0
  0
VERTEX
  5
53A
330
529
100
AcDbEntity
  8
CAPA_1
 62
     7
100
AcDbVertex
100
AcDb2dVertex
 10
-783.0872116410344
 20
295.2029119329589
 30
0.0
  0
VERTEX
  5
53B
330
529
100
AcDbEntity
  8
CAPA_1
 62
     7
100
AcDbVertex
100
AcDb2dVertex
 10
-782.7462057477651
 20
295.149450840099
 30
0.0
  0
VERTEX
  5
53C
330
529
100
AcDbEntity
  8
CAPA_1
 62
     7
100
AcDbVertex
100
AcDb2dVertex
 10
-782.4063728179267
 20
295.0928483672757
 30
0.0
  0
VERTEX
  5
53D
330
529
100
AcDbEntity
  8
CAPA_1
 62
     7
100
AcDbVertex
100
AcDb2dVertex
 10
-782.0677149551765
 20
295.0331157961759
 30
0.0
  0
VERTEX
  5
53E
330
529
100
AcDbEntity
  8
CAPA_1
 62
     7
100
AcDbVertex
100
AcDb2dVertex
 10
-781.7302342631715
 20
294.9702644084864
 30
0.0
  0
VERTEX
  5
53F
330
529
100
AcDbEntity
  8
CAPA_1
 62
     7
100
AcDbVertex
100
AcDb2dVertex
 10
-781.3939328455692
 20
294.904305485894
 30
0.0
  0
VERTEX
  5
540
330
529
100
AcDbEntity
  8
CAPA_1
 62
     7
100
AcDbVertex
100
AcDb2dVertex
 10
-781.0588128060267
 20
294.8352503100854
 30
0.0
  0
VERTEX
  5
541
330
529
100
AcDbEntity
  8
CAPA_1
 62
     7
100
AcDbVertex
100
AcDb2dVertex
 10
-780.7248762482011
 20
294.7631101627476
 30
0.0
  0
VERTEX
  5
542
330
529
100
AcDbEntity
  8
CAPA_1
 62
     7
100
AcDbVertex
100
AcDb2dVertex
 10
-780.3921252757498
 20
294.6878963255674
 30
0.0
  0
VERTEX
  5
543
330
529
100
AcDbEntity
  8
CAPA_1
 62
     7
100
AcDbVertex
100
AcDb2dVertex
 10
-780.0605619923299
 20
294.6096200802316
 30
0.0
  0
VERTEX
  5
544
330
529
100
AcDbEntity
  8
CAPA_1
 62
     7
100
AcDbVertex
100
AcDb2dVertex
 10
-779.7301885015988
 20
294.5282927084269
 30
0.0
  0
VERTEX
  5
545
330
529
100
AcDbEntity
  8
CAPA_1
 62
     7
100
AcDbVertex
100
AcDb2dVertex
 10
-779.4010069072135
 20
294.4439254918402
 30
0.0
  0
VERTEX
  5
546
330
529
100
AcDbEntity
  8
CAPA_1
 62
     7
100
AcDbVertex
100
AcDb2dVertex
 10
-779.0730193128315
 20
294.3565297121584
 30
0.0
  0
VERTEX
  5
547
330
529
100
AcDbEntity
  8
CAPA_1
 62
     7
100
AcDbVertex
100
AcDb2dVertex
 10
-778.7462278221096
 20
294.2661166510682
 30
0.0
  0
VERTEX
  5
548
330
529
100
AcDbEntity
  8
CAPA_1
 62
     7
100
AcDbVertex
100
AcDb2dVertex
 10
-778.4206345387056
 20
294.1726975902565
 30
0.0
  0
VERTEX
  5
549
330
529
100
AcDbEntity
  8
CAPA_1
 62
     7
100
AcDbVertex
100
AcDb2dVertex
 10
-778.0962415662761
 20
294.0762838114101
 30
0.0
  0
VERTEX
  5
54A
330
529
100
AcDbEntity
  8
CAPA_1
 62
     7
100
AcDbVertex
100
AcDb2dVertex
 10
-777.7730510084789
 20
293.9768865962157
 30
0.0
  0
VERTEX
  5
54B
330
529
100
AcDbEntity
  8
CAPA_1
 62
     7
100
AcDbVertex
100
AcDb2dVertex
 10
-777.4510649689707
 20
293.8745172263603
 30
0.0
  0
VERTEX
  5
54C
330
529
100
AcDbEntity
  8
CAPA_1
 62
     7
100
AcDbVertex
100
AcDb2dVertex
 10
-777.1302855514093
 20
293.7691869835306
 30
0.0
  0
VERTEX
  5
54D
330
529
100
AcDbEntity
  8
CAPA_1
 62
     7
100
AcDbVertex
100
AcDb2dVertex
 10
-776.8107148594514
 20
293.6609071494136
 30
0.0
  0
VERTEX
  5
54E
330
529
100
AcDbEntity
  8
CAPA_1
 62
     7
100
AcDbVertex
100
AcDb2dVertex
 10
-776.4923549967546
 20
293.5496890056959
 30
0.0
  0
VERTEX
  5
54F
330
529
100
AcDbEntity
  8
CAPA_1
 62
     7
100
AcDbVertex
100
AcDb2dVertex
 10
-776.1752080669758
 20
293.4355438340644
 30
0.0
  0
VERTEX
  5
550
330
529
100
AcDbEntity
  8
CAPA_1
 62
     7
100
AcDbVertex
100
AcDb2dVertex
 10
-775.8592761737724
 20
293.318482916206
 30
0.0
  0
VERTEX
  5
551
330
529
100
AcDbEntity
  8
CAPA_1
 62
     7
100
AcDbVertex
100
AcDb2dVertex
 10
-775.5445614208018
 20
293.1985175338074
 30
0.0
  0
VERTEX
  5
552
330
529
100
AcDbEntity
  8
CAPA_1
 62
     7
100
AcDbVertex
100
AcDb2dVertex
 10
-775.2310659117209
 20
293.0756589685554
 30
0.0
  0
VERTEX
  5
553
330
529
100
AcDbEntity
  8
CAPA_1
 62
     7
100
AcDbVertex
100
AcDb2dVertex
 10
-774.9187917501872
 20
292.949918502137
 30
0.0
  0
VERTEX
  5
554
330
529
100
AcDbEntity
  8
CAPA_1
 62
     7
100
AcDbVertex
100
AcDb2dVertex
 10
-774.6077410398575
 20
292.8213074162388
 30
0.0
  0
VERTEX
  5
555
330
529
100
AcDbEntity
  8
CAPA_1
 62
     7
100
AcDbVertex
100
AcDb2dVertex
 10
-774.2979158843896
 20
292.6898369925478
 30
0.0
  0
VERTEX
  5
556
330
529
100
AcDbEntity
  8
CAPA_1
 62
     7
100
AcDbVertex
100
AcDb2dVertex
 10
-773.9893183874403
 20
292.5555185127507
 30
0.0
  0
VERTEX
  5
557
330
529
100
AcDbEntity
  8
CAPA_1
 62
     7
100
AcDbVertex
100
AcDb2dVertex
 10
-773.6819506526672
 20
292.4183632585344
 30
0.0
  0
VERTEX
  5
558
330
529
100
AcDbEntity
  8
CAPA_1
 62
     7
100
AcDbVertex
100
AcDb2dVertex
 10
-773.375814783727
 20
292.2783825115857
 30
0.0
  0
VERTEX
  5
559
330
529
100
AcDbEntity
  8
CAPA_1
 62
     7
100
AcDbVertex
100
AcDb2dVertex
 10
-773.0709128842773
 20
292.1355875535914
 30
0.0
  0
VERTEX
  5
55A
330
529
100
AcDbEntity
  8
CAPA_1
 62
     7
100
AcDbVertex
100
AcDb2dVertex
 10
-772.7672470579753
 20
291.9899896662383
 30
0.0
  0
VERTEX
  5
55B
330
529
100
AcDbEntity
  8
CAPA_1
 62
     7
100
AcDbVertex
100
AcDb2dVertex
 10
-772.464819408478
 20
291.8416001312132
 30
0.0
  0
VERTEX
  5
55C
330
529
100
AcDbEntity
  8
CAPA_1
 62
     7
100
AcDbVertex
100
AcDb2dVertex
 10
-772.163632039443
 20
291.690430230203
 30
0.0
  0
VERTEX
  5
55D
330
529
100
AcDbEntity
  8
CAPA_1
 62
     7
100
AcDbVertex
100
AcDb2dVertex
 10
-771.8636870545272
 20
291.5364912448945
 30
0.0
  0
VERTEX
  5
55E
330
529
100
AcDbEntity
  8
CAPA_1
 62
     7
100
AcDbVertex
100
AcDb2dVertex
 10
-771.564986557388
 20
291.3797944569745
 30
0.0
  0
VERTEX
  5
55F
330
529
100
AcDbEntity
  8
CAPA_1
 62
     7
100
AcDbVertex
100
AcDb2dVertex
 10
-771.2675326516826
 20
291.2203511481299
 30
0.0
  0
VERTEX
  5
560
330
529
100
AcDbEntity
  8
CAPA_1
 62
     7
100
AcDbVertex
100
AcDb2dVertex
 10
-770.9713274410681
 20
291.0581726000473
 30
0.0
  0
VERTEX
  5
561
330
529
100
AcDbEntity
  8
CAPA_1
 62
     7
100
AcDbVertex
100
AcDb2dVertex
 10
-770.6763730292018
 20
290.8932700944138
 30
0.0
  0
VERTEX
  5
562
330
529
100
AcDbEntity
  8
CAPA_1
 62
     7
100
AcDbVertex
100
AcDb2dVertex
 10
-770.3826715197412
 20
290.725654912916
 30
0.0
  0
VERTEX
  5
563
330
529
100
AcDbEntity
  8
CAPA_1
 62
     7
100
AcDbVertex
100
AcDb2dVertex
 10
-770.0902250163431
 20
290.5553383372408
 30
0.0
  0
VERTEX
  5
564
330
529
100
AcDbEntity
  8
CAPA_1
 62
     7
100
AcDbVertex
100
AcDb2dVertex
 10
-769.7990356226649
 20
290.382331649075
 30
0.0
  0
VERTEX
  5
565
330
529
100
AcDbEntity
  8
CAPA_1
 62
     7
100
AcDbVertex
100
AcDb2dVertex
 10
-769.5091054423639
 20
290.2066461301055
 30
0.0
  0
VERTEX
  5
566
330
529
100
AcDbEntity
  8
CAPA_1
 62
     7
100
AcDbVertex
100
AcDb2dVertex
 10
-769.220436579097
 20
290.028293062019
 30
0.0
  0
VERTEX
  5
567
330
529
100
AcDbEntity
  8
CAPA_1
 62
     7
100
AcDbVertex
100
AcDb2dVertex
 10
-768.9330311365219
 20
289.8472837265024
 30
0.0
  0
VERTEX
  5
568
330
529
100
AcDbEntity
  8
CAPA_1
 62
     7
100
AcDbVertex
100
AcDb2dVertex
 10
-768.6468912182954
 20
289.6636294052425
 30
0.0
  0
VERTEX
  5
569
330
529
100
AcDbEntity
  8
CAPA_1
 62
     7
100
AcDbVertex
100
AcDb2dVertex
 10
-768.362018928075
 20
289.4773413799262
 30
0.0
  0
VERTEX
  5
56A
330
529
100
AcDbEntity
  8
CAPA_1
 62
     7
100
AcDbVertex
100
AcDb2dVertex
 10
-768.078416369518
 20
289.2884309322402
 30
0.0
  0
VERTEX
  5
56B
330
529
100
AcDbEntity
  8
CAPA_1
 62
     7
100
AcDbVertex
100
AcDb2dVertex
 10
-767.7960856462814
 20
289.0969093438713
 30
0.0
  0
VERTEX
  5
56C
330
529
100
AcDbEntity
  8
CAPA_1
 62
     7
100
AcDbVertex
100
AcDb2dVertex
 10
-767.5150288620224
 20
288.9027878965064
 30
0.0
  0
VERTEX
  5
56D
330
529
100
AcDbEntity
  8
CAPA_1
 62
     7
100
AcDbVertex
100
AcDb2dVertex
 10
-767.2352481203984
 20
288.7060778718323
 30
0.0
  0
VERTEX
  5
56E
330
529
100
AcDbEntity
  8
CAPA_1
 62
     7
100
AcDbVertex
100
AcDb2dVertex
 10
-766.9567455250665
 20
288.5067905515359
 30
0.0
  0
VERTEX
  5
56F
330
529
100
AcDbEntity
  8
CAPA_1
 62
     7
100
AcDbVertex
100
AcDb2dVertex
 10
-766.6795231796839
 20
288.304937217304
 30
0.0
  0
VERTEX
  5
570
330
529
100
AcDbEntity
  8
CAPA_1
 62
     7
100
AcDbVertex
100
AcDb2dVertex
 10
-766.403583187908
 20
288.1005291508232
 30
0.0
  0
VERTEX
  5
571
330
529
100
AcDbEntity
  8
CAPA_1
 62
     7
100
AcDbVertex
100
AcDb2dVertex
 10
-766.128927653396
 20
287.8935776337805
 30
0.0
  0
VERTEX
  5
572
330
529
100
AcDbEntity
  8
CAPA_1
 62
     7
100
AcDbVertex
100
AcDb2dVertex
 10
-765.855558679805
 20
287.6840939478628
 30
0.0
  0
VERTEX
  5
573
330
529
100
AcDbEntity
  8
CAPA_1
 62
     7
100
AcDbVertex
100
AcDb2dVertex
 10
-765.5834783707922
 20
287.4720893747567
 30
0.0
  0
VERTEX
  5
574
330
529
100
AcDbEntity
  8
CAPA_1
 62
     7
100
AcDbVertex
100
AcDb2dVertex
 10
-765.3126888300151
 20
287.2575751961492
 30
0.0
  0
VERTEX
  5
575
330
529
100
AcDbEntity
  8
CAPA_1
 62
     7
100
AcDbVertex
100
AcDb2dVertex
 10
-765.0431921611305
 20
287.0405626937271
 30
0.0
  0
VERTEX
  5
576
330
529
100
AcDbEntity
  8
CAPA_1
 62
     7
100
AcDbVertex
100
AcDb2dVertex
 10
-764.774990467796
 20
286.8210631491771
 30
0.0
  0
VERTEX
  5
577
330
529
100
AcDbEntity
  8
CAPA_1
 62
     7
100
AcDbVertex
100
AcDb2dVertex
 10
-764.5080858536686
 20
286.5990878441861
 30
0.0
  0
VERTEX
  5
578
330
529
100
AcDbEntity
  8
CAPA_1
 62
     7
100
AcDbVertex
100
AcDb2dVertex
 10
-764.2424804224056
 20
286.374648060441
 30
0.0
  0
VERTEX
  5
579
330
529
100
AcDbEntity
  8
CAPA_1
 62
     7
100
AcDbVertex
100
AcDb2dVertex
 10
-763.9781762776643
 20
286.1477550796284
 30
0.0
  0
VERTEX
  5
57A
330
529
100
AcDbEntity
  8
CAPA_1
 62
     7
100
AcDbVertex
100
AcDb2dVertex
 10
-763.7151755231017
 20
285.9184201834354
 30
0.0
  0
VERTEX
  5
57B
330
529
100
AcDbEntity
  8
CAPA_1
 62
     7
100
AcDbVertex
100
AcDb2dVertex
 10
-763.4534802623755
 20
285.6866546535486
 30
0.0
  0
VERTEX
  5
57C
330
529
100
AcDbEntity
  8
CAPA_1
 62
     7
100
AcDbVertex
100
AcDb2dVertex
 10
-763.1930925991423
 20
285.4524697716549
 30
0.0
  0
VERTEX
  5
57D
330
529
100
AcDbEntity
  8
CAPA_1
 62
     7
100
AcDbVertex
100
AcDb2dVertex
 10
-762.9340146370597
 20
285.2158768194411
 30
0.0
  0
VERTEX
  5
57E
330
529
100
AcDbEntity
  8
CAPA_1
 62
     7
100
AcDbVertex
100
AcDb2dVertex
 10
-762.6762484797848
 20
284.976887078594
 30
0.0
  0
VERTEX
  5
57F
330
529
100
AcDbEntity
  8
CAPA_1
 62
     7
100
AcDbVertex
100
AcDb2dVertex
 10
-762.4197962309748
 20
284.7355118308005
 30
0.0
  0
VERTEX
  5
580
330
529
100
AcDbEntity
  8
CAPA_1
 62
     7
100
AcDbVertex
100
AcDb2dVertex
 10
-762.1646599942871
 20
284.4917623577475
 30
0.0
  0
VERTEX
  5
581
330
529
100
AcDbEntity
  8
CAPA_1
 62
     7
100
AcDbVertex
100
AcDb2dVertex
 10
-761.9108418733788
 20
284.2456499411215
 30
0.0
  0
VERTEX
  5
582
330
529
100
AcDbEntity
  8
CAPA_1
 62
     7
100
AcDbVertex
100
AcDb2dVertex
 10
-761.6583439719072
 20
283.9971858626096
 30
0.0
  0
VERTEX
  5
583
330
529
100
AcDbEntity
  8
CAPA_1
 62
     7
100
AcDbVertex
100
AcDb2dVertex
 10
-761.4071683935294
 20
283.7463814038986
 30
0.0
  0
VERTEX
  5
584
330
529
100
AcDbEntity
  8
CAPA_1
 62
     7
100
AcDbVertex
100
AcDb2dVertex
 10
-761.1573172419028
 20
283.4932478466752
 30
0.0
  0
VERTEX
  5
585
330
529
100
AcDbEntity
  8
CAPA_1
 62
     7
100
AcDbVertex
100
AcDb2dVertex
 10
-760.9087926206845
 20
283.2377964726262
 30
0.0
  0
VERTEX
  5
586
330
529
100
AcDbEntity
  8
CAPA_1
 62
     7
100
AcDbVertex
100
AcDb2dVertex
 10
-760.6615966335319
 20
282.9800385634386
 30
0.0
  0
VERTEX
  5
587
330
529
100
AcDbEntity
  8
CAPA_1
 62
     7
100
AcDbVertex
100
AcDb2dVertex
 10
-760.415731384102
 20
282.7199854007991
 30
0.0
  0
VERTEX
  5
588
330
529
100
AcDbEntity
  8
CAPA_1
 62
     7
100
AcDbVertex
100
AcDb2dVertex
 10
-760.171198976052
 20
282.4576482663945
 30
0.0
  0
VERTEX
  5
589
330
529
100
AcDbEntity
  8
CAPA_1
 62
     7
100
AcDbVertex
100
AcDb2dVertex
 10
-759.9280015130394
 20
282.1930384419116
 30
0.0
  0
VERTEX
  5
58A
330
529
100
AcDbEntity
  8
CAPA_1
 62
     7
100
AcDbVertex
100
AcDb2dVertex
 10
-759.686141098721
 20
281.9261672090374
 30
0.0
  0
VERTEX
  5
58B
330
529
100
AcDbEntity
  8
CAPA_1
 62
     7
100
AcDbVertex
100
AcDb2dVertex
 10
-759.4456198367545
 20
281.6570458494585
 30
0.0
  0
VERTEX
  5
58C
330
529
100
AcDbEntity
  8
CAPA_1
 62
     7
100
AcDbVertex
100
AcDb2dVertex
 10
-759.2064398307969
 20
281.3856856448618
 30
0.0
  0
VERTEX
  5
58D
330
529
100
AcDbEntity
  8
CAPA_1
 62
     7
100
AcDbVertex
100
AcDb2dVertex
 10
-758.9686031845054
 20
281.1120978769342
 30
0.0
  0
VERTEX
  5
58E
330
529
100
AcDbEntity
  8
CAPA_1
 62
     7
100
AcDbVertex
100
AcDb2dVertex
 10
-758.7321120015371
 20
280.8362938273625
 30
0.0
  0
VERTEX
  5
58F
330
529
100
AcDbEntity
  8
CAPA_1
 62
     7
100
AcDbVertex
100
AcDb2dVertex
 10
-758.4969683855495
 20
280.5582847778334
 30
0.0
  0
VERTEX
  5
590
330
529
100
AcDbEntity
  8
CAPA_1
 62
     7
100
AcDbVertex
100
AcDb2dVertex
 10
-758.2631744401997
 20
280.2780820100338
 30
0.0
  0
VERTEX
  5
591
330
529
100
AcDbEntity
  8
CAPA_1
 62
     7
100
AcDbVertex
100
AcDb2dVertex
 10
-758.0307322691449
 20
279.9956968056505
 30
0.0
  0
VERTEX
  5
592
330
529
100
AcDbEntity
  8
CAPA_1
 62
     7
100
AcDbVertex
100
AcDb2dVertex
 10
-757.7996439760424
 20
279.7111404463703
 30
0.0
  0
VERTEX
  5
593
330
529
100
AcDbEntity
  8
CAPA_1
 62
     7
100
AcDbVertex
100
AcDb2dVertex
 10
-757.5699116645492
 20
279.4244242138801
 30
0.0
  0
VERTEX
  5
594
330
529
100
AcDbEntity
  8
CAPA_1
 62
     7
100
AcDbVertex
100
AcDb2dVertex
 10
-757.341537438323
 20
279.1355593898666
 30
0.0
  0
VERTEX
  5
595
330
529
100
AcDbEntity
  8
CAPA_1
 62
     7
100
AcDbVertex
100
AcDb2dVertex
 10
-757.1145234010205
 20
278.8445572560167
 30
0.0
  0
VERTEX
  5
596
330
529
100
AcDbEntity
  8
CAPA_1
 62
     7
100
AcDbVertex
100
AcDb2dVertex
 10
-756.8888716562994
 20
278.5514290940173
 30
0.0
  0
VERTEX
  5
597
330
529
100
AcDbEntity
  8
CAPA_1
 62
     7
100
AcDbVertex
100
AcDb2dVertex
 10
-756.6645843078165
 20
278.2561861855551
 30
0.0
  0
VERTEX
  5
598
330
529
100
AcDbEntity
  8
CAPA_1
 62
     7
100
AcDbVertex
100
AcDb2dVertex
 10
-756.4416634592293
 20
277.9588398123169
 30
0.0
  0
VERTEX
  5
599
330
529
100
AcDbEntity
  8
CAPA_1
 62
     7
100
AcDbVertex
100
AcDb2dVertex
 10
-756.220111214195
 20
277.6594012559896
 30
0.0
  0
VERTEX
  5
59A
330
529
100
AcDbEntity
  8
CAPA_1
 62
     7
100
AcDbVertex
100
AcDb2dVertex
 10
-755.9999296763706
 20
277.35788179826
 30
0.0
  0
VERTEX
  5
59B
330
529
100
AcDbEntity
  8
CAPA_1
 62
     7
100
AcDbVertex
100
AcDb2dVertex
 10
-755.7811209494135
 20
277.0542927208148
 30
0.0
  0
VERTEX
  5
59C
330
529
100
AcDbEntity
  8
CAPA_1
 62
     7
100
AcDbVertex
100
AcDb2dVertex
 10
-755.563687136981
 20
276.7486453053411
 30
0.0
  0
VERTEX
  5
59D
330
529
100
AcDbEntity
  8
CAPA_1
 62
     7
100
AcDbVertex
100
AcDb2dVertex
 10
-755.3476303427303
 20
276.4409508335254
 30
0.0
  0
VERTEX
  5
59E
330
529
100
AcDbEntity
  8
CAPA_1
 62
     7
100
AcDbVertex
100
AcDb2dVertex
 10
-755.1329526703184
 20
276.1312205870548
 30
0.0
  0
VERTEX
  5
59F
330
529
100
AcDbEntity
  8
CAPA_1
 62
     7
100
AcDbVertex
100
AcDb2dVertex
 10
-754.9196562234029
 20
275.819465847616
 30
0.0
  0
VERTEX
  5
5A0
330
529
100
AcDbEntity
  8
CAPA_1
 62
     7
100
AcDbVertex
100
AcDb2dVertex
 10
-754.7077431056405
 20
275.5056978968957
 30
0.0
  0
VERTEX
  5
5A1
330
529
100
AcDbEntity
  8
CAPA_1
 62
     7
100
AcDbVertex
100
AcDb2dVertex
 10
-754.4972154206888
 20
275.1899280165808
 30
0.0
  0
VERTEX
  5
5A2
330
529
100
AcDbEntity
  8
CAPA_1
 62
     7
100
AcDbVertex
100
AcDb2dVertex
 10
-754.2880752722051
 20
274.8721674883582
 30
0.0
  0
VERTEX
  5
5A3
330
529
100
AcDbEntity
  8
CAPA_1
 62
     7
100
AcDbVertex
100
AcDb2dVertex
 10
-754.0803247638464
 20
274.5524275939147
 30
0.0
  0
VERTEX
  5
5A4
330
529
100
AcDbEntity
  8
CAPA_1
 62
     7
100
AcDbVertex
100
AcDb2dVertex
 10
-753.87396599927
 20
274.2307196149371
 30
0.0
  0
VERTEX
  5
5A5
330
529
100
AcDbEntity
  8
CAPA_1
 62
     7
100
AcDbVertex
100
AcDb2dVertex
 10
-753.6690010821331
 20
273.9070548331121
 30
0.0
  0
VERTEX
  5
5A6
330
529
100
AcDbEntity
  8
CAPA_1
 62
     7
100
AcDbVertex
100
AcDb2dVertex
 10
-753.4654321160931
 20
273.5814445301267
 30
0.0
  0
VERTEX
  5
5A7
330
529
100
AcDbEntity
  8
CAPA_1
 62
     7
100
AcDbVertex
100
AcDb2dVertex
 10
-753.263261204807
 20
273.2538999876676
 30
0.0
  0
VERTEX
  5
5A8
330
529
100
AcDbEntity
  8
CAPA_1
 62
     7
100
AcDbVertex
100
AcDb2dVertex
 10
-753.0624904519323
 20
272.9244324874218
 30
0.0
  0
VERTEX
  5
5A9
330
529
100
AcDbEntity
  8
CAPA_1
 62
     7
100
AcDbVertex
100
AcDb2dVertex
 10
-752.8631219611258
 20
272.5930533110759
 30
0.0
  0
VERTEX
  5
5AA
330
529
100
AcDbEntity
  8
CAPA_1
 62
     7
100
AcDbVertex
100
AcDb2dVertex
 10
-752.665157836045
 20
272.2597737403168
 30
0.0
  0
VERTEX
  5
5AB
330
529
100
AcDbEntity
  8
CAPA_1
 62
     7
100
AcDbVertex
100
AcDb2dVertex
 10
-752.468600180347
 20
271.9246050568313
 30
0.0
  0
VERTEX
  5
5AC
330
529
100
AcDbEntity
  8
CAPA_1
 62
     7
100
AcDbVertex
100
AcDb2dVertex
 10
-752.2734510976893
 20
271.5875585423063
 30
0.0
  0
VERTEX
  5
5AD
330
529
100
AcDbEntity
  8
CAPA_1
 62
     7
100
AcDbVertex
100
AcDb2dVertex
 10
-752.0797126917289
 20
271.2486454784286
 30
0.0
  0
VERTEX
  5
5AE
330
529
100
AcDbEntity
  8
CAPA_1
 62
     7
100
AcDbVertex
100
AcDb2dVertex
 10
-751.8873870661231
 20
270.9078771468849
 30
0.0
  0
VERTEX
  5
5AF
330
529
100
AcDbEntity
  8
CAPA_1
 62
     7
100
AcDbVertex
100
AcDb2dVertex
 10
-751.696476324529
 20
270.5652648293621
 30
0.0
  0
VERTEX
  5
5B0
330
529
100
AcDbEntity
  8
CAPA_1
 62
     7
100
AcDbVertex
100
AcDb2dVertex
 10
-751.5069825706039
 20
270.220819807547
 30
0.0
  0
VERTEX
  5
5B1
330
529
100
AcDbEntity
  8
CAPA_1
 62
     7
100
AcDbVertex
100
AcDb2dVertex
 10
-751.3189079080051
 20
269.8745533631264
 30
0.0
  0
VERTEX
  5
5B2
330
529
100
AcDbEntity
  8
CAPA_1
 62
     7
100
AcDbVertex
100
AcDb2dVertex
 10
-751.1322544403897
 20
269.5264767777874
 30
0.0
  0
VERTEX
  5
5B3
330
529
100
AcDbEntity
  8
CAPA_1
 62
     7
100
AcDbVertex
100
AcDb2dVertex
 10
-750.9470242714151
 20
269.1766013332165
 30
0.0
  0
VERTEX
  5
5B4
330
529
100
AcDbEntity
  8
CAPA_1
 62
     7
100
AcDbVertex
100
AcDb2dVertex
 10
-750.7632195047383
 20
268.8249383111005
 30
0.0
  0
VERTEX
  5
5B5
330
529
100
AcDbEntity
  8
CAPA_1
 62
     7
100
AcDbVertex
100
AcDb2dVertex
 10
-750.5808422440167
 20
268.4714989931263
 30
0.0
  0
VERTEX
  5
5B6
330
529
100
AcDbEntity
  8
CAPA_1
 62
     7
100
AcDbVertex
100
AcDb2dVertex
 10
-750.3998945929075
 20
268.1162946609808
 30
0.0
  0
VERTEX
  5
5B7
330
529
100
AcDbEntity
  8
CAPA_1
 62
     7
100
AcDbVertex
100
AcDb2dVertex
 10
-750.2203786550679
 20
267.7593365963507
 30
0.0
  0
VERTEX
  5
5B8
330
529
100
AcDbEntity
  8
CAPA_1
 62
     7
100
AcDbVertex
100
AcDb2dVertex
 10
-750.042296534155
 20
267.400636080923
 30
0.0
  0
VERTEX
  5
5B9
330
529
100
AcDbEntity
  8
CAPA_1
 62
     7
100
AcDbVertex
100
AcDb2dVertex
 10
-749.8656503338261
 20
267.0402043963844
 30
0.0
  0
VERTEX
  5
5BA
330
529
100
AcDbEntity
  8
CAPA_1
 62
     7
100
AcDbVertex
100
AcDb2dVertex
 10
-749.6904421577387
 20
266.6780528244216
 30
0.0
  0
VERTEX
  5
5BB
330
529
100
AcDbEntity
  8
CAPA_1
 62
     7
100
AcDbVertex
100
AcDb2dVertex
 10
-749.5166741095497
 20
266.3141926467217
 30
0.0
  0
VERTEX
  5
5BC
330
529
100
AcDbEntity
  8
CAPA_1
 62
     7
100
AcDbVertex
100
AcDb2dVertex
 10
-749.3443482929165
 20
265.9486351449713
 30
0.0
  0
VERTEX
  5
5BD
330
529
100
AcDbEntity
  8
CAPA_1
 62
     7
100
AcDbVertex
100
AcDb2dVertex
 10
-749.173466811496
 20
265.5813916008572
 30
0.0
  0
VERTEX
  5
5BE
330
529
100
AcDbEntity
  8
CAPA_1
 62
     7
100
AcDbVertex
100
AcDb2dVertex
 10
-749.0040317689459
 20
265.2124732960664
 30
0.0
  0
VERTEX
  5
5BF
330
529
100
AcDbEntity
  8
CAPA_1
 62
     7
100
AcDbVertex
100
AcDb2dVertex
 10
-748.836045268923
 20
264.8418915122855
 30
0.0
  0
VERTEX
  5
5C0
330
529
100
AcDbEntity
  8
CAPA_1
 62
     7
100
AcDbVertex
100
AcDb2dVertex
 10
-748.6695094150848
 20
264.4696575312015
 30
0.0
  0
VERTEX
  5
5C1
330
529
100
AcDbEntity
  8
CAPA_1
 62
     7
100
AcDbVertex
100
AcDb2dVertex
 10
-748.3407980605912
 20
263.7202781038714
 30
0.0
  0
VERTEX
  5
5C2
330
529
100
AcDbEntity
  8
CAPA_1
 62
     7
100
AcDbVertex
100
AcDb2dVertex
 10
-748.0179145347226
 20
262.9644252675704
 30
0.0
  0
VERTEX
  5
5C3
330
529
100
AcDbEntity
  8
CAPA_1
 62
     7
100
AcDbVertex
100
AcDb2dVertex
 10
-747.7008756667373
 20
262.2021892757931
 30
0.0
  0
VERTEX
  5
5C4
330
529
100
AcDbEntity
  8
CAPA_1
 62
     7
100
AcDbVertex
100
AcDb2dVertex
 10
-747.3896982858926
 20
261.4336603820342
 30
0.0
  0
VERTEX
  5
5C5
330
529
100
AcDbEntity
  8
CAPA_1
 62
     7
100
AcDbVertex
100
AcDb2dVertex
 10
-747.0843992214463
 20
260.6589288397882
 30
0.0
  0
VERTEX
  5
5C6
330
529
100
AcDbEntity
  8
CAPA_1
 62
     7
100
AcDbVertex
100
AcDb2dVertex
 10
-746.7849953026566
 20
259.8780849025496
 30
0.0
  0
VERTEX
  5
5C7
330
529
100
AcDbEntity
  8
CAPA_1
 62
     7
100
AcDbVertex
100
AcDb2dVertex
 10
-746.4915033587811
 20
259.0912188238129
 30
0.0
  0
VERTEX
  5
5C8
330
529
100
AcDbEntity
  8
CAPA_1
 62
     7
100
AcDbVertex
100
AcDb2dVertex
 10
-746.2039402190774
 20
258.2984208570729
 30
0.0
  0
VERTEX
  5
5C9
330
529
100
AcDbEntity
  8
CAPA_1
 62
     7
100
AcDbVertex
100
AcDb2dVertex
 10
-745.9223227128036
 20
257.4997812558239
 30
0.0
  0
VERTEX
  5
5CA
330
529
100
AcDbEntity
  8
CAPA_1
 62
     7
100
AcDbVertex
100
AcDb2dVertex
 10
-745.6466676692174
 20
256.6953902735606
 30
0.0
  0
VERTEX
  5
5CB
330
529
100
AcDbEntity
  8
CAPA_1
 62
     7
100
AcDbVertex
100
AcDb2dVertex
 10
-745.3769919175766
 20
255.8853381637774
 30
0.0
  0
VERTEX
  5
5CC
330
529
100
AcDbEntity
  8
CAPA_1
 62
     7
100
AcDbVertex
100
AcDb2dVertex
 10
-745.1133122871389
 20
255.0697151799691
 30
0.0
  0
VERTEX
  5
5CD
330
529
100
AcDbEntity
  8
CAPA_1
 62
     7
100
AcDbVertex
100
AcDb2dVertex
 10
-744.8556456071624
 20
254.2486115756301
 30
0.0
  0
VERTEX
  5
5CE
330
529
100
AcDbEntity
  8
CAPA_1
 62
     7
100
AcDbVertex
100
AcDb2dVertex
 10
-744.6040087069046
 20
253.422117604255
 30
0.0
  0
VERTEX
  5
5CF
330
529
100
AcDbEntity
  8
CAPA_1
 62
     7
100
AcDbVertex
100
AcDb2dVertex
 10
-744.3584184156233
 20
252.5903235193384
 30
0.0
  0
VERTEX
  5
5D0
330
529
100
AcDbEntity
  8
CAPA_1
 62
     7
100
AcDbVertex
100
AcDb2dVertex
 10
-744.1188915625764
 20
251.7533195743748
 30
0.0
  0
VERTEX
  5
5D1
330
529
100
AcDbEntity
  8
CAPA_1
 62
     7
100
AcDbVertex
100
AcDb2dVertex
 10
-743.885444977022
 20
250.9111960228587
 30
0.0
  0
VERTEX
  5
5D2
330
529
100
AcDbEntity
  8
CAPA_1
 62
     7
100
AcDbVertex
100
AcDb2dVertex
 10
-743.6580954882174
 20
250.0640431182848
 30
0.0
  0
VERTEX
  5
5D3
330
529
100
AcDbEntity
  8
CAPA_1
 62
     7
100
AcDbVertex
100
AcDb2dVertex
 10
-743.4368599254205
 20
249.2119511141475
 30
0.0
  0
VERTEX
  5
5D4
330
529
100
AcDbEntity
  8
CAPA_1
 62
     7
100
AcDbVertex
100
AcDb2dVertex
 10
-743.2217551178894
 20
248.3550102639414
 30
0.0
  0
VERTEX
  5
5D5
330
529
100
AcDbEntity
  8
CAPA_1
 62
     7
100
AcDbVertex
100
AcDb2dVertex
 10
-743.0127978948817
 20
247.4933108211612
 30
0.0
  0
VERTEX
  5
5D6
330
529
100
AcDbEntity
  8
CAPA_1
 62
     7
100
AcDbVertex
100
AcDb2dVertex
 10
-742.8100050856552
 20
246.6269430393013
 30
0.0
  0
VERTEX
  5
5D7
330
529
100
AcDbEntity
  8
CAPA_1
 62
     7
100
AcDbVertex
100
AcDb2dVertex
 10
-742.6133935194676
 20
245.7559971718563
 30
0.0
  0
VERTEX
  5
5D8
330
529
100
AcDbEntity
  8
CAPA_1
 62
     7
100
AcDbVertex
100
AcDb2dVertex
 10
-742.422980025577
 20
244.8805634723209
 30
0.0
  0
VERTEX
  5
5D9
330
529
100
AcDbEntity
  8
CAPA_1
 62
     7
100
AcDbVertex
100
AcDb2dVertex
 10
-742.2387814332409
 20
244.0007321941894
 30
0.0
  0
VERTEX
  5
5DA
330
529
100
AcDbEntity
  8
CAPA_1
 62
     7
100
AcDbVertex
100
AcDb2dVertex
 10
-742.0608145717173
 20
243.1165935909565
 30
0.0
  0
VERTEX
  5
5DB
330
529
100
AcDbEntity
  8
CAPA_1
 62
     7
100
AcDbVertex
100
AcDb2dVertex
 10
-741.8890962702637
 20
242.2282379161169
 30
0.0
  0
VERTEX
  5
5DC
330
529
100
AcDbEntity
  8
CAPA_1
 62
     7
100
AcDbVertex
100
AcDb2dVertex
 10
-741.7236433581384
 20
241.3357554231648
 30
0.0
  0
VERTEX
  5
5DD
330
529
100
AcDbEntity
  8
CAPA_1
 62
     7
100
AcDbVertex
100
AcDb2dVertex
 10
-741.5644726645987
 20
240.4392363655951
 30
0.0
  0
VERTEX
  5
5DE
330
529
100
AcDbEntity
  8
CAPA_1
 62
     7
100
AcDbVertex
100
AcDb2dVertex
 10
-741.4116010189027
 20
239.5387709969021
 30
0.0
  0
VERTEX
  5
5DF
330
529
100
AcDbEntity
  8
CAPA_1
 62
     7
100
AcDbVertex
100
AcDb2dVertex
 10
-741.2650452503083
 20
238.6344495705806
 30
0.0
  0
VERTEX
  5
5E0
330
529
100
AcDbEntity
  8
CAPA_1
 62
     7
100
AcDbVertex
100
AcDb2dVertex
 10
-741.124822188073
 20
237.726362340125
 30
0.0
  0
VERTEX
  5
5E1
330
529
100
AcDbEntity
  8
CAPA_1
 62
     7
100
AcDbVertex
100
AcDb2dVertex
 10
-740.9909486614547
 20
236.8145995590298
 30
0.0
  0
VERTEX
  5
5E2
330
529
100
AcDbEntity
  8
CAPA_1
 62
     7
100
AcDbVertex
100
AcDb2dVertex
 10
-740.8634414997111
 20
235.8992514807898
 30
0.0
  0
VERTEX
  5
5E3
330
529
100
AcDbEntity
  8
CAPA_1
 62
     7
100
AcDbVertex
100
AcDb2dVertex
 10
-740.7423175321005
 20
234.9804083588993
 30
0.0
  0
VERTEX
  5
5E4
330
529
100
AcDbEntity
  8
CAPA_1
 62
     7
100
AcDbVertex
100
AcDb2dVertex
 10
-740.6275935878801
 20
234.058160446853
 30
0.0
  0
VERTEX
  5
5E5
330
529
100
AcDbEntity
  8
CAPA_1
 62
     7
100
AcDbVertex
100
AcDb2dVertex
 10
-740.519286496308
 20
233.1325979981455
 30
0.0
  0
VERTEX
  5
5E6
330
529
100
AcDbEntity
  8
CAPA_1
 62
     7
100
AcDbVertex
100
AcDb2dVertex
 10
-740.417413086642
 20
232.2038112662712
 30
0.0
  0
VERTEX
  5
5E7
330
529
100
AcDbEntity
  8
CAPA_1
 62
     7
100
AcDbVertex
100
AcDb2dVertex
 10
-740.3219901881398
 20
231.2718905047248
 30
0.0
  0
VERTEX
  5
5E8
330
529
100
AcDbEntity
  8
CAPA_1
 62
     7
100
AcDbVertex
100
AcDb2dVertex
 10
-740.2330346300594
 20
230.3369259670008
 30
0.0
  0
VERTEX
  5
5E9
330
529
100
AcDbEntity
  8
CAPA_1
 62
     7
100
AcDbVertex
100
AcDb2dVertex
 10
-740.1505632416582
 20
229.3990079065937
 30
0.0
  0
VERTEX
  5
5EA
330
529
100
AcDbEntity
  8
CAPA_1
 62
     7
100
AcDbVertex
100
AcDb2dVertex
 10
-740.0745928521944
 20
228.4582265769982
 30
0.0
  0
VERTEX
  5
5EB
330
529
100
AcDbEntity
  8
CAPA_1
 62
     7
100
AcDbVertex
100
AcDb2dVertex
 10
-740.0051402909255
 20
227.5146722317087
 30
0.0
  0
VERTEX
  5
5EC
330
529
100
AcDbEntity
  8
CAPA_1
 62
     7
100
AcDbVertex
100
AcDb2dVertex
 10
-739.9422223871095
 20
226.5684351242198
 30
0.0
  0
VERTEX
  5
5ED
330
529
100
AcDbEntity
  8
CAPA_1
 62
     7
100
AcDbVertex
100
AcDb2dVertex
 10
-739.8858559700043
 20
225.6196055080262
 30
0.0
  0
VERTEX
  5
5EE
330
529
100
AcDbEntity
  8
CAPA_1
 62
     7
100
AcDbVertex
100
AcDb2dVertex
 10
-739.8360578688676
 20
224.6682736366222
 30
0.0
  0
VERTEX
  5
5EF
330
529
100
AcDbEntity
  8
CAPA_1
 62
     7
100
AcDbVertex
100
AcDb2dVertex
 10
-739.7928449129569
 20
223.7145297635026
 30
0.0
  0
VERTEX
  5
5F0
330
529
100
AcDbEntity
  8
CAPA_1
 62
     7
100
AcDbVertex
100
AcDb2dVertex
 10
-739.7562339315305
 20
222.7584641421619
 30
0.0
  0
VERTEX
  5
5F1
330
529
100
AcDbEntity
  8
CAPA_1
 62
     7
100
AcDbVertex
100
AcDb2dVertex
 10
-739.7262417538458
 20
221.8001670260946
 30
0.0
  0
VERTEX
  5
5F2
330
529
100
AcDbEntity
  8
CAPA_1
 62
     7
100
AcDbVertex
100
AcDb2dVertex
 10
-739.7028852091609
 20
220.8397286687953
 30
0.0
  0
VERTEX
  5
5F3
330
529
100
AcDbEntity
  8
CAPA_1
 62
     7
100
AcDbVertex
100
AcDb2dVertex
 10
-739.6861811267333
 20
219.8772393237584
 30
0.0
  0
VERTEX
  5
5F4
330
529
100
AcDbEntity
  8
CAPA_1
 62
     7
100
AcDbVertex
100
AcDb2dVertex
 10
-739.676146335821
 20
218.9127892444787
 30
0.0
  0
VERTEX
  5
5F5
330
529
100
AcDbEntity
  8
CAPA_1
 62
     7
100
AcDbVertex
100
AcDb2dVertex
 10
-739.672797665682
 20
217.9464686844507
 30
0.0
  0
VERTEX
  5
5F6
330
529
100
AcDbEntity
  8
CAPA_1
 62
     7
100
AcDbVertex
100
AcDb2dVertex
 10
-739.6755332089142
 20
216.732300534246
 30
0.0
  0
VERTEX
  5
5F7
330
529
100
AcDbEntity
  8
CAPA_1
 62
     7
100
AcDbVertex
100
AcDb2dVertex
 10
-739.6836834839138
 20
215.5311595932524
 30
0.0
  0
VERTEX
  5
5F8
330
529
100
AcDbEntity
  8
CAPA_1
 62
     7
100
AcDbVertex
100
AcDb2dVertex
 10
-739.6971639586353
 20
214.3429270643163
 30
0.0
  0
VERTEX
  5
5F9
330
529
100
AcDbEntity
  8
CAPA_1
 62
     7
100
AcDbVertex
100
AcDb2dVertex
 10
-739.7158901010332
 20
213.1674841502841
 30
0.0
  0
VERTEX
  5
5FA
330
529
100
AcDbEntity
  8
CAPA_1
 62
     7
100
AcDbVertex
100
AcDb2dVertex
 10
-739.739777379062
 20
212.0047120540022
 30
0.0
  0
VERTEX
  5
5FB
330
529
100
AcDbEntity
  8
CAPA_1
 62
     7
100
AcDbVertex
100
AcDb2dVertex
 10
-739.7687412606763
 20
210.854491978317
 30
0.0
  0
VERTEX
  5
5FC
330
529
100
AcDbEntity
  8
CAPA_1
 62
     7
100
AcDbVertex
100
AcDb2dVertex
 10
-739.8026972138305
 20
209.7167051260749
 30
0.0
  0
VERTEX
  5
5FD
330
529
100
AcDbEntity
  8
CAPA_1
 62
     7
100
AcDbVertex
100
AcDb2dVertex
 10
-739.8415607064791
 20
208.5912327001224
 30
0.0
  0
VERTEX
  5
5FE
330
529
100
AcDbEntity
  8
CAPA_1
 62
     7
100
AcDbVertex
100
AcDb2dVertex
 10
-739.8852472065764
 20
207.4779559033057
 30
0.0
  0
VERTEX
  5
5FF
330
529
100
AcDbEntity
  8
CAPA_1
 62
     7
100
AcDbVertex
100
AcDb2dVertex
 10
-739.9336721820773
 20
206.3767559384713
 30
0.0
  0
VERTEX
  5
600
330
529
100
AcDbEntity
  8
CAPA_1
 62
     7
100
AcDbVertex
100
AcDb2dVertex
 10
-739.9867511009361
 20
205.2875140084656
 30
0.0
  0
VERTEX
  5
601
330
529
100
AcDbEntity
  8
CAPA_1
 62
     7
100
AcDbVertex
100
AcDb2dVertex
 10
-740.0443994311072
 20
204.210111316135
 30
0.0
  0
VERTEX
  5
602
330
529
100
AcDbEntity
  8
CAPA_1
 62
     7
100
AcDbVertex
100
AcDb2dVertex
 10
-740.1065326405453
 20
203.1444290643259
 30
0.0
  0
VERTEX
  5
603
330
529
100
AcDbEntity
  8
CAPA_1
 62
     7
100
AcDbVertex
100
AcDb2dVertex
 10
-740.1730661972047
 20
202.0903484558846
 30
0.0
  0
VERTEX
  5
604
330
529
100
AcDbEntity
  8
CAPA_1
 62
     7
100
AcDbVertex
100
AcDb2dVertex
 10
-740.2439155690399
 20
201.0477506936577
 30
0.0
  0
VERTEX
  5
605
330
529
100
AcDbEntity
  8
CAPA_1
 62
     7
100
AcDbVertex
100
AcDb2dVertex
 10
-740.3189962240057
 20
200.0165169804914
 30
0.0
  0
VERTEX
  5
606
330
529
100
AcDbEntity
  8
CAPA_1
 62
     7
100
AcDbVertex
100
AcDb2dVertex
 10
-740.3982236300562
 20
198.9965285192322
 30
0.0
  0
VERTEX
  5
607
330
529
100
AcDbEntity
  8
CAPA_1
 62
     7
100
AcDbVertex
100
AcDb2dVertex
 10
-740.4815132551462
 20
197.9876665127265
 30
0.0
  0
VERTEX
  5
608
330
529
100
AcDbEntity
  8
CAPA_1
 62
     7
100
AcDbVertex
100
AcDb2dVertex
 10
-740.56878056723
 20
196.9898121638207
 30
0.0
  0
VERTEX
  5
609
330
529
100
AcDbEntity
  8
CAPA_1
 62
     7
100
AcDbVertex
100
AcDb2dVertex
 10
-740.6599410342621
 20
196.0028466753611
 30
0.0
  0
VERTEX
  5
60A
330
529
100
AcDbEntity
  8
CAPA_1
 62
     7
100
AcDbVertex
100
AcDb2dVertex
 10
-740.7549101241973
 20
195.0266512501943
 30
0.0
  0
VERTEX
  5
60B
330
529
100
AcDbEntity
  8
CAPA_1
 62
     7
100
AcDbVertex
100
AcDb2dVertex
 10
-740.8536033049897
 20
194.0611070911665
 30
0.0
  0
VERTEX
  5
60C
330
529
100
AcDbEntity
  8
CAPA_1
 62
     7
100
AcDbVertex
100
AcDb2dVertex
 10
-740.955936044594
 20
193.1060954011241
 30
0.0
  0
VERTEX
  5
60D
330
529
100
AcDbEntity
  8
CAPA_1
 62
     7
100
AcDbVertex
100
AcDb2dVertex
 10
-741.0618238109646
 20
192.1614973829136
 30
0.0
  0
VERTEX
  5
60E
330
529
100
AcDbEntity
  8
CAPA_1
 62
     7
100
AcDbVertex
100
AcDb2dVertex
 10
-741.1711820720561
 20
191.2271942393814
 30
0.0
  0
VERTEX
  5
60F
330
529
100
AcDbEntity
  8
CAPA_1
 62
     7
100
AcDbVertex
100
AcDb2dVertex
 10
-741.283926295823
 20
190.3030671733739
 30
0.0
  0
VERTEX
  5
610
330
529
100
AcDbEntity
  8
CAPA_1
 62
     7
100
AcDbVertex
100
AcDb2dVertex
 10
-741.3999719502197
 20
189.3889973877374
 30
0.0
  0
VERTEX
  5
611
330
529
100
AcDbEntity
  8
CAPA_1
 62
     7
100
AcDbVertex
100
AcDb2dVertex
 10
-741.5192345032008
 20
188.4848660853183
 30
0.0
  0
VERTEX
  5
612
330
529
100
AcDbEntity
  8
CAPA_1
 62
     7
100
AcDbVertex
100
AcDb2dVertex
 10
-741.6416294227208
 20
187.5905544689631
 30
0.0
  0
VERTEX
  5
613
330
529
100
AcDbEntity
  8
CAPA_1
 62
     7
100
AcDbVertex
100
AcDb2dVertex
 10
-741.7670721767341
 20
186.7059437415182
 30
0.0
  0
VERTEX
  5
614
330
529
100
AcDbEntity
  8
CAPA_1
 62
     7
100
AcDbVertex
100
AcDb2dVertex
 10
-741.8954782331953
 20
185.8309151058299
 30
0.0
  0
VERTEX
  5
615
330
529
100
AcDbEntity
  8
CAPA_1
 62
     7
100
AcDbVertex
100
AcDb2dVertex
 10
-742.0267630600588
 20
184.9653497647447
 30
0.0
  0
VERTEX
  5
616
330
529
100
AcDbEntity
  8
CAPA_1
 62
     7
100
AcDbVertex
100
AcDb2dVertex
 10
-742.160842125279
 20
184.1091289211089
 30
0.0
  0
VERTEX
  5
617
330
529
100
AcDbEntity
  8
CAPA_1
 62
     7
100
AcDbVertex
100
AcDb2dVertex
 10
-742.2976308968107
 20
183.262133777769
 30
0.0
  0
VERTEX
  5
618
330
529
100
AcDbEntity
  8
CAPA_1
 62
     7
100
AcDbVertex
100
AcDb2dVertex
 10
-742.4370448426083
 20
182.4242455375712
 30
0.0
  0
VERTEX
  5
619
330
529
100
AcDbEntity
  8
CAPA_1
 62
     7
100
AcDbVertex
100
AcDb2dVertex
 10
-742.5789994306263
 20
181.5953454033622
 30
0.0
  0
VERTEX
  5
61A
330
529
100
AcDbEntity
  8
CAPA_1
 62
     7
100
AcDbVertex
100
AcDb2dVertex
 10
-742.7234101288188
 20
180.7753145779882
 30
0.0
  0
VERTEX
  5
61B
330
529
100
AcDbEntity
  8
CAPA_1
 62
     7
100
AcDbVertex
100
AcDb2dVertex
 10
-742.8701924051409
 20
179.9640342642956
 30
0.0
  0
VERTEX
  5
61C
330
529
100
AcDbEntity
  8
CAPA_1
 62
     7
100
AcDbVertex
100
AcDb2dVertex
 10
-743.0192617275468
 20
179.1613856651308
 30
0.0
  0
VERTEX
  5
61D
330
529
100
AcDbEntity
  8
CAPA_1
 62
     7
100
AcDbVertex
100
AcDb2dVertex
 10
-743.1705335639911
 20
178.3672499833403
 30
0.0
  0
VERTEX
  5
61E
330
529
100
AcDbEntity
  8
CAPA_1
 62
     7
100
AcDbVertex
100
AcDb2dVertex
 10
-743.3239233824281
 20
177.5815084217704
 30
0.0
  0
VERTEX
  5
61F
330
529
100
AcDbEntity
  8
CAPA_1
 62
     7
100
AcDbVertex
100
AcDb2dVertex
 10
-743.4793466508124
 20
176.8040421832675
 30
0.0
  0
VERTEX
  5
620
330
529
100
AcDbEntity
  8
CAPA_1
 62
     7
100
AcDbVertex
100
AcDb2dVertex
 10
-743.6367188370987
 20
176.0347324706781
 30
0.0
  0
VERTEX
  5
621
330
529
100
AcDbEntity
  8
CAPA_1
 62
     7
100
AcDbVertex
100
AcDb2dVertex
 10
-743.7959554092411
 20
175.2734604868484
 30
0.0
  0
VERTEX
  5
622
330
529
100
AcDbEntity
  8
CAPA_1
 62
     7
100
AcDbVertex
100
AcDb2dVertex
 10
-743.9569718351943
 20
174.5201074346251
 30
0.0
  0
VERTEX
  5
623
330
529
100
AcDbEntity
  8
CAPA_1
 62
     7
100
AcDbVertex
100
AcDb2dVertex
 10
-744.119683582913
 20
173.7745545168543
 30
0.0
  0
VERTEX
  5
624
330
529
100
AcDbEntity
  8
CAPA_1
 62
     7
100
AcDbVertex
100
AcDb2dVertex
 10
-744.2840061203515
 20
173.0366829363825
 30
0.0
  0
VERTEX
  5
625
330
529
100
AcDbEntity
  8
CAPA_1
 62
     7
100
AcDbVertex
100
AcDb2dVertex
 10
-744.4498549154644
 20
172.3063738960562
 30
0.0
  0
VERTEX
  5
626
330
529
100
AcDbEntity
  8
CAPA_1
 62
     7
100
AcDbVertex
100
AcDb2dVertex
 10
-744.6171454362059
 20
171.5835085987216
 30
0.0
  0
VERTEX
  5
627
330
529
100
AcDbEntity
  8
CAPA_1
 62
     7
100
AcDbVertex
100
AcDb2dVertex
 10
-744.7857931505308
 20
170.8679682472253
 30
0.0
  0
VERTEX
  5
628
330
529
100
AcDbEntity
  8
CAPA_1
 62
     7
100
AcDbVertex
100
AcDb2dVertex
 10
-744.9557135263935
 20
170.1596340444135
 30
0.0
  0
VERTEX
  5
629
330
529
100
AcDbEntity
  8
CAPA_1
 62
     7
100
AcDbVertex
100
AcDb2dVertex
 10
-745.1268220317485
 20
169.4583871931328
 30
0.0
  0
VERTEX
  5
62A
330
529
100
AcDbEntity
  8
CAPA_1
 62
     7
100
AcDbVertex
100
AcDb2dVertex
 10
-745.2990341345503
 20
168.7641088962295
 30
0.0
  0
VERTEX
  5
62B
330
529
100
AcDbEntity
  8
CAPA_1
 62
     7
100
AcDbVertex
100
AcDb2dVertex
 10
-745.4722653027534
 20
168.07668035655
 30
0.0
  0
VERTEX
  5
62C
330
529
100
AcDbEntity
  8
CAPA_1
 62
     7
100
AcDbVertex
100
AcDb2dVertex
 10
-745.6464310043123
 20
167.3959827769407
 30
0.0
  0
VERTEX
  5
62D
330
529
100
AcDbEntity
  8
CAPA_1
 62
     7
100
AcDbVertex
100
AcDb2dVertex
 10
-745.8214467071814
 20
166.721897360248
 30
0.0
  0
VERTEX
  5
62E
330
529
100
AcDbEntity
  8
CAPA_1
 62
     7
100
AcDbVertex
100
AcDb2dVertex
 10
-745.9972278793152
 20
166.0543053093182
 30
0.0
  0
VERTEX
  5
62F
330
529
100
AcDbEntity
  8
CAPA_1
 62
     7
100
AcDbVertex
100
AcDb2dVertex
 10
-746.1736899886686
 20
165.3930878269979
 30
0.0
  0
VERTEX
  5
630
330
529
100
AcDbEntity
  8
CAPA_1
 62
     7
100
AcDbVertex
100
AcDb2dVertex
 10
-746.3507485031956
 20
164.7381261161334
 30
0.0
  0
VERTEX
  5
631
330
529
100
AcDbEntity
  8
CAPA_1
 62
     7
100
AcDbVertex
100
AcDb2dVertex
 10
-746.5283188908509
 20
164.089301379571
 30
0.0
  0
VERTEX
  5
632
330
529
100
AcDbEntity
  8
CAPA_1
 62
     7
100
AcDbVertex
100
AcDb2dVertex
 10
-746.8846571573645
 20
162.8095876407384
 30
0.0
  0
VERTEX
  5
633
330
529
100
AcDbEntity
  8
CAPA_1
 62
     7
100
AcDbVertex
100
AcDb2dVertex
 10
-747.2420285318452
 20
161.5529962332714
 30
0.0
  0
VERTEX
  5
634
330
529
100
AcDbEntity
  8
CAPA_1
 62
     7
100
AcDbVertex
100
AcDb2dVertex
 10
-747.5997567579291
 20
160.3185767799411
 30
0.0
  0
VERTEX
  5
635
330
529
100
AcDbEntity
  8
CAPA_1
 62
     7
100
AcDbVertex
100
AcDb2dVertex
 10
-747.957165579252
 20
159.1053789035187
 30
0.0
  0
VERTEX
  5
636
330
529
100
AcDbEntity
  8
CAPA_1
 62
     7
100
AcDbVertex
100
AcDb2dVertex
 10
-748.3135787394498
 20
157.9124522267753
 30
0.0
  0
VERTEX
  5
637
330
529
100
AcDbEntity
  8
CAPA_1
 62
     7
100
AcDbVertex
100
AcDb2dVertex
 10
-748.6683199821587
 20
156.7388463724822
 30
0.0
  0
VERTEX
  5
638
330
529
100
AcDbEntity
  8
CAPA_1
 62
     7
100
AcDbVertex
100
AcDb2dVertex
 10
-749.0207130510146
 20
155.5836109634106
 30
0.0
  0
VERTEX
  5
639
330
529
100
AcDbEntity
  8
CAPA_1
 62
     7
100
AcDbVertex
100
AcDb2dVertex
 10
-749.3700816896536
 20
154.4457956223316
 30
0.0
  0
VERTEX
  5
63A
330
529
100
AcDbEntity
  8
CAPA_1
 62
     7
100
AcDbVertex
100
AcDb2dVertex
 10
-750.0570406508245
 20
152.2186236352361
 30
0.0
  0
VERTEX
  5
63B
330
529
100
AcDbEntity
  8
CAPA_1
 62
     7
100
AcDbVertex
100
AcDb2dVertex
 10
-750.7237868147595
 20
150.0497273933653
 30
0.0
  0
VERTEX
  5
63C
330
529
100
AcDbEntity
  8
CAPA_1
 62
     7
100
AcDbVertex
100
AcDb2dVertex
 10
-751.0478894568532
 20
148.9847567338172
 30
0.0
  0
VERTEX
  5
63D
330
529
100
AcDbEntity
  8
CAPA_1
 62
     7
100
AcDbVertex
100
AcDb2dVertex
 10
-751.3649101305459
 20
147.9315038788887
 30
0.0
  0
VERTEX
  5
63E
330
529
100
AcDbEntity
  8
CAPA_1
 62
     7
100
AcDbVertex
100
AcDb2dVertex
 10
-751.6741725794735
 20
146.8890184513512
 30
0.0
  0
VERTEX
  5
63F
330
529
100
AcDbEntity
  8
CAPA_1
 62
     7
100
AcDbVertex
100
AcDb2dVertex
 10
-751.975000547272
 20
145.8563500739758
 30
0.0
  0
VERTEX
  5
640
330
529
100
AcDbEntity
  8
CAPA_1
 62
     7
100
AcDbVertex
100
AcDb2dVertex
 10
-752.2667177775772
 20
144.8325483695336
 30
0.0
  0
VERTEX
  5
641
330
529
100
AcDbEntity
  8
CAPA_1
 62
     7
100
AcDbVertex
100
AcDb2dVertex
 10
-752.5486480140255
 20
143.8166629607958
 30
0.0
  0
VERTEX
  5
642
330
529
100
AcDbEntity
  8
CAPA_1
 62
     7
100
AcDbVertex
100
AcDb2dVertex
 10
-752.6857316794394
 20
143.3113918744321
 30
0.0
  0
VERTEX
  5
643
330
529
100
AcDbEntity
  8
CAPA_1
 62
     7
100
AcDbVertex
100
AcDb2dVertex
 10
-752.8201150002524
 20
142.8077434705338
 30
0.0
  0
VERTEX
  5
644
330
529
100
AcDbEntity
  8
CAPA_1
 62
     7
100
AcDbVertex
100
AcDb2dVertex
 10
-752.9517134444193
 20
142.305598951947
 30
0.0
  0
VERTEX
  5
645
330
529
100
AcDbEntity
  8
CAPA_1
 62
     7
100
AcDbVertex
100
AcDb2dVertex
 10
-753.0804424798944
 20
141.8048395215185
 30
0.0
  0
VERTEX
  5
646
330
529
100
AcDbEntity
  8
CAPA_1
 62
     7
100
AcDbVertex
100
AcDb2dVertex
 10
-753.2062175746321
 20
141.3053463820944
 30
0.0
  0
VERTEX
  5
647
330
529
100
AcDbEntity
  8
CAPA_1
 62
     7
100
AcDbVertex
100
AcDb2dVertex
 10
-753.3289541965869
 20
140.8070007365212
 30
0.0
  0
VERTEX
  5
648
330
529
100
AcDbEntity
  8
CAPA_1
 62
     7
100
AcDbVertex
100
AcDb2dVertex
 10
-753.4485678137135
 20
140.3096837876453
 30
0.0
  0
VERTEX
  5
649
330
529
100
AcDbEntity
  8
CAPA_1
 62
     7
100
AcDbVertex
100
AcDb2dVertex
 10
-753.5649738939662
 20
139.8132767383131
 30
0.0
  0
VERTEX
  5
64A
330
529
100
AcDbEntity
  8
CAPA_1
 62
     7
100
AcDbVertex
100
AcDb2dVertex
 10
-753.6780879052997
 20
139.317660791371
 30
0.0
  0
VERTEX
  5
64B
330
529
100
AcDbEntity
  8
CAPA_1
 62
     7
100
AcDbVertex
100
AcDb2dVertex
 10
-753.7878253156682
 20
138.8227171496654
 30
0.0
  0
VERTEX
  5
64C
330
529
100
AcDbEntity
  8
CAPA_1
 62
     7
100
AcDbVertex
100
AcDb2dVertex
 10
-753.8941015930267
 20
138.3283270160426
 30
0.0
  0
VERTEX
  5
64D
330
529
100
AcDbEntity
  8
CAPA_1
 62
     7
100
AcDbVertex
100
AcDb2dVertex
 10
-753.9968322053292
 20
137.8343715933491
 30
0.0
  0
VERTEX
  5
64E
330
529
100
AcDbEntity
  8
CAPA_1
 62
     7
100
AcDbVertex
100
AcDb2dVertex
 10
-754.0959326205303
 20
137.3407320844314
 30
0.0
  0
VERTEX
  5
64F
330
529
100
AcDbEntity
  8
CAPA_1
 62
     7
100
AcDbVertex
100
AcDb2dVertex
 10
-754.1913183065847
 20
136.8472896921357
 30
0.0
  0
VERTEX
  5
650
330
529
100
AcDbEntity
  8
CAPA_1
 62
     7
100
AcDbVertex
100
AcDb2dVertex
 10
-754.2829047314467
 20
136.3539256193085
 30
0.0
  0
VERTEX
  5
651
330
529
100
AcDbEntity
  8
CAPA_1
 62
     7
100
AcDbVertex
100
AcDb2dVertex
 10
-754.370607363071
 20
135.8605210687962
 30
0.0
  0
VERTEX
  5
652
330
529
100
AcDbEntity
  8
CAPA_1
 62
     7
100
AcDbVertex
100
AcDb2dVertex
 10
-754.4543416694119
 20
135.3669572434451
 30
0.0
  0
VERTEX
  5
653
330
529
100
AcDbEntity
  8
CAPA_1
 62
     7
100
AcDbVertex
100
AcDb2dVertex
 10
-754.5340231184239
 20
134.8731153461018
 30
0.0
  0
VERTEX
  5
654
330
529
100
AcDbEntity
  8
CAPA_1
 62
     7
100
AcDbVertex
100
AcDb2dVertex
 10
-754.6095671780615
 20
134.3788765796124
 30
0.0
  0
VERTEX
  5
655
330
529
100
AcDbEntity
  8
CAPA_1
 62
     7
100
AcDbVertex
100
AcDb2dVertex
 10
-754.6808893162795
 20
133.8841221468236
 30
0.0
  0
VERTEX
  5
656
330
529
100
AcDbEntity
  8
CAPA_1
 62
     7
100
AcDbVertex
100
AcDb2dVertex
 10
-754.747905001032
 20
133.3887332505816
 30
0.0
  0
VERTEX
  5
657
330
529
100
AcDbEntity
  8
CAPA_1
 62
     7
100
AcDbVertex
100
AcDb2dVertex
 10
-754.8105297002737
 20
132.8925910937329
 30
0.0
  0
VERTEX
  5
658
330
529
100
AcDbEntity
  8
CAPA_1
 62
     7
100
AcDbVertex
100
AcDb2dVertex
 10
-754.8686788819591
 20
132.3955768791238
 30
0.0
  0
VERTEX
  5
659
330
529
100
AcDbEntity
  8
CAPA_1
 62
     7
100
AcDbVertex
100
AcDb2dVertex
 10
-754.9222680140426
 20
131.8975718096009
 30
0.0
  0
VERTEX
  5
65A
330
529
100
AcDbEntity
  8
CAPA_1
 62
     7
100
AcDbVertex
100
AcDb2dVertex
 10
-754.9712125644787
 20
131.3984570880103
 30
0.0
  0
VERTEX
  5
65B
330
529
100
AcDbEntity
  8
CAPA_1
 62
     7
100
AcDbVertex
100
AcDb2dVertex
 10
-755.0154280012221
 20
130.8981139171987
 30
0.0
  0
VERTEX
  5
65C
330
529
100
AcDbEntity
  8
CAPA_1
 62
     7
100
AcDbVertex
100
AcDb2dVertex
 10
-755.054829792227
 20
130.3964235000122
 30
0.0
  0
VERTEX
  5
65D
330
529
100
AcDbEntity
  8
CAPA_1
 62
     7
100
AcDbVertex
100
AcDb2dVertex
 10
-755.0893334054481
 20
129.8932670392975
 30
0.0
  0
VERTEX
  5
65E
330
529
100
AcDbEntity
  8
CAPA_1
 62
     7
100
AcDbVertex
100
AcDb2dVertex
 10
-755.1188543088398
 20
129.3885257379007
 30
0.0
  0
VERTEX
  5
65F
330
529
100
AcDbEntity
  8
CAPA_1
 62
     7
100
AcDbVertex
100
AcDb2dVertex
 10
-755.1433079703567
 20
128.8820807986684
 30
0.0
  0
VERTEX
  5
660
330
529
100
AcDbEntity
  8
CAPA_1
 62
     7
100
AcDbVertex
100
AcDb2dVertex
 10
-755.1626098579532
 20
128.373813424447
 30
0.0
  0
VERTEX
  5
661
330
529
100
AcDbEntity
  8
CAPA_1
 62
     7
100
AcDbVertex
100
AcDb2dVertex
 10
-755.176675439584
 20
127.8636048180828
 30
0.0
  0
SEQEND
  5
662
330
529
100
AcDbEntity
  8
CAPA_1
 62
     7
  0
POLYLINE
  5
663
330
1F
100
AcDbEntity
  8
CAPA_1
 62
     7
100
AcDb2dPolyline
 66
     1
 10
0.0
 20
0.0
 30
0.0
  0
VERTEX
  5
664
330
663
100
AcDbEntity
  8
CAPA_1
 62
     7
100
AcDbVertex
100
AcDb2dVertex
 10
-755.176675439584
 20
127.8636048180828
 30
0.0
  0
VERTEX
  5
665
330
663
100
AcDbEntity
  8
CAPA_1
 62
     7
100
AcDbVertex
100
AcDb2dVertex
 10
-755.3008762564068
 20
122.4522411264696
 30
0.0
  0
VERTEX
  5
666
330
663
100
AcDbEntity
  8
CAPA_1
 62
     7
100
AcDbVertex
100
AcDb2dVertex
 10
-755.4287243441433
 20
117.1668384801537
 30
0.0
  0
VERTEX
  5
667
330
663
100
AcDbEntity
  8
CAPA_1
 62
     7
100
AcDbVertex
100
AcDb2dVertex
 10
-755.5596220648544
 20
112.028498588521
 30
0.0
  0
VERTEX
  5
668
330
663
100
AcDbEntity
  8
CAPA_1
 62
     7
100
AcDbVertex
100
AcDb2dVertex
 10
-755.6929717806006
 20
107.0583231609577
 30
0.0
  0
VERTEX
  5
669
330
663
100
AcDbEntity
  8
CAPA_1
 62
     7
100
AcDbVertex
100
AcDb2dVertex
 10
-755.8281758534428
 20
102.2774139068496
 30
0.0
  0
VERTEX
  5
66A
330
663
100
AcDbEntity
  8
CAPA_1
 62
     7
100
AcDbVertex
100
AcDb2dVertex
 10
-755.9646366454415
 20
97.70687253558285
 30
0.0
  0
VERTEX
  5
66B
330
663
100
AcDbEntity
  8
CAPA_1
 62
     7
100
AcDbVertex
100
AcDb2dVertex
 10
-756.0331515492685
 20
95.50708409019808
 30
0.0
  0
VERTEX
  5
66C
330
663
100
AcDbEntity
  8
CAPA_1
 62
     7
100
AcDbVertex
100
AcDb2dVertex
 10
-756.1017565186576
 20
93.36780075654337
 30
0.0
  0
VERTEX
  5
66D
330
663
100
AcDbEntity
  8
CAPA_1
 62
     7
100
AcDbVertex
100
AcDb2dVertex
 10
-756.170376848866
 20
91.29166024829198
 30
0.0
  0
VERTEX
  5
66E
330
663
100
AcDbEntity
  8
CAPA_1
 62
     7
100
AcDbVertex
100
AcDb2dVertex
 10
-756.2389378351515
 20
89.28130027911719
 30
0.0
  0
VERTEX
  5
66F
330
663
100
AcDbEntity
  8
CAPA_1
 62
     7
100
AcDbVertex
100
AcDb2dVertex
 10
-756.3073647727717
 20
87.33935856269221
 30
0.0
  0
VERTEX
  5
670
330
663
100
AcDbEntity
  8
CAPA_1
 62
     7
100
AcDbVertex
100
AcDb2dVertex
 10
-756.3755829569842
 20
85.4684728126903
 30
0.0
  0
VERTEX
  5
671
330
663
100
AcDbEntity
  8
CAPA_1
 62
     7
100
AcDbVertex
100
AcDb2dVertex
 10
-756.4435176830466
 20
83.67128074278472
 30
0.0
  0
VERTEX
  5
672
330
663
100
AcDbEntity
  8
CAPA_1
 62
     7
100
AcDbVertex
100
AcDb2dVertex
 10
-756.5110942462163
 20
81.95042006664869
 30
0.0
  0
VERTEX
  5
673
330
663
100
AcDbEntity
  8
CAPA_1
 62
     7
100
AcDbVertex
100
AcDb2dVertex
 10
-756.578237941751
 20
80.30852849795548
 30
0.0
  0
VERTEX
  5
674
330
663
100
AcDbEntity
  8
CAPA_1
 62
     7
100
AcDbVertex
100
AcDb2dVertex
 10
-756.6448740649084
 20
78.74824375037836
 30
0.0
  0
VERTEX
  5
675
330
663
100
AcDbEntity
  8
CAPA_1
 62
     7
100
AcDbVertex
100
AcDb2dVertex
 10
-756.7109279109461
 20
77.27220353759057
 30
0.0
  0
VERTEX
  5
676
330
663
100
AcDbEntity
  8
CAPA_1
 62
     7
100
AcDbVertex
100
AcDb2dVertex
 10
-756.7763247751213
 20
75.88304557326533
 30
0.0
  0
VERTEX
  5
677
330
663
100
AcDbEntity
  8
CAPA_1
 62
     7
100
AcDbVertex
100
AcDb2dVertex
 10
-756.840989952692
 20
74.58340757107592
 30
0.0
  0
VERTEX
  5
678
330
663
100
AcDbEntity
  8
CAPA_1
 62
     7
100
AcDbVertex
100
AcDb2dVertex
 10
-756.9048487389157
 20
73.37592724469559
 30
0.0
  0
VERTEX
  5
679
330
663
100
AcDbEntity
  8
CAPA_1
 62
     7
100
AcDbVertex
100
AcDb2dVertex
 10
-756.9678264290499
 20
72.26324230779758
 30
0.0
  0
VERTEX
  5
67A
330
663
100
AcDbEntity
  8
CAPA_1
 62
     7
100
AcDbVertex
100
AcDb2dVertex
 10
-757.0298483183522
 20
71.24799047405514
 30
0.0
  0
VERTEX
  5
67B
330
663
100
AcDbEntity
  8
CAPA_1
 62
     7
100
AcDbVertex
100
AcDb2dVertex
 10
-757.0908397020802
 20
70.33280945714152
 30
0.0
  0
VERTEX
  5
67C
330
663
100
AcDbEntity
  8
CAPA_1
 62
     7
100
AcDbVertex
100
AcDb2dVertex
 10
-757.1507258754915
 20
69.52033697072997
 30
0.0
  0
VERTEX
  5
67D
330
663
100
AcDbEntity
  8
CAPA_1
 62
     7
100
AcDbVertex
100
AcDb2dVertex
 10
-757.2094321338437
 20
68.81321072849374
 30
0.0
  0
VERTEX
  5
67E
330
663
100
AcDbEntity
  8
CAPA_1
 62
     7
100
AcDbVertex
100
AcDb2dVertex
 10
-757.2383194496407
 20
68.49997673446427
 30
0.0
  0
VERTEX
  5
67F
330
663
100
AcDbEntity
  8
CAPA_1
 62
     7
100
AcDbVertex
100
AcDb2dVertex
 10
-757.2668837723944
 20
68.21406844410609
 30
0.0
  0
VERTEX
  5
680
330
663
100
AcDbEntity
  8
CAPA_1
 62
     7
100
AcDbVertex
100
AcDb2dVertex
 10
-757.3095307229868
 20
67.82529176516323
 30
0.0
  0
VERTEX
  5
681
330
663
100
AcDbEntity
  8
CAPA_1
 62
     7
100
AcDbVertex
100
AcDb2dVertex
 10
-757.3567082077627
 20
67.43332584694173
 30
0.0
  0
VERTEX
  5
682
330
663
100
AcDbEntity
  8
CAPA_1
 62
     7
100
AcDbVertex
100
AcDb2dVertex
 10
-757.4084371136904
 20
67.03837628170507
 30
0.0
  0
VERTEX
  5
683
330
663
100
AcDbEntity
  8
CAPA_1
 62
     7
100
AcDbVertex
100
AcDb2dVertex
 10
-757.4647383277377
 20
66.64064866171677
 30
0.0
  0
VERTEX
  5
684
330
663
100
AcDbEntity
  8
CAPA_1
 62
     7
100
AcDbVertex
100
AcDb2dVertex
 10
-757.5256327368725
 20
66.2403485792403
 30
0.0
  0
VERTEX
  5
685
330
663
100
AcDbEntity
  8
CAPA_1
 62
     7
100
AcDbVertex
100
AcDb2dVertex
 10
-757.5911412280627
 20
65.83768162653917
 30
0.0
  0
VERTEX
  5
686
330
663
100
AcDbEntity
  8
CAPA_1
 62
     7
100
AcDbVertex
100
AcDb2dVertex
 10
-757.6612846882766
 20
65.43285339587683
 30
0.0
  0
VERTEX
  5
687
330
663
100
AcDbEntity
  8
CAPA_1
 62
     7
100
AcDbVertex
100
AcDb2dVertex
 10
-757.7360840044819
 20
65.02606947951679
 30
0.0
  0
VERTEX
  5
688
330
663
100
AcDbEntity
  8
CAPA_1
 62
     7
100
AcDbVertex
100
AcDb2dVertex
 10
-757.8155600636467
 20
64.61753546972254
 30
0.0
  0
VERTEX
  5
689
330
663
100
AcDbEntity
  8
CAPA_1
 62
     7
100
AcDbVertex
100
AcDb2dVertex
 10
-757.8997337527387
 20
64.20745695875756
 30
0.0
  0
VERTEX
  5
68A
330
663
100
AcDbEntity
  8
CAPA_1
 62
     7
100
AcDbVertex
100
AcDb2dVertex
 10
-757.9886259587263
 20
63.79603953888535
 30
0.0
  0
VERTEX
  5
68B
330
663
100
AcDbEntity
  8
CAPA_1
 62
     7
100
AcDbVertex
100
AcDb2dVertex
 10
-758.0822575685772
 20
63.38348880236938
 30
0.0
  0
VERTEX
  5
68C
330
663
100
AcDbEntity
  8
CAPA_1
 62
     7
100
AcDbVertex
100
AcDb2dVertex
 10
-758.1806494692596
 20
62.97001034147316
 30
0.0
  0
VERTEX
  5
68D
330
663
100
AcDbEntity
  8
CAPA_1
 62
     7
100
AcDbVertex
100
AcDb2dVertex
 10
-758.283822547741
 20
62.55580974846017
 30
0.0
  0
VERTEX
  5
68E
330
663
100
AcDbEntity
  8
CAPA_1
 62
     7
100
AcDbVertex
100
AcDb2dVertex
 10
-758.3917976909898
 20
62.14109261559389
 30
0.0
  0
VERTEX
  5
68F
330
663
100
AcDbEntity
  8
CAPA_1
 62
     7
100
AcDbVertex
100
AcDb2dVertex
 10
-758.5045957859738
 20
61.72606453513781
 30
0.0
  0
VERTEX
  5
690
330
663
100
AcDbEntity
  8
CAPA_1
 62
     7
100
AcDbVertex
100
AcDb2dVertex
 10
-758.6222377196611
 20
61.31093109935542
 30
0.0
  0
VERTEX
  5
691
330
663
100
AcDbEntity
  8
CAPA_1
 62
     7
100
AcDbVertex
100
AcDb2dVertex
 10
-758.7447443790195
 20
60.89589790051021
 30
0.0
  0
VERTEX
  5
692
330
663
100
AcDbEntity
  8
CAPA_1
 62
     7
100
AcDbVertex
100
AcDb2dVertex
 10
-758.8721366510172
 20
60.48117053086568
 30
0.0
  0
VERTEX
  5
693
330
663
100
AcDbEntity
  8
CAPA_1
 62
     7
100
AcDbVertex
100
AcDb2dVertex
 10
-759.0044354226219
 20
60.0669545826853
 30
0.0
  0
VERTEX
  5
694
330
663
100
AcDbEntity
  8
CAPA_1
 62
     7
100
AcDbVertex
100
AcDb2dVertex
 10
-759.1416615808018
 20
59.65345564823256
 30
0.0
  0
VERTEX
  5
695
330
663
100
AcDbEntity
  8
CAPA_1
 62
     7
100
AcDbVertex
100
AcDb2dVertex
 10
-759.2838360125247
 20
59.24087931977095
 30
0.0
  0
VERTEX
  5
696
330
663
100
AcDbEntity
  8
CAPA_1
 62
     7
100
AcDbVertex
100
AcDb2dVertex
 10
-759.4309796047587
 20
58.82943118956398
 30
0.0
  0
VERTEX
  5
697
330
663
100
AcDbEntity
  8
CAPA_1
 62
     7
100
AcDbVertex
100
AcDb2dVertex
 10
-759.5831132444716
 20
58.4193168498751
 30
0.0
  0
VERTEX
  5
698
330
663
100
AcDbEntity
  8
CAPA_1
 62
     7
100
AcDbVertex
100
AcDb2dVertex
 10
-759.7402578186316
 20
58.01074189296782
 30
0.0
  0
VERTEX
  5
699
330
663
100
AcDbEntity
  8
CAPA_1
 62
     7
100
AcDbVertex
100
AcDb2dVertex
 10
-759.9024342142066
 20
57.60391191110563
 30
0.0
  0
VERTEX
  5
69A
330
663
100
AcDbEntity
  8
CAPA_1
 62
     7
100
AcDbVertex
100
AcDb2dVertex
 10
-760.0696633181644
 20
57.19903249655202
 30
0.0
  0
VERTEX
  5
69B
330
663
100
AcDbEntity
  8
CAPA_1
 62
     7
100
AcDbVertex
100
AcDb2dVertex
 10
-760.2419660174731
 20
56.79630924157047
 30
0.0
  0
VERTEX
  5
69C
330
663
100
AcDbEntity
  8
CAPA_1
 62
     7
100
AcDbVertex
100
AcDb2dVertex
 10
-760.4193631991009
 20
56.39594773842447
 30
0.0
  0
VERTEX
  5
69D
330
663
100
AcDbEntity
  8
CAPA_1
 62
     7
100
AcDbVertex
100
AcDb2dVertex
 10
-760.6018757500153
 20
55.9981535793775
 30
0.0
  0
VERTEX
  5
69E
330
663
100
AcDbEntity
  8
CAPA_1
 62
     7
100
AcDbVertex
100
AcDb2dVertex
 10
-760.7895245571846
 20
55.60313235669306
 30
0.0
  0
VERTEX
  5
69F
330
663
100
AcDbEntity
  8
CAPA_1
 62
     7
100
AcDbVertex
100
AcDb2dVertex
 10
-760.9823305075768
 20
55.21108966263464
 30
0.0
  0
VERTEX
  5
6A0
330
663
100
AcDbEntity
  8
CAPA_1
 62
     7
100
AcDbVertex
100
AcDb2dVertex
 10
-761.1803144881596
 20
54.82223108946573
 30
0.0
  0
VERTEX
  5
6A1
330
663
100
AcDbEntity
  8
CAPA_1
 62
     7
100
AcDbVertex
100
AcDb2dVertex
 10
-761.3834973859011
 20
54.4367622294498
 30
0.0
  0
VERTEX
  5
6A2
330
663
100
AcDbEntity
  8
CAPA_1
 62
     7
100
AcDbVertex
100
AcDb2dVertex
 10
-761.5919000877695
 20
54.05488867485035
 30
0.0
  0
VERTEX
  5
6A3
330
663
100
AcDbEntity
  8
CAPA_1
 62
     7
100
AcDbVertex
100
AcDb2dVertex
 10
-761.8055434807325
 20
53.67681601793088
 30
0.0
  0
VERTEX
  5
6A4
330
663
100
AcDbEntity
  8
CAPA_1
 62
     7
100
AcDbVertex
100
AcDb2dVertex
 10
-762.0244484517581
 20
53.30274985095485
 30
0.0
  0
VERTEX
  5
6A5
330
663
100
AcDbEntity
  8
CAPA_1
 62
     7
100
AcDbVertex
100
AcDb2dVertex
 10
-762.2486358878143
 20
52.93289576618578
 30
0.0
  0
VERTEX
  5
6A6
330
663
100
AcDbEntity
  8
CAPA_1
 62
     7
100
AcDbVertex
100
AcDb2dVertex
 10
-762.4781266758694
 20
52.56745935588713
 30
0.0
  0
VERTEX
  5
6A7
330
663
100
AcDbEntity
  8
CAPA_1
 62
     7
100
AcDbVertex
100
AcDb2dVertex
 10
-762.7129417028907
 20
52.2066462123224
 30
0.0
  0
VERTEX
  5
6A8
330
663
100
AcDbEntity
  8
CAPA_1
 62
     7
100
AcDbVertex
100
AcDb2dVertex
 10
-762.9531018558466
 20
51.85066192775508
 30
0.0
  0
VERTEX
  5
6A9
330
663
100
AcDbEntity
  8
CAPA_1
 62
     7
100
AcDbVertex
100
AcDb2dVertex
 10
-763.1986280217052
 20
51.49971209444867
 30
0.0
  0
VERTEX
  5
6AA
330
663
100
AcDbEntity
  8
CAPA_1
 62
     7
100
AcDbVertex
100
AcDb2dVertex
 10
-763.449541087434
 20
51.15400230466665
 30
0.0
  0
VERTEX
  5
6AB
330
663
100
AcDbEntity
  8
CAPA_1
 62
     7
100
AcDbVertex
100
AcDb2dVertex
 10
-763.7058619400015
 20
50.81373815067249
 30
0.0
  0
VERTEX
  5
6AC
330
663
100
AcDbEntity
  8
CAPA_1
 62
     7
100
AcDbVertex
100
AcDb2dVertex
 10
-763.9676114663753
 20
50.47912522472969
 30
0.0
  0
VERTEX
  5
6AD
330
663
100
AcDbEntity
  8
CAPA_1
 62
     7
100
AcDbVertex
100
AcDb2dVertex
 10
-764.2348105535234
 20
50.15036911910174
 30
0.0
  0
VERTEX
  5
6AE
330
663
100
AcDbEntity
  8
CAPA_1
 62
     7
100
AcDbVertex
100
AcDb2dVertex
 10
-764.3704602095654
 20
49.98825162148817
 30
0.0
  0
VERTEX
  5
6AF
330
663
100
AcDbEntity
  8
CAPA_1
 62
     7
100
AcDbVertex
100
AcDb2dVertex
 10
-764.507480088414
 20
49.82767542605213
 30
0.0
  0
VERTEX
  5
6B0
330
663
100
AcDbEntity
  8
CAPA_1
 62
     7
100
AcDbVertex
100
AcDb2dVertex
 10
-764.6458728009402
 20
49.66866623182654
 30
0.0
  0
VERTEX
  5
6B1
330
663
100
AcDbEntity
  8
CAPA_1
 62
     7
100
AcDbVertex
100
AcDb2dVertex
 10
-764.7856409580149
 20
49.51124973784435
 30
0.0
  0
VERTEX
  5
6B2
330
663
100
AcDbEntity
  8
CAPA_1
 62
     7
100
AcDbVertex
100
AcDb2dVertex
 10
-764.9267871705092
 20
49.35545164313849
 30
0.0
  0
VERTEX
  5
6B3
330
663
100
AcDbEntity
  8
CAPA_1
 62
     7
100
AcDbVertex
100
AcDb2dVertex
 10
-765.0693140492941
 20
49.20129764674189
 30
0.0
  0
VERTEX
  5
6B4
330
663
100
AcDbEntity
  8
CAPA_1
 62
     7
100
AcDbVertex
100
AcDb2dVertex
 10
-765.2132242052406
 20
49.04881344768749
 30
0.0
  0
VERTEX
  5
6B5
330
663
100
AcDbEntity
  8
CAPA_1
 62
     7
100
AcDbVertex
100
AcDb2dVertex
 10
-765.3585202492197
 20
48.89802474500823
 30
0.0
  0
VERTEX
  5
6B6
330
663
100
AcDbEntity
  8
CAPA_1
 62
     7
100
AcDbVertex
100
AcDb2dVertex
 10
-765.5052047921023
 20
48.74895723773704
 30
0.0
  0
VERTEX
  5
6B7
330
663
100
AcDbEntity
  8
CAPA_1
 62
     7
100
AcDbVertex
100
AcDb2dVertex
 10
-765.6532804447595
 20
48.60163662490686
 30
0.0
  0
VERTEX
  5
6B8
330
663
100
AcDbEntity
  8
CAPA_1
 62
     7
100
AcDbVertex
100
AcDb2dVertex
 10
-765.8027498180621
 20
48.45608860555063
 30
0.0
  0
VERTEX
  5
6B9
330
663
100
AcDbEntity
  8
CAPA_1
 62
     7
100
AcDbVertex
100
AcDb2dVertex
 10
-765.9536155228814
 20
48.31233887870127
 30
0.0
  0
VERTEX
  5
6BA
330
663
100
AcDbEntity
  8
CAPA_1
 62
     7
100
AcDbVertex
100
AcDb2dVertex
 10
-766.1058801700881
 20
48.17041314339173
 30
0.0
  0
VERTEX
  5
6BB
330
663
100
AcDbEntity
  8
CAPA_1
 62
     7
100
AcDbVertex
100
AcDb2dVertex
 10
-766.2595463705535
 20
48.03033709865495
 30
0.0
  0
VERTEX
  5
6BC
330
663
100
AcDbEntity
  8
CAPA_1
 62
     7
100
AcDbVertex
100
AcDb2dVertex
 10
-766.4146167351483
 20
47.89213644352385
 30
0.0
  0
VERTEX
  5
6BD
330
663
100
AcDbEntity
  8
CAPA_1
 62
     7
100
AcDbVertex
100
AcDb2dVertex
 10
-766.5710938747438
 20
47.75583687703138
 30
0.0
  0
VERTEX
  5
6BE
330
663
100
AcDbEntity
  8
CAPA_1
 62
     7
100
AcDbVertex
100
AcDb2dVertex
 10
-766.7289804002108
 20
47.62146409821047
 30
0.0
  0
VERTEX
  5
6BF
330
663
100
AcDbEntity
  8
CAPA_1
 62
     7
100
AcDbVertex
100
AcDb2dVertex
 10
-766.8882789224203
 20
47.48904380609406
 30
0.0
  0
VERTEX
  5
6C0
330
663
100
AcDbEntity
  8
CAPA_1
 62
     7
100
AcDbVertex
100
AcDb2dVertex
 10
-767.0489920522434
 20
47.35860169971508
 30
0.0
  0
VERTEX
  5
6C1
330
663
100
AcDbEntity
  8
CAPA_1
 62
     7
100
AcDbVertex
100
AcDb2dVertex
 10
-767.211122400551
 20
47.23016347810646
 30
0.0
  0
VERTEX
  5
6C2
330
663
100
AcDbEntity
  8
CAPA_1
 62
     7
100
AcDbVertex
100
AcDb2dVertex
 10
-767.3746725782141
 20
47.10375484030116
 30
0.0
  0
VERTEX
  5
6C3
330
663
100
AcDbEntity
  8
CAPA_1
 62
     7
100
AcDbVertex
100
AcDb2dVertex
 10
-767.5396451961036
 20
46.9794014853321
 30
0.0
  0
VERTEX
  5
6C4
330
663
100
AcDbEntity
  8
CAPA_1
 62
     7
100
AcDbVertex
100
AcDb2dVertex
 10
-767.7060428650907
 20
46.85712911223222
 30
0.0
  0
VERTEX
  5
6C5
330
663
100
AcDbEntity
  8
CAPA_1
 62
     7
100
AcDbVertex
100
AcDb2dVertex
 10
-767.8738681960463
 20
46.73696342003444
 30
0.0
  0
VERTEX
  5
6C6
330
663
100
AcDbEntity
  8
CAPA_1
 62
     7
100
AcDbVertex
100
AcDb2dVertex
 10
-768.0431237998414
 20
46.61893010777172
 30
0.0
  0
VERTEX
  5
6C7
330
663
100
AcDbEntity
  8
CAPA_1
 62
     7
100
AcDbVertex
100
AcDb2dVertex
 10
-768.2138122873471
 20
46.50305487447699
 30
0.0
  0
VERTEX
  5
6C8
330
663
100
AcDbEntity
  8
CAPA_1
 62
     7
100
AcDbVertex
100
AcDb2dVertex
 10
-768.3859362694342
 20
46.38936341918317
 30
0.0
  0
VERTEX
  5
6C9
330
663
100
AcDbEntity
  8
CAPA_1
 62
     7
100
AcDbVertex
100
AcDb2dVertex
 10
-768.5594983569738
 20
46.27788144092321
 30
0.0
  0
VERTEX
  5
6CA
330
663
100
AcDbEntity
  8
CAPA_1
 62
     7
100
AcDbVertex
100
AcDb2dVertex
 10
-768.7345011608368
 20
46.16863463873004
 30
0.0
  0
VERTEX
  5
6CB
330
663
100
AcDbEntity
  8
CAPA_1
 62
     7
100
AcDbVertex
100
AcDb2dVertex
 10
-768.9109472918944
 20
46.06164871163661
 30
0.0
  0
VERTEX
  5
6CC
330
663
100
AcDbEntity
  8
CAPA_1
 62
     7
100
AcDbVertex
100
AcDb2dVertex
 10
-769.0888393610176
 20
45.95694935867584
 30
0.0
  0
VERTEX
  5
6CD
330
663
100
AcDbEntity
  8
CAPA_1
 62
     7
100
AcDbVertex
100
AcDb2dVertex
 10
-769.2681799790771
 20
45.85456227888066
 30
0.0
  0
VERTEX
  5
6CE
330
663
100
AcDbEntity
  8
CAPA_1
 62
     7
100
AcDbVertex
100
AcDb2dVertex
 10
-769.448971756944
 20
45.75451317128403
 30
0.0
  0
VERTEX
  5
6CF
330
663
100
AcDbEntity
  8
CAPA_1
 62
     7
100
AcDbVertex
100
AcDb2dVertex
 10
-769.6312173054896
 20
45.65682773491887
 30
0.0
  0
VERTEX
  5
6D0
330
663
100
AcDbEntity
  8
CAPA_1
 62
     7
100
AcDbVertex
100
AcDb2dVertex
 10
-769.8149192355845
 20
45.56153166881812
 30
0.0
  0
VERTEX
  5
6D1
330
663
100
AcDbEntity
  8
CAPA_1
 62
     7
100
AcDbVertex
100
AcDb2dVertex
 10
-770.0000801581001
 20
45.46865067201472
 30
0.0
  0
VERTEX
  5
6D2
330
663
100
AcDbEntity
  8
CAPA_1
 62
     7
100
AcDbVertex
100
AcDb2dVertex
 10
-770.3037008136934
 20
45.32025240507303
 30
0.0
  0
VERTEX
  5
6D3
330
663
100
AcDbEntity
  8
CAPA_1
 62
     7
100
AcDbVertex
100
AcDb2dVertex
 10
-770.6043843754699
 20
45.17589872652449
 30
0.0
  0
VERTEX
  5
6D4
330
663
100
AcDbEntity
  8
CAPA_1
 62
     7
100
AcDbVertex
100
AcDb2dVertex
 10
-770.9022554231963
 20
45.03553499177175
 30
0.0
  0
VERTEX
  5
6D5
330
663
100
AcDbEntity
  8
CAPA_1
 62
     7
100
AcDbVertex
100
AcDb2dVertex
 10
-771.1974385366392
 20
44.89910655621746
 30
0.0
  0
VERTEX
  5
6D6
330
663
100
AcDbEntity
  8
CAPA_1
 62
     7
100
AcDbVertex
100
AcDb2dVertex
 10
-771.4900582955651
 20
44.76655877526424
 30
0.0
  0
VERTEX
  5
6D7
330
663
100
AcDbEntity
  8
CAPA_1
 62
     7
100
AcDbVertex
100
AcDb2dVertex
 10
-771.7802392797406
 20
44.63783700431474
 30
0.0
  0
VERTEX
  5
6D8
330
663
100
AcDbEntity
  8
CAPA_1
 62
     7
100
AcDbVertex
100
AcDb2dVertex
 10
-772.0681060689324
 20
44.51288659877161
 30
0.0
  0
VERTEX
  5
6D9
330
663
100
AcDbEntity
  8
CAPA_1
 62
     7
100
AcDbVertex
100
AcDb2dVertex
 10
-772.3537832429067
 20
44.39165291403749
 30
0.0
  0
VERTEX
  5
6DA
330
663
100
AcDbEntity
  8
CAPA_1
 62
     7
100
AcDbVertex
100
AcDb2dVertex
 10
-772.6373953814303
 20
44.27408130551501
 30
0.0
  0
VERTEX
  5
6DB
330
663
100
AcDbEntity
  8
CAPA_1
 62
     7
100
AcDbVertex
100
AcDb2dVertex
 10
-772.9190670642698
 20
44.16011712860683
 30
0.0
  0
VERTEX
  5
6DC
330
663
100
AcDbEntity
  8
CAPA_1
 62
     7
100
AcDbVertex
100
AcDb2dVertex
 10
-773.1989228711917
 20
44.04970573871557
 30
0.0
  0
VERTEX
  5
6DD
330
663
100
AcDbEntity
  8
CAPA_1
 62
     7
100
AcDbVertex
100
AcDb2dVertex
 10
-773.4770873819625
 20
43.94279249124391
 30
0.0
  0
VERTEX
  5
6DE
330
663
100
AcDbEntity
  8
CAPA_1
 62
     7
100
AcDbVertex
100
AcDb2dVertex
 10
-773.7536851763487
 20
43.83932274159445
 30
0.0
  0
VERTEX
  5
6DF
330
663
100
AcDbEntity
  8
CAPA_1
 62
     7
100
AcDbVertex
100
AcDb2dVertex
 10
-774.0288408341171
 20
43.73924184516986
 30
0.0
  0
VERTEX
  5
6E0
330
663
100
AcDbEntity
  8
CAPA_1
 62
     7
100
AcDbVertex
100
AcDb2dVertex
 10
-774.3026789350341
 20
43.64249515737276
 30
0.0
  0
VERTEX
  5
6E1
330
663
100
AcDbEntity
  8
CAPA_1
 62
     7
100
AcDbVertex
100
AcDb2dVertex
 10
-774.5753240588663
 20
43.54902803360582
 30
0.0
  0
VERTEX
  5
6E2
330
663
100
AcDbEntity
  8
CAPA_1
 62
     7
100
AcDbVertex
100
AcDb2dVertex
 10
-774.8469007853802
 20
43.45878582927166
 30
0.0
  0
VERTEX
  5
6E3
330
663
100
AcDbEntity
  8
CAPA_1
 62
     7
100
AcDbVertex
100
AcDb2dVertex
 10
-775.1175336943423
 20
43.37171389977293
 30
0.0
  0
VERTEX
  5
6E4
330
663
100
AcDbEntity
  8
CAPA_1
 62
     7
100
AcDbVertex
100
AcDb2dVertex
 10
-775.3873473655194
 20
43.28775760051228
 30
0.0
  0
VERTEX
  5
6E5
330
663
100
AcDbEntity
  8
CAPA_1
 62
     7
100
AcDbVertex
100
AcDb2dVertex
 10
-775.656466378678
 20
43.20686228689233
 30
0.0
  0
VERTEX
  5
6E6
330
663
100
AcDbEntity
  8
CAPA_1
 62
     7
100
AcDbVertex
100
AcDb2dVertex
 10
-775.9250153135844
 20
43.12897331431574
 30
0.0
  0
VERTEX
  5
6E7
330
663
100
AcDbEntity
  8
CAPA_1
 62
     7
100
AcDbVertex
100
AcDb2dVertex
 10
-776.1931187500054
 20
43.05403603818515
 30
0.0
  0
VERTEX
  5
6E8
330
663
100
AcDbEntity
  8
CAPA_1
 62
     7
100
AcDbVertex
100
AcDb2dVertex
 10
-776.4609012677076
 20
42.98199581390321
 30
0.0
  0
VERTEX
  5
6E9
330
663
100
AcDbEntity
  8
CAPA_1
 62
     7
100
AcDbVertex
100
AcDb2dVertex
 10
-776.7284874464574
 20
42.91279799687255
 30
0.0
  0
VERTEX
  5
6EA
330
663
100
AcDbEntity
  8
CAPA_1
 62
     7
100
AcDbVertex
100
AcDb2dVertex
 10
-776.9960018660215
 20
42.84638794249581
 30
0.0
  0
VERTEX
  5
6EB
330
663
100
AcDbEntity
  8
CAPA_1
 62
     7
100
AcDbVertex
100
AcDb2dVertex
 10
-777.2635691061662
 20
42.78271100617565
 30
0.0
  0
VERTEX
  5
6EC
330
663
100
AcDbEntity
  8
CAPA_1
 62
     7
100
AcDbVertex
100
AcDb2dVertex
 10
-777.5313137466583
 20
42.72171254331468
 30
0.0
  0
VERTEX
  5
6ED
330
663
100
AcDbEntity
  8
CAPA_1
 62
     7
100
AcDbVertex
100
AcDb2dVertex
 10
-777.7993603672644
 20
42.66333790931557
 30
0.0
  0
VERTEX
  5
6EE
330
663
100
AcDbEntity
  8
CAPA_1
 62
     7
100
AcDbVertex
100
AcDb2dVertex
 10
-778.0678335477509
 20
42.60753245958095
 30
0.0
  0
VERTEX
  5
6EF
330
663
100
AcDbEntity
  8
CAPA_1
 62
     7
100
AcDbVertex
100
AcDb2dVertex
 10
-778.3368578678844
 20
42.55424154951348
 30
0.0
  0
VERTEX
  5
6F0
330
663
100
AcDbEntity
  8
CAPA_1
 62
     7
100
AcDbVertex
100
AcDb2dVertex
 10
-778.6065579074316
 20
42.50341053451578
 30
0.0
  0
VERTEX
  5
6F1
330
663
100
AcDbEntity
  8
CAPA_1
 62
     7
100
AcDbVertex
100
AcDb2dVertex
 10
-778.8770582461589
 20
42.4549847699905
 30
0.0
  0
VERTEX
  5
6F2
330
663
100
AcDbEntity
  8
CAPA_1
 62
     7
100
AcDbVertex
100
AcDb2dVertex
 10
-779.1484834638329
 20
42.40890961134029
 30
0.0
  0
VERTEX
  5
6F3
330
663
100
AcDbEntity
  8
CAPA_1
 62
     7
100
AcDbVertex
100
AcDb2dVertex
 10
-779.4209581402201
 20
42.36513041396778
 30
0.0
  0
VERTEX
  5
6F4
330
663
100
AcDbEntity
  8
CAPA_1
 62
     7
100
AcDbVertex
100
AcDb2dVertex
 10
-779.6946068550872
 20
42.32359253327562
 30
0.0
  0
VERTEX
  5
6F5
330
663
100
AcDbEntity
  8
CAPA_1
 62
     7
100
AcDbVertex
100
AcDb2dVertex
 10
-779.9695541882007
 20
42.28424132466645
 30
0.0
  0
VERTEX
  5
6F6
330
663
100
AcDbEntity
  8
CAPA_1
 62
     7
100
AcDbVertex
100
AcDb2dVertex
 10
-780.2459247193273
 20
42.24702214354291
 30
0.0
  0
VERTEX
  5
6F7
330
663
100
AcDbEntity
  8
CAPA_1
 62
     7
100
AcDbVertex
100
AcDb2dVertex
 10
-780.5238430282332
 20
42.21188034530765
 30
0.0
  0
VERTEX
  5
6F8
330
663
100
AcDbEntity
  8
CAPA_1
 62
     7
100
AcDbVertex
100
AcDb2dVertex
 10
-780.803433694685
 20
42.17876128536331
 30
0.0
  0
VERTEX
  5
6F9
330
663
100
AcDbEntity
  8
CAPA_1
 62
     7
100
AcDbVertex
100
AcDb2dVertex
 10
-781.0848212984497
 20
42.14761031911252
 30
0.0
  0
VERTEX
  5
6FA
330
663
100
AcDbEntity
  8
CAPA_1
 62
     7
100
AcDbVertex
100
AcDb2dVertex
 10
-781.3681304192935
 20
42.11837280195792
 30
0.0
  0
VERTEX
  5
6FB
330
663
100
AcDbEntity
  8
CAPA_1
 62
     7
100
AcDbVertex
100
AcDb2dVertex
 10
-781.6534856369831
 20
42.09099408930219
 30
0.0
  0
VERTEX
  5
6FC
330
663
100
AcDbEntity
  8
CAPA_1
 62
     7
100
AcDbVertex
100
AcDb2dVertex
 10
-782.2308326819659
 20
42.0415944990978
 30
0.0
  0
VERTEX
  5
6FD
330
663
100
AcDbEntity
  8
CAPA_1
 62
     7
100
AcDbVertex
100
AcDb2dVertex
 10
-782.8178590715302
 20
41.99897439172049
 30
0.0
  0
VERTEX
  5
6FE
330
663
100
AcDbEntity
  8
CAPA_1
 62
     7
100
AcDbVertex
100
AcDb2dVertex
 10
-783.4155614438089
 20
41.9626966103914
 30
0.0
  0
VERTEX
  5
6FF
330
663
100
AcDbEntity
  8
CAPA_1
 62
     7
100
AcDbVertex
100
AcDb2dVertex
 10
-784.0249364369342
 20
41.93232399833167
 30
0.0
  0
VERTEX
  5
700
330
663
100
AcDbEntity
  8
CAPA_1
 62
     7
100
AcDbVertex
100
AcDb2dVertex
 10
-784.6469806890386
 20
41.90741939876244
 30
0.0
  0
VERTEX
  5
701
330
663
100
AcDbEntity
  8
CAPA_1
 62
     7
100
AcDbVertex
100
AcDb2dVertex
 10
-785.2826908382548
 20
41.88754565490483
 30
0.0
  0
VERTEX
  5
702
330
663
100
AcDbEntity
  8
CAPA_1
 62
     7
100
AcDbVertex
100
AcDb2dVertex
 10
-785.933063522715
 20
41.87226560998
 30
0.0
  0
VERTEX
  5
703
330
663
100
AcDbEntity
  8
CAPA_1
 62
     7
100
AcDbVertex
100
AcDb2dVertex
 10
-786.599095380552
 20
41.86114210720907
 30
0.0
  0
VERTEX
  5
704
330
663
100
AcDbEntity
  8
CAPA_1
 62
     7
100
AcDbVertex
100
AcDb2dVertex
 10
-787.281783049898
 20
41.85373798981319
 30
0.0
  0
VERTEX
  5
705
330
663
100
AcDbEntity
  8
CAPA_1
 62
     7
100
AcDbVertex
100
AcDb2dVertex
 10
-787.9821231688854
 20
41.8496161010135
 30
0.0
  0
VERTEX
  5
706
330
663
100
AcDbEntity
  8
CAPA_1
 62
     7
100
AcDbVertex
100
AcDb2dVertex
 10
-788.7011123756471
 20
41.84833928403112
 30
0.0
  0
SEQEND
  5
707
330
663
100
AcDbEntity
  8
CAPA_1
 62
     7
  0
ENDSEC
  0
SECTION
  2
OBJECTS
  0
DICTIONARY
  5
C
330
0
100
AcDbDictionary
  3
ACAD_GROUP
350
D
  3
ACAD_LAYOUT
350
1A
  3
ACAD_MATERIAL
350
43
  3
ACAD_MLEADERSTYLE
350
6B
  3
ACAD_MLINESTYLE
350
17
  3
ACAD_PLOTSETTINGS
350
19
  3
ACAD_SCALELIST
350
47
  3
ACAD_VISUALSTYLE
350
2A
  3
ACDBHEADERROUNDTRIPXREC
350
708
  3
ACDBVARIABLEDICTIONARY
350
729
  0
DICTIONARY
  5
730
330
8
100
AcDbDictionary
280
     1
  3
ACAD_XREC_ROUNDTRIP
360
731
  0
DICTIONARY
  5
D
102
{ACAD_REACTORS
330
C
102
}
330
C
100
AcDbDictionary
  0
DICTIONARY
  5
1A
102
{ACAD_REACTORS
330
C
102
}
330
C
100
AcDbDictionary
  0
DICTIONARY
  5
43
102
{ACAD_REACTORS
330
C
102
}
330
C
100
AcDbDictionary
  3
BYBLOCK
350
45
  3
BYLAYER
350
44
  3
GLOBAL
350
46
  0
DICTIONARY
  5
6B
102
{ACAD_REACTORS
330
C
102
}
330
C
100
AcDbDictionary
  3
STANDARD
350
6C
  0
DICTIONARY
  5
17
102
{ACAD_REACTORS
330
C
102
}
330
C
100
AcDbDictionary
  3
STANDARD
350
18
  0
DICTIONARY
  5
19
102
{ACAD_REACTORS
330
C
102
}
330
C
100
AcDbDictionary
  0
DICTIONARY
  5
47
102
{ACAD_REACTORS
330
C
102
}
330
C
100
AcDbDictionary
  3
A0
350
48
  3
A1
350
49
  3
A2
350
4A
  3
A3
350
4B
  3
A4
350
4C
  3
A5
350
4D
  3
A6
350
4E
  3
A7
350
4F
  3
A8
350
50
  3
A9
350
51
  3
B0
350
52
  3
B1
350
53
  3
B2
350
54
  3
B3
350
55
  3
B4
350
56
  3
B5
350
57
  3
B6
350
58
  3
B7
350
59
  3
B8
350
5A
  3
B9
350
5B
  3
C0
350
5C
  3
C1
350
5D
  3
C2
350
5E
  3
C3
350
5F
  3
C4
350
60
  3
C5
350
61
  3
C6
350
62
  3
C7
350
63
  3
C8
350
64
  3
C9
350
65
  3
D0
350
66
  3
D1
350
67
  3
D2
350
68
  0
DICTIONARY
  5
2A
102
{ACAD_REACTORS
330
C
102
}
330
C
100
AcDbDictionary
  3
2DWIREFRAME
350
2F
  3
BASIC
350
32
  3
BRIGHTEN
350
36
  3
COLORCHANGE
350
3A
  3
CONCEPTUAL
350
34
  3
DIM
350
35
  3
EDGECOLOROFF
350
3D
  3
FACEPATTERN
350
39
  3
FLAT
350
2B
  3
FLATWITHEDGES
350
2C
  3
GOURAUD
350
2D
  3
GOURAUDWITHEDGES
350
2E
  3
HIDDEN
350
31
  3
JITTEROFF
350
3B
  3
LINEPATTERN
350
38
  3
OVERHANGOFF
350
3C
  3
REALISTIC
350
33
  3
SHADED
350
42
  3
SHADED_WITH_EDGES
350
41
  3
SHADES_OF_GRAY
350
3E
  3
SKETCHY
350
3F
  3
THICKEN
350
37
  3
WIREFRAME
350
30
  3
X-RAY
350
40
  0
DICTIONARY
  5
708
102
{ACAD_REACTORS
330
C
102
}
330
C
100
AcDbDictionary
  3
CEPSNID
350
712
  3
CEPSNTYPE
350
711
  3
DIMSTYLEDATA
350
728
  3
FINGERPRINTGUID
350
713
  3
HYPERLINKBASE
350
70B
  3
INSUNITS
350
710
  3
LAYOUTDICT
350
70D
  3
LWETCUNION
350
70F
  3
PLOTSETDICT
350
70E
  3
PSVPSCALE
350
715
  3
PUCSBASE
350
718
  3
PUCSORGBACK
350
71E
  3
PUCSORGBOTTOM
350
71A
  3
PUCSORGFRONT
350
71D
  3
PUCSORGLEFT
350
71B
  3
PUCSORGRIGHT
350
71C
  3
PUCSORGTOP
350
719
  3
PUCSORTHOREF
350
716
  3
PUCSORTHOVIEW
350
717
  3
STYLESHEET
350
70C
  3
TSTACKALIGN
350
709
  3
TSTACKSIZE
350
70A
  3
UCSBASE
350
721
  3
UCSORGBACK
350
727
  3
UCSORGBOTTOM
350
723
  3
UCSORGFRONT
350
726
  3
UCSORGLEFT
350
724
  3
UCSORGRIGHT
350
725
  3
UCSORGTOP
350
722
  3
UCSORTHOREF
350
71F
  3
UCSORTHOVIEW
350
720
  3
VERSIONGUID
350
714
  0
DICTIONARY
  5
729
102
{ACAD_REACTORS
330
C
102
}
330
C
100
AcDbDictionary
  3
CANNOSCALE
350
732
  3
CMLEADERSTYLE
350
72B
  3
CTABLESTYLE
350
72A
  3
DIMASSOC
350
72E
  3
HIDETEXT
350
72F
  3
MSLTSCALE
350
733
  0
XRECORD
  5
731
102
{ACAD_REACTORS
330
730
102
}
330
730
100
AcDbXrecord
102
VTR_0.000_0.000_1.000_1.000_GRIDDISPLAY
 70
     3
102
VTR_0.000_0.000_1.000_1.000_GRIDMAJOR
 70
     5
102
VTR_0.000_0.000_1.000_1.000_DEFAULTLIGHTING
280
     1
102
VTR_0.000_0.000_1.000_1.000_DEFAULTLIGHTINGTYPE
 70
     1
102
VTR_0.000_0.000_1.000_1.000_BRIGHTNESS
141
0.0
102
VTR_0.000_0.000_1.000_1.000_CONTRAST
142
0.0
  0
MATERIAL
  5
45
102
{ACAD_REACTORS
330
43
102
}
102
{ACAD_XDICTIONARY
360
736
102
}
330
43
100
AcDbMaterial
  1
BYBLOCK
  0
MATERIAL
  5
44
102
{ACAD_REACTORS
330
43
102
}
102
{ACAD_XDICTIONARY
360
734
102
}
330
43
100
AcDbMaterial
  1
BYLAYER
  0
MATERIAL
  5
46
102
{ACAD_REACTORS
330
43
102
}
102
{ACAD_XDICTIONARY
360
738
102
}
330
43
100
AcDbMaterial
  1
GLOBAL
  0
ACAD_PROXY_OBJECT
  5
6C
102
{ACAD_REACTORS
330
6B
102
}
330
6B
100
AcDbProxyObject
 90
      499
 91
      505
 93
      610
310
40901902A4063FBFFFFFE056BD1B81E855B9FC0AD7A3703D0AD73F4214DD185B99185C9900AD7A3703D0AC73F90141901A02B5E8DC0F42B1CFC02B5E8DC0F42B1CFE5764000000000000300FC0
340
14
340
0
340
11
340
0
 94
        0
1001
ACAD_MLEADERVER
1070
     2
  0
MLINESTYLE
  5
18
102
{ACAD_REACTORS
330
17
102
}
330
17
100
AcDbMlineStyle
  2
Standard
 70
     0
  3

 62
   256
 51
90.0
 52
90.0
 71
     2
 49
0.5
 62
   256
  6
BYLAYER
 49
-0.5
 62
   256
  6
BYLAYER
  0
ACAD_PROXY_OBJECT
  5
48
102
{ACAD_REACTORS
330
47
102
}
330
47
100
AcDbProxyObject
 90
      499
 91
      503
 93
       41
310
903313A31580
  0
ACAD_PROXY_OBJECT
  5
49
102
{ACAD_REACTORS
330
47
102
}
330
47
100
AcDbProxyObject
 90
      499
 91
      503
 93
      105
310
903313A324000000000000004000
  0
ACAD_PROXY_OBJECT
  5
4A
102
{ACAD_REACTORS
330
47
102
}
330
47
100
AcDbProxyObject
 90
      499
 91
      503
 93
      105
310
903313A344000000000000104000
  0
ACAD_PROXY_OBJECT
  5
4B
102
{ACAD_REACTORS
330
47
102
}
330
47
100
AcDbProxyObject
 90
      499
 91
      503
 93
      105
310
903313A354000000000000144000
  0
ACAD_PROXY_OBJECT
  5
4C
102
{ACAD_REACTORS
330
47
102
}
330
47
100
AcDbProxyObject
 90
      499
 91
      503
 93
      105
310
903313A384000000000000204000
  0
ACAD_PROXY_OBJECT
  5
4D
102
{ACAD_REACTORS
330
47
102
}
330
47
100
AcDbProxyObject
 90
      499
 91
      503
 93
      113
310
904313A31304000000000000244000
  0
ACAD_PROXY_OBJECT
  5
4E
102
{ACAD_REACTORS
330
47
102
}
330
47
100
AcDbProxyObject
 90
      499
 91
      503
 93
      113
310
904313A31364000000000000304000
  0
ACAD_PROXY_OBJECT
  5
4F
102
{ACAD_REACTORS
330
47
102
}
330
47
100
AcDbProxyObject
 90
      499
 91
      503
 93
      113
310
904313A32304000000000000344000
  0
ACAD_PROXY_OBJECT
  5
50
102
{ACAD_REACTORS
330
47
102
}
330
47
100
AcDbProxyObject
 90
      499
 91
      503
 93
      113
310
904313A333040000000000003E4000
  0
ACAD_PROXY_OBJECT
  5
51
102
{ACAD_REACTORS
330
47
102
}
330
47
100
AcDbProxyObject
 90
      499
 91
      503
 93
      113
310
904313A34304000000000000444000
  0
ACAD_PROXY_OBJECT
  5
52
102
{ACAD_REACTORS
330
47
102
}
330
47
100
AcDbProxyObject
 90
      499
 91
      503
 93
      113
310
904313A35304000000000000494000
  0
ACAD_PROXY_OBJECT
  5
53
102
{ACAD_REACTORS
330
47
102
}
330
47
100
AcDbProxyObject
 90
      499
 91
      503
 93
      121
310
905313A3130304000000000000594000
  0
ACAD_PROXY_OBJECT
  5
54
102
{ACAD_REACTORS
330
47
102
}
330
47
100
AcDbProxyObject
 90
      499
 91
      503
 93
      105
310
903323A310000000000000010100
  0
ACAD_PROXY_OBJECT
  5
55
102
{ACAD_REACTORS
330
47
102
}
330
47
100
AcDbProxyObject
 90
      499
 91
      503
 93
      105
310
903343A310000000000000410100
  0
ACAD_PROXY_OBJECT
  5
56
102
{ACAD_REACTORS
330
47
102
}
330
47
100
AcDbProxyObject
 90
      499
 91
      503
 93
      105
310
903383A310000000000000810100
  0
ACAD_PROXY_OBJECT
  5
57
102
{ACAD_REACTORS
330
47
102
}
330
47
100
AcDbProxyObject
 90
      499
 91
      503
 93
      113
310
90431303A310000000000000910100
  0
ACAD_PROXY_OBJECT
  5
58
102
{ACAD_REACTORS
330
47
102
}
330
47
100
AcDbProxyObject
 90
      499
 91
      503
 93
      121
310
9053130303A310000000000001650100
  0
ACAD_PROXY_OBJECT
  5
59
102
{ACAD_REACTORS
330
47
102
}
330
47
100
AcDbProxyObject
 90
      499
 91
      503
 93
      257
310
90E312F31323822203D2031272D3022000000000000200FC000000000000284000
  0
ACAD_PROXY_OBJECT
  5
5A
102
{ACAD_REACTORS
330
47
102
}
330
47
100
AcDbProxyObject
 90
      499
 91
      503
 93
      249
310
90D312F363422203D2031272D3022000000000000240FC000000000000284000
  0
ACAD_PROXY_OBJECT
  5
5B
102
{ACAD_REACTORS
330
47
102
}
330
47
100
AcDbProxyObject
 90
      499
 91
      503
 93
      249
310
90D312F333222203D2031272D3022000000000000280FC000000000000284000
  0
ACAD_PROXY_OBJECT
  5
5C
102
{ACAD_REACTORS
330
47
102
}
330
47
100
AcDbProxyObject
 90
      499
 91
      503
 93
      249
310
90D312F313622203D2031272D30220000000000002C0FC000000000000284000
  0
ACAD_PROXY_OBJECT
  5
5D
102
{ACAD_REACTORS
330
47
102
}
330
47
100
AcDbProxyObject
 90
      499
 91
      503
 93
      249
310
90D332F333222203D2031272D30220000000000002E0FC000000000000284000
  0
ACAD_PROXY_OBJECT
  5
5E
102
{ACAD_REACTORS
330
47
102
}
330
47
100
AcDbProxyObject
 90
      499
 91
      503
 93
      241
310
90C312F3822203D2031272D3022000000000000300FC000000000000284000
  0
ACAD_PROXY_OBJECT
  5
5F
102
{ACAD_REACTORS
330
47
102
}
330
47
100
AcDbProxyObject
 90
      499
 91
      503
 93
      249
310
90D332F313622203D2031272D3022000000000000320FC000000000000284000
  0
ACAD_PROXY_OBJECT
  5
60
102
{ACAD_REACTORS
330
47
102
}
330
47
100
AcDbProxyObject
 90
      499
 91
      503
 93
      241
310
90C312F3422203D2031272D3022000000000000340FC000000000000284000
  0
ACAD_PROXY_OBJECT
  5
61
102
{ACAD_REACTORS
330
47
102
}
330
47
100
AcDbProxyObject
 90
      499
 91
      503
 93
      241
310
90C332F3822203D2031272D3022000000000000360FC000000000000284000
  0
ACAD_PROXY_OBJECT
  5
62
102
{ACAD_REACTORS
330
47
102
}
330
47
100
AcDbProxyObject
 90
      499
 91
      503
 93
      241
310
90C312F3222203D2031272D3022000000000000380FC000000000000284000
  0
ACAD_PROXY_OBJECT
  5
63
102
{ACAD_REACTORS
330
47
102
}
330
47
100
AcDbProxyObject
 90
      499
 91
      503
 93
      241
310
90C332F3422203D2031272D30220000000000003A0FC000000000000284000
  0
ACAD_PROXY_OBJECT
  5
64
102
{ACAD_REACTORS
330
47
102
}
330
47
100
AcDbProxyObject
 90
      499
 91
      503
 93
      161
310
90A3122203D2031272D30224000000000000284000
  0
ACAD_PROXY_OBJECT
  5
65
102
{ACAD_REACTORS
330
47
102
}
330
47
100
AcDbProxyObject
 90
      499
 91
      503
 93
      257
310
90E312D312F3222203D2031272D30220000000000003E0FC000000000000284000
  0
ACAD_PROXY_OBJECT
  5
66
102
{ACAD_REACTORS
330
47
102
}
330
47
100
AcDbProxyObject
 90
      499
 91
      503
 93
      225
310
90A3322203D2031272D302200000000000002100000000000000284000
  0
ACAD_PROXY_OBJECT
  5
67
102
{ACAD_REACTORS
330
47
102
}
330
47
100
AcDbProxyObject
 90
      499
 91
      503
 93
      225
310
90A3622203D2031272D302200000000000006100000000000000284000
  0
ACAD_PROXY_OBJECT
  5
68
102
{ACAD_REACTORS
330
47
102
}
330
47
100
AcDbProxyObject
 90
      499
 91
      503
 93
      249
310
90D31272D3022203D2031272D30220000000000000A100000000000000284000
  0
ACAD_PROXY_OBJECT
  5
2F
102
{ACAD_REACTORS
330
2A
102
}
330
2A
100
AcDbProxyObject
 90
      499
 91
      501
 93
      436
310
42CC9915DA5C99599C985B595049028333333333333E33F0000000000000F90107901411070040501600405405064090741402480A0340
1001
ACAD
1000
AcDbSavedByObjectVersion
1070
     0
  0
ACAD_PROXY_OBJECT
  5
32
102
{ACAD_REACTORS
330
2A
102
}
330
2A
100
AcDbProxyObject
 90
      499
 91
      501
 93
      388
310
4150985CDA58D07406404333333333333E33F0000000000000F90107A41107004050150841D405064090741402480A0350
1001
ACAD
1000
AcDbSavedByObjectVersion
1070
     0
  0
ACAD_PROXY_OBJECT
  5
36
102
{ACAD_REACTORS
330
2A
102
}
330
2A
100
AcDbProxyObject
 90
      499
 91
      501
 93
      428
310
42109C9A59DA1D195B90C409028333333333333E33F0000000000000F9010790141107004050150841D405064090741402480A029950
1001
ACAD
1000
AcDbSavedByObjectVersion
1070
     0
  0
ACAD_PROXY_OBJECT
  5
3A
102
{ACAD_REACTORS
330
2A
102
}
330
2A
100
AcDbProxyObject
 90
      499
 91
      501
 93
      452
310
42D0DBDB1BDC90DA185B99D95104090240C333333333333E33F0000000000000F90108901411070040501508421405064090741402480A0350
1001
ACAD
1000
AcDbSavedByObjectVersion
1070
     0
  0
ACAD_PROXY_OBJECT
  5
34
102
{ACAD_REACTORS
330
2A
102
}
330
2A
100
AcDbProxyObject
 90
      499
 91
      501
 93
      500
310
4290DBDB98D95C1D1D585B10940D028333333333333E33F0000000000000F90107902409070040501000000000018199010841D405064090740C02480A0340
1001
ACAD
1000
AcDbSavedByObjectVersion
1070
     0
  0
ACAD_PROXY_OBJECT
  5
35
102
{ACAD_REACTORS
330
2A
102
}
330
2A
100
AcDbProxyObject
 90
      499
 91
      501
 93
      412
310
40D11A5B50B409028333333333333E33F0000000000000F9010790141107004050150841D405064090741402480A02677FFFFFD0
1001
ACAD
1000
AcDbSavedByObjectVersion
1070
     0
  0
ACAD_PROXY_OBJECT
  5
3D
102
{ACAD_REACTORS
330
2A
102
}
330
2A
100
AcDbProxyObject
 90
      499
 91
      501
 93
      452
310
43115919D950DBDB1BDC93D999916409028333333333333E33F0000000000000F9010790141107004050150841D405064090741402480A0350
1001
ACAD
1000
AcDbSavedByObjectVersion
1070
     0
  0
ACAD_PROXY_OBJECT
  5
39
102
{ACAD_REACTORS
330
2A
102
}
330
2A
100
AcDbProxyObject
 90
      499
 91
      501
 93
      444
310
42D19858D95C185D1D195C9B90F409028333333333333E33F0000000000000F9010790141107004050150841D405064090741402480A0350
1001
ACAD
1000
AcDbSavedByObjectVersion
1070
     0
  0
ACAD_PROXY_OBJECT
  5
2B
102
{ACAD_REACTORS
330
2A
102
}
330
2A
100
AcDbProxyObject
 90
      499
 91
      501
 93
      380
310
41119B185D240901404333333333333E33F0000000000000F9010740A907004050150841D405064090741402480A1B50
1001
ACAD
1000
AcDbSavedByObjectVersion
1070
     0
  0
ACAD_PROXY_OBJECT
  5
2C
102
{ACAD_REACTORS
330
2A
102
}
330
2A
100
AcDbProxyObject
 90
      499
 91
      501
 93
      468
310
43519B185D15DA5D1A115919D95CD0140901404333333333333E33F0000000000000F90107409019070040501600405405064090741402480A1B50
1001
ACAD
1000
AcDbSavedByObjectVersion
1070
     0
  0
ACAD_PROXY_OBJECT
  5
2D
102
{ACAD_REACTORS
330
2A
102
}
330
2A
100
AcDbProxyObject
 90
      499
 91
      501
 93
      404
310
41D1DBDD5C985D5910240902404333333333333E33F0000000000000F9010740A9070040501641D405064090741402480A1B50
1001
ACAD
1000
AcDbSavedByObjectVersion
1070
     0
  0
ACAD_PROXY_OBJECT
  5
2E
102
{ACAD_REACTORS
330
2A
102
}
330
2A
100
AcDbProxyObject
 90
      499
 91
      501
 93
      492
310
4411DBDD5C985D5915DA5D1A115919D95CD0340902404333333333333E33F0000000000000F90107409019070040501600405405064090741402480A1B50
1001
ACAD
1000
AcDbSavedByObjectVersion
1070
     0
  0
ACAD_PROXY_OBJECT
  5
31
102
{ACAD_REACTORS
330
2A
102
}
330
2A
100
AcDbProxyObject
 90
      499
 91
      501
 93
      476
310
41921A5919195B90640502408333333333333E33F0000000000000F901079024090700405020000000000001110200405405064090740C02480A0340
1001
ACAD
1000
AcDbSavedByObjectVersion
1070
     0
  0
ACAD_PROXY_OBJECT
  5
3B
102
{ACAD_REACTORS
330
2A
102
}
330
2A
100
AcDbProxyObject
 90
      499
 91
      501
 93
      428
310
42529A5D1D195C93D999914409028333333333333E33F0000000000000F9010790141107004050150A41D405064090741402480A0350
1001
ACAD
1000
AcDbSavedByObjectVersion
1070
     0
  0
ACAD_PROXY_OBJECT
  5
38
102
{ACAD_REACTORS
330
2A
102
}
330
2A
100
AcDbProxyObject
 90
      499
 91
      501
 93
      444
310
42D31A5B995C185D1D195C9B90E409028333333333333E33F0000000000000F9010790141107004050750841D405064090741402483A0350
1001
ACAD
1000
AcDbSavedByObjectVersion
1070
     0
  0
ACAD_PROXY_OBJECT
  5
3C
102
{ACAD_REACTORS
330
2A
102
}
330
2A
100
AcDbProxyObject
 90
      499
 91
      501
 93
      444
310
42D3DD995C9A185B99D3D999915409028333333333333E33F0000000000000F9010790141107004050150941D405064090741402480A0350
1001
ACAD
1000
AcDbSavedByObjectVersion
1070
     0
  0
ACAD_PROXY_OBJECT
  5
33
102
{ACAD_REACTORS
330
2A
102
}
330
2A
100
AcDbProxyObject
 90
      499
 91
      501
 93
      428
310
425499585B1A5CDD1A58D08409038333333333333E33F0000000000000F9010740A907004050150800405405064090740C02480A1B40
1001
ACAD
1000
AcDbSavedByObjectVersion
1070
     0
  0
ACAD_PROXY_OBJECT
  5
42
102
{ACAD_REACTORS
330
2A
102
}
330
2A
100
AcDbProxyObject
 90
      499
 91
      501
 93
      420
310
4194DA1859195911B40902404333333333333E33F0000000000000F9010740A41107004050150800405405064090840C02480A0B40
1001
ACAD
1000
AcDbSavedByObjectVersion
1070
     0
  0
ACAD_PROXY_OBJECT
  5
41
102
{ACAD_REACTORS
330
2A
102
}
330
2A
100
AcDbProxyObject
 90
      499
 91
      501
 93
      516
310
4454DA18591959081DDA5D1A08195919D95CD1A40902404333333333333E33F0000000000000F901074090142907004050250800405405064090740C02480A0B40
1001
ACAD
1000
AcDbSavedByObjectVersion
1070
     0
  0
ACAD_PROXY_OBJECT
  5
3E
102
{ACAD_REACTORS
330
2A
102
}
330
2A
100
AcDbProxyObject
 90
      499
 91
      501
 93
      532
310
4394DA1859195CC81BD98811DC985E5174090240C333333333333E33F0000000000000F901079024090741D01000000000000111010841D405064090740C02480A0340
1001
ACAD
1000
AcDbSavedByObjectVersion
1070
     0
  0
ACAD_PROXY_OBJECT
  5
3F
102
{ACAD_REACTORS
330
2A
102
}
330
2A
100
AcDbProxyObject
 90
      499
 91
      501
 93
      476
310
41D4DAD95D18DA1E51840502408333333333333E33F0000000000000F901079024090741D01000000000000111010B41D405064090741802480A0340
1001
ACAD
1000
AcDbSavedByObjectVersion
1070
     0
  0
ACAD_PROXY_OBJECT
  5
37
102
{ACAD_REACTORS
330
2A
102
}
330
2A
100
AcDbProxyObject
 90
      499
 91
      501
 93
      412
310
41D51A1A58DAD95B90D409028333333333333E33F0000000000000F9010790141107004050150C41D405064090741402480A0350
1001
ACAD
1000
AcDbSavedByObjectVersion
1070
     0
  0
ACAD_PROXY_OBJECT
  5
30
102
{ACAD_REACTORS
330
2A
102
}
330
2A
100
AcDbProxyObject
 90
      499
 91
      501
 93
      420
310
4255DA5C99599C985B595059028333333333333E33F0000000000000F90107901411070040501600405405064090740C02480A0340
1001
ACAD
1000
AcDbSavedByObjectVersion
1070
     0
  0
ACAD_PROXY_OBJECT
  5
40
102
{ACAD_REACTORS
330
2A
102
}
330
2A
100
AcDbProxyObject
 90
      499
 91
      501
 93
      404
310
41560B54985E51940902404000000000000E03F0000000000000F9010740501907004050150841D405064090740C02480A1B40
1001
ACAD
1000
AcDbSavedByObjectVersion
1070
     0
  0
XRECORD
  5
712
102
{ACAD_REACTORS
330
708
102
}
330
708
100
AcDbXrecord
340
0
  0
XRECORD
  5
711
102
{ACAD_REACTORS
330
708
102
}
330
708
100
AcDbXrecord
 90
        0
  0
XRECORD
  5
728
102
{ACAD_REACTORS
330
708
102
}
330
708
100
AcDbXrecord
1000
DSTYLE
1002
{
1070
   279
 70
     2
1070
   340
340
11
1002
}
  0
XRECORD
  5
713
102
{ACAD_REACTORS
330
708
102
}
330
708
100
AcDbXrecord
  1
{6CE96E83-4635-420B-8451-CEDCB212F604}
  0
XRECORD
  5
70B
102
{ACAD_REACTORS
330
708
102
}
330
708
100
AcDbXrecord
  1

  0
XRECORD
  5
710
102
{ACAD_REACTORS
330
708
102
}
330
708
100
AcDbXrecord
 90
        4
  0
XRECORD
  5
70D
102
{ACAD_REACTORS
330
708
102
}
330
708
100
AcDbXrecord
340
1A
  0
XRECORD
  5
70F
102
{ACAD_REACTORS
330
708
102
}
330
708
100
AcDbXrecord
 90
    10781
  0
XRECORD
  5
70E
102
{ACAD_REACTORS
330
708
102
}
330
708
100
AcDbXrecord
340
19
  0
XRECORD
  5
715
102
{ACAD_REACTORS
330
708
102
}
330
708
100
AcDbXrecord
 40
0.0
  0
XRECORD
  5
718
102
{ACAD_REACTORS
330
708
102
}
330
708
100
AcDbXrecord
340
0
  0
XRECORD
  5
71E
102
{ACAD_REACTORS
330
708
102
}
330
708
100
AcDbXrecord
 10
0.0
 20
0.0
 30
0.0
  0
XRECORD
  5
71A
102
{ACAD_REACTORS
330
708
102
}
330
708
100
AcDbXrecord
 10
0.0
 20
0.0
 30
0.0
  0
XRECORD
  5
71D
102
{ACAD_REACTORS
330
708
102
}
330
708
100
AcDbXrecord
 10
0.0
 20
0.0
 30
0.0
  0
XRECORD
  5
71B
102
{ACAD_REACTORS
330
708
102
}
330
708
100
AcDbXrecord
 10
0.0
 20
0.0
 30
0.0
  0
XRECORD
  5
71C
102
{ACAD_REACTORS
330
708
102
}
330
708
100
AcDbXrecord
 10
0.0
 20
0.0
 30
0.0
  0
XRECORD
  5
719
102
{ACAD_REACTORS
330
708
102
}
330
708
100
AcDbXrecord
 10
0.0
 20
0.0
 30
0.0
  0
XRECORD
  5
716
102
{ACAD_REACTORS
330
708
102
}
330
708
100
AcDbXrecord
340
0
  0
XRECORD
  5
717
102
{ACAD_REACTORS
330
708
102
}
330
708
100
AcDbXrecord
 70
     0
  0
XRECORD
  5
70C
102
{ACAD_REACTORS
330
708
102
}
330
708
100
AcDbXrecord
  1

  0
XRECORD
  5
709
102
{ACAD_REACTORS
330
708
102
}
330
708
100
AcDbXrecord
 90
        1
  0
XRECORD
  5
70A
102
{ACAD_REACTORS
330
708
102
}
330
708
100
AcDbXrecord
 90
       70
  0
XRECORD
  5
721
102
{ACAD_REACTORS
330
708
102
}
330
708
100
AcDbXrecord
340
0
  0
XRECORD
  5
727
102
{ACAD_REACTORS
330
708
102
}
330
708
100
AcDbXrecord
 10
0.0
 20
0.0
 30
0.0
  0
XRECORD
  5
723
102
{ACAD_REACTORS
330
708
102
}
330
708
100
AcDbXrecord
 10
0.0
 20
0.0
 30
0.0
  0
XRECORD
  5
726
102
{ACAD_REACTORS
330
708
102
}
330
708
100
AcDbXrecord
 10
0.0
 20
0.0
 30
0.0
  0
XRECORD
  5
724
102
{ACAD_REACTORS
330
708
102
}
330
708
100
AcDbXrecord
 10
0.0
 20
0.0
 30
0.0
  0
XRECORD
  5
725
102
{ACAD_REACTORS
330
708
102
}
330
708
100
AcDbXrecord
 10
0.0
 20
0.0
 30
0.0
  0
XRECORD
  5
722
102
{ACAD_REACTORS
330
708
102
}
330
708
100
AcDbXrecord
 10
0.0
 20
0.0
 30
0.0
  0
XRECORD
  5
71F
102
{ACAD_REACTORS
330
708
102
}
330
708
100
AcDbXrecord
340
0
  0
XRECORD
  5
720
102
{ACAD_REACTORS
330
708
102
}
330
708
100
AcDbXrecord
 70
     0
  0
XRECORD
  5
714
102
{ACAD_REACTORS
330
708
102
}
330
708
100
AcDbXrecord
  1
{FAEB1C32-E019-11D5-929B-00C0DF256EC4}
  0
DICTIONARYVAR
  5
732
102
{ACAD_REACTORS
330
729
102
}
330
729
100
DictionaryVariables
280
     0
  1
1:1
  0
DICTIONARYVAR
  5
72B
102
{ACAD_REACTORS
330
729
102
}
330
729
100
DictionaryVariables
280
     0
  1
Standard
  0
DICTIONARYVAR
  5
72A
102
{ACAD_REACTORS
330
729
102
}
330
729
100
DictionaryVariables
280
     0
  1
Standard
  0
DICTIONARYVAR
  5
72E
102
{ACAD_REACTORS
330
729
102
}
330
729
100
DictionaryVariables
280
     0
  1
2
  0
DICTIONARYVAR
  5
72F
102
{ACAD_REACTORS
330
729
102
}
330
729
100
DictionaryVariables
280
     0
  1
1
  0
DICTIONARYVAR
  5
733
102
{ACAD_REACTORS
330
729
102
}
330
729
100
DictionaryVariables
280
     0
  1
1
  0
DICTIONARY
  5
736
330
45
100
AcDbDictionary
280
     1
  3
ACAD_XREC_ROUNDTRIP
360
737
  0
DICTIONARY
  5
734
330
44
100
AcDbDictionary
280
     1
  3
ACAD_XREC_ROUNDTRIP
360
735
  0
DICTIONARY
  5
738
330
46
100
AcDbDictionary
280
     1
  3
ACAD_XREC_ROUNDTRIP
360
739
  0
XRECORD
  5
737
102
{ACAD_REACTORS
330
736
102
}
330
736
100
AcDbXrecord
102
MATERIAL
148
0.0
149
0.0
149
0.0
 93
        0
 94
      127
282
     0
 72
     1
 77
     1
171
     1
175
     1
179
     1
273
     0
  0
XRECORD
  5
735
102
{ACAD_REACTORS
330
734
102
}
330
734
100
AcDbXrecord
102
MATERIAL
148
0.0
149
0.0
149
0.0
 93
        0
 94
      127
282
     0
 72
     1
 77
     1
171
     1
175
     1
179
     1
273
     0
  0
XRECORD
  5
739
102
{ACAD_REACTORS
330
738
102
}
330
738
100
AcDbXrecord
102
MATERIAL
148
0.0
149
0.0
149
0.0
 93
        0
 94
      127
282
     0
 72
     1
 77
     1
171
     1
175
     1
179
     1
273
     0
  0
ENDSEC
  0
EOF
