  0
SECTION
  2
HEADER
  9
$ACADVER
  1
AC1014
  9
$HANDSEED
  5
FFFF
  9
$MEASUREMENT
 70
     1
  0
ENDSEC
  0
SECTION
  2
TABLES
  0
TABLE
  2
VPORT
  5
8
330
0
100
AcDbSymbolTable
 70
     4
  0
VPORT
  5
2E
330
8
100
AcDbSymbolTableRecord
100
AcDbViewportTableRecord
  2
*ACTIVE
 70
     0
 10
0.0
 20
0.0
 11
1.0
 21
1.0
 12
210.0
 22
148.5
 13
0.0
 23
0.0
 14
10.0
 24
10.0
 15
10.0
 25
10.0
 16
0.0
 26
0.0
 36
1.0
 17
0.0
 27
0.0
 37
0.0
 40
341.0
 41
1.24
 42
50.0
 43
0.0
 44
0.0
 50
0.0
 51
0.0
 71
     0
 72
   100
 73
     1
 74
     3
 75
     0
 76
     0
 77
     0
 78
     0
  0
ENDTAB
  0
TABLE
  2
LTYPE
  5
5
330
0
100
AcDbSymbolTable
 70
     1
  0
LTYPE
  5
14
330
5
100
AcDbSymbolTableRecord
100
AcDbLinetypeTableRecord
  2
BYBLOCK
 70
     0
  3

 72
    65
 73
     0
 40
0.0
  0
LTYPE
  5
15
330
5
100
AcDbSymbolTableRecord
100
AcDbLinetypeTableRecord
  2
BYLAYER
 70
     0
  3

 72
    65
 73
     0
 40
0.0
  0
LTYPE
  5
16
330
5
100
AcDbSymbolTableRecord
100
AcDbLinetypeTableRecord
  2
CONTINUOUS
 70
     0
  3
Solid line
 72
    65
 73
     0
 40
0.0
  0
ENDTAB
  0
TABLE
  2
LAYER
  5
2
100
AcDbSymbolTable
 70
2
  0
LAYER
  5
50
100
AcDbSymbolTableRecord
100
AcDbLayerTableRecord
  2
0
 70
0
  6
CONTINUOUS
  0
LAYER
  5
51
100
AcDbSymbolTableRecord
100
AcDbLayerTableRecord
  2
Layer_1
 70
0
  6
CONTINUOUS
  0
ENDTAB
  0
TABLE
  2
STYLE
  5
3
330
0
100
AcDbSymbolTable
 70
     1
  0
STYLE
  5
11
330
3
100
AcDbSymbolTableRecord
100
AcDbTextStyleTableRecord
  2
STANDARD
 70
     0
 40
0.0
 41
1.0
 50
0.0
 71
     0
 42
2.5
  3
txt
  4

  0
ENDTAB
  0
TABLE
  2
VIEW
  5
6
330
0
100
AcDbSymbolTable
 70
     0
  0
ENDTAB
  0
TABLE
  2
UCS
  5
7
330
0
100
AcDbSymbolTable
 70
     0
  0
ENDTAB
  0
TABLE
  2
APPID
  5
9
330
0
100
AcDbSymbolTable
 70
     2
  0
APPID
  5
12
330
9
100
AcDbSymbolTableRecord
100
AcDbRegAppTableRecord
  2
ACAD
 70
     0
  0
ENDTAB
  0
TABLE
  2
DIMSTYLE
  5
A
330
0
100
AcDbSymbolTable
 70
     1
  0
DIMSTYLE
105
27
330
A
100
AcDbSymbolTableRecord
100
AcDbDimStyleTableRecord
  2
ISO-25
 70
     0
  3

  4

  5

  6

  7

 40
1.0
 41
2.5
 42
0.625
 43
3.75
 44
1.25
 45
0.0
 46
0.0
 47
0.0
 48
0.0
140
2.5
141
2.5
142
0.0
143
0.03937007874016
144
1.0
145
0.0
146
1.0
147
0.625
 71
     0
 72
     0
 73
     0
 74
     0
 75
     0
 76
     0
 77
     1
 78
     8
170
     0
171
     3
172
     1
173
     0
174
     0
175
     0
176
     0
177
     0
178
     0
270
     2
271
     2
272
     2
273
     2
274
     3
340
11
275
     0
280
     0
281
     0
282
     0
283
     0
284
     8
285
     0
286
     0
287
     3
288
     0
  0
ENDTAB
  0
TABLE
  2
BLOCK_RECORD
  5
1
330
0
100
AcDbSymbolTable
 70
     1
  0
BLOCK_RECORD
  5
1F
330
1
100
AcDbSymbolTableRecord
100
AcDbBlockTableRecord
  2
*MODEL_SPACE
  0
BLOCK_RECORD
  5
1B
330
1
100
AcDbSymbolTableRecord
100
AcDbBlockTableRecord
  2
*PAPER_SPACE
  0
ENDTAB
  0
ENDSEC
  0
SECTION
  2
BLOCKS
  0
BLOCK
  5
20
330
1F
100
AcDbEntity
  8
0
100
AcDbBlockBegin
  2
*MODEL_SPACE
 70
     0
 10
0.0
 20
0.0
 30
0.0
  3
*MODEL_SPACE
  1

  0
ENDBLK
  5
21
330
1F
100
AcDbEntity
  8
0
100
AcDbBlockEnd
  0
BLOCK
  5
1C
330
1B
100
AcDbEntity
 67
     1
  8
0
100
AcDbBlockBegin
  2
*PAPER_SPACE
  1

  0
ENDBLK
  5
1D
330
1B
100
AcDbEntity
 67
     1
  8
0
100
AcDbBlockEnd
  0
ENDSEC
  0
SECTION
  2
ENTITIES
  0
SPLINE
  5
100
100
AcDbEntity
  8
Layer_1
 62
7
100
AcDbSpline
 70
0
 71
3
 72
19
 73
15
 74
13
 40
0.000000
 40
0.000000
 40
0.000000
 40
0.000000
 40
3.363492
 40
12.036287
 40
24.215686
 40
36.395086
 40
45.067881
 40
48.431373
 40
51.794866
 40
60.467661
 40
72.647060
 40
84.826460
 40
93.499254
 40
96.862747
 40
96.862747
 40
96.862747
 40
96.862747
 10
113.249690
 20
233.816779
 30
0.0
 10
113.495525
 20
232.721612
 30
0.0
 10
114.375247
 20
228.802546
 30
0.0
 10
114.342467
 20
220.632253
 30
0.0
 10
114.707033
 20
209.899840
 30
0.0
 10
114.342467
 20
197.987668
 30
0.0
 10
114.375247
 20
191.914017
 30
0.0
 10
113.249690
 20
183.768914
 30
0.0
 10
112.124133
 20
191.914017
 30
0.0
 10
112.156913
 20
197.987668
 30
0.0
 10
111.792347
 20
209.899840
 30
0.0
 10
112.156913
 20
220.632253
 30
0.0
 10
112.124133
 20
228.802546
 30
0.0
 10
113.003855
 20
232.721612
 30
0.0
 10
113.249690
 20
233.816779
 30
0.0
 11
113.249690
 21
233.816779
 31
0.0
 11
113.917225
 21
230.520193
 31
0.0
 11
114.391909
 21
221.860399
 31
0.0
 11
114.572610
 21
209.682340
 31
0.0
 11
114.391909
 21
197.504281
 31
0.0
 11
113.917225
 21
188.844486
 31
0.0
 11
113.249690
 21
185.547900
 31
0.0
 11
112.582155
 21
188.844486
 31
0.0
 11
112.107471
 21
197.504281
 31
0.0
 11
111.926770
 21
209.682340
 31
0.0
 11
112.107471
 21
221.860399
 31
0.0
 11
112.582155
 21
230.520193
 31
0.0
 11
113.249690
 21
233.816779
 31
0.0
  0
LWPOLYLINE
  5
101
100
AcDbEntity
  8
Layer_1
 62
7
100
AcDbPolyline
 90
1
 70
1
 10
113.249690
 20
233.816779
 30
0.0
  0
SPLINE
  5
102
100
AcDbEntity
  8
Layer_1
 62
7
100
AcDbSpline
 70
0
 71
3
 72
19
 73
15
 74
13
 40
0.000000
 40
0.000000
 40
0.000000
 40
0.000000
 40
3.615824
 40
12.963023
 40
26.092046
 40
39.221060
 40
48.568255
 40
52.184082
 40
55.799903
 40
65.147102
 40
78.276120
 40
91.405142
 40
100.752339
 40
104.368165
 40
104.368165
 40
104.368165
 40
104.368165
 10
78.451196
 20
236.436019
 30
0.0
 10
78.735196
 20
235.263578
 30
0.0
 10
79.753361
 20
231.060283
 30
0.0
 10
80.003495
 20
222.268038
 30
0.0
 10
80.744519
 20
210.715652
 30
0.0
 10
80.795499
 20
197.863600
 30
0.0
 10
81.042412
 20
191.340033
 30
0.0
 10
80.201176
 20
182.513051
 30
0.0
 10
78.789378
 20
191.266909
 30
0.0
 10
78.612797
 20
197.792762
 30
0.0
 10
77.830364
 20
210.621076
 30
0.0
 10
77.820793
 20
222.197202
 30
0.0
 10
77.500327
 20
230.987163
 30
0.0
 10
78.243813
 20
235.247631
 30
0.0
 10
78.451196
 20
236.436019
 30
0.0
 11
78.451196
 21
236.436019
 31
0.0
 11
79.233649
 21
232.905870
 31
0.0
 11
80.010877
 21
223.591041
 31
0.0
 11
80.617296
 21
210.476030
 31
0.0
 11
80.862506
 21
197.349306
 31
0.0
 11
80.690872
 21
188.003687
 31
0.0
 11
80.138956
 21
184.430230
 31
0.0
 11
79.356503
 21
187.960375
 31
0.0
 11
78.579275
 21
197.275205
 31
0.0
 11
77.972856
 21
210.390210
 31
0.0
 11
77.727646
 21
223.516942
 31
0.0
 11
77.899280
 21
232.862563
 31
0.0
 11
78.451196
 21
236.436019
 31
0.0
  0
LWPOLYLINE
  5
103
100
AcDbEntity
  8
Layer_1
 62
7
100
AcDbPolyline
 90
1
 70
1
 10
78.451196
 20
236.436019
 30
0.0
  0
SPLINE
  5
104
100
AcDbEntity
  8
Layer_1
 62
7
100
AcDbSpline
 70
0
 71
3
 72
19
 73
15
 74
13
 40
0.000000
 40
0.000000
 40
0.000000
 40
0.000000
 40
2.055122
 40
7.183008
 40
14.365537
 40
21.548072
 40
26.675957
 40
28.731080
 40
30.786200
 40
35.914083
 40
43.096616
 40
50.279147
 40
55.407034
 40
57.462159
 40
57.462159
 40
57.462159
 40
57.462159
 10
51.136246
 20
214.733740
 30
0.0
 10
51.407395
 20
214.101619
 30
0.0
 10
52.355106
 20
211.892247
 30
0.0
 10
52.545905
 20
206.997605
 30
0.0
 10
53.142546
 20
200.694103
 30
0.0
 10
53.070744
 20
193.701666
 30
0.0
 10
53.219670
 20
189.990836
 30
0.0
 10
52.300004
 20
185.251688
 30
0.0
 10
51.009689
 20
189.903607
 30
0.0
 10
50.865605
 20
193.614620
 30
0.0
 10
50.242856
 20
200.579644
 30
0.0
 10
50.340767
 20
206.910559
 30
0.0
 10
50.145125
 20
211.805020
 30
0.0
 10
50.915760
 20
214.082214
 30
0.0
 10
51.136246
 20
214.733740
 30
0.0
 11
51.136246
 21
214.733740
 31
0.0
 11
51.879923
 21
212.817893
 31
0.0
 11
52.555625
 21
207.734721
 31
0.0
 11
53.019396
 21
200.567180
 31
0.0
 11
53.122056
 21
193.385379
 31
0.0
 11
52.849143
 21
188.264761
 31
0.0
 11
52.258776
 21
186.296260
 31
0.0
 11
51.515099
 21
188.212105
 31
0.0
 11
50.839397
 21
193.295275
 31
0.0
 11
50.375626
 21
200.462820
 31
0.0
 11
50.272966
 21
207.644617
 31
0.0
 11
50.545879
 21
212.765236
 31
0.0
 11
51.136246
 21
214.733740
 31
0.0
  0
SPLINE
  5
105
100
AcDbEntity
  8
Layer_1
 62
7
100
AcDbSpline
 70
0
 71
3
 72
10
 73
6
 74
4
 40
0.000000
 40
0.000000
 40
0.000000
 40
0.000000
 40
3.818447
 40
14.258571
 40
29.926874
 40
29.926874
 40
29.926874
 40
29.926874
 10
137.197040
 20
109.964080
 30
0.0
 10
138.464480
 20
109.837045
 30
0.0
 10
143.197263
 20
109.362678
 30
0.0
 10
152.878705
 20
106.820115
 30
0.0
 10
161.323352
 20
104.746179
 30
0.0
 10
166.391190
 20
103.501560
 30
0.0
 11
137.197040
 21
109.964080
 31
0.0
 11
140.990747
 21
109.530116
 31
0.0
 11
151.187130
 21
107.287357
 31
0.0
 11
166.391190
 21
103.501560
 31
0.0
  0
SPLINE
  5
106
100
AcDbEntity
  8
Layer_1
 62
7
100
AcDbSpline
 70
0
 71
3
 72
10
 73
6
 74
4
 40
0.000000
 40
0.000000
 40
0.000000
 40
0.000000
 40
11.476560
 40
21.609070
 40
33.085630
 40
33.085630
 40
33.085630
 40
33.085630
 10
166.391190
 20
103.501560
 30
0.0
 10
164.470523
 20
106.809980
 30
0.0
 10
160.854124
 20
113.039363
 30
0.0
 10
155.307906
 20
122.571847
 30
0.0
 10
151.691507
 20
128.801230
 30
0.0
 10
149.770840
 20
132.109650
 30
0.0
 11
166.391190
 21
103.501560
 31
0.0
 11
160.627504
 21
113.425841
 31
0.0
 11
155.534526
 21
122.185369
 31
0.0
 11
149.770840
 21
132.109650
 31
0.0
  0
SPLINE
  5
107
100
AcDbEntity
  8
Layer_1
 62
7
100
AcDbSpline
 70
0
 71
3
 72
16
 73
12
 74
10
 40
0.000000
 40
0.000000
 40
0.000000
 40
0.000000
 40
31.845750
 40
54.530944
 40
63.200380
 40
71.924746
 40
94.807909
 40
127.043458
 40
137.736894
 40
149.627332
 40
160.320774
 40
160.320774
 40
160.320774
 40
160.320774
 10
149.770840
 20
132.109650
 30
0.0
 10
144.196867
 20
141.896857
 30
0.0
 10
134.652298
 20
158.655942
 30
0.0
 10
126.562504
 20
172.170149
 30
0.0
 10
116.935136
 20
191.501495
 30
0.0
 10
128.588869
 20
173.119867
 30
0.0
 10
135.933791
 20
159.245698
 30
0.0
 10
147.778463
 20
138.287526
 30
0.0
 10
156.443744
 20
122.434764
 30
0.0
 10
161.790906
 20
112.675450
 30
0.0
 10
165.409507
 20
106.079429
 30
0.0
 10
167.122910
 20
102.956220
 30
0.0
 11
149.770840
 21
132.109650
 31
0.0
 11
133.923537
 21
159.732373
 31
0.0
 11
122.926813
 21
179.573997
 31
0.0
 11
119.236530
 21
187.418800
 31
0.0
 11
124.072445
 21
180.157361
 31
0.0
 11
135.474685
 21
160.317299
 31
0.0
 11
151.125260
 21
132.135920
 31
0.0
 11
156.267777
 21
122.760201
 31
0.0
 11
161.980393
 21
112.331945
 31
0.0
 11
167.122910
 21
102.956220
 31
0.0
  0
LWPOLYLINE
  5
108
100
AcDbEntity
  8
Layer_1
 62
7
100
AcDbPolyline
 90
1
 70
1
 10
51.136246
 20
214.733740
 30
0.0
  0
SPLINE
  5
109
100
AcDbEntity
  8
Layer_1
 62
7
100
AcDbSpline
 70
0
 71
3
 72
10
 73
6
 74
4
 40
0.000000
 40
0.000000
 40
0.000000
 40
0.000000
 40
16.221013
 40
26.894759
 40
30.761017
 40
30.761017
 40
30.761017
 40
30.761017
 10
167.122910
 20
102.956220
 30
0.0
 10
161.836714
 20
104.071759
 30
0.0
 10
153.072098
 20
105.921345
 30
0.0
 10
142.972381
 20
107.879719
 30
0.0
 10
138.410157
 20
109.526257
 30
0.0
 10
137.197040
 20
109.964080
 30
0.0
 11
167.122910
 21
102.956220
 31
0.0
 11
151.240424
 21
106.252873
 31
0.0
 11
140.851359
 21
108.701581
 31
0.0
 11
137.197040
 21
109.964080
 31
0.0
  0
SPLINE
  5
10a
100
AcDbEntity
  8
Layer_1
 62
7
100
AcDbSpline
 70
0
 71
3
 72
10
 73
6
 74
4
 40
0.000000
 40
0.000000
 40
0.000000
 40
0.000000
 40
4.434445
 40
16.479997
 40
34.378792
 40
34.378792
 40
34.378792
 40
34.378792
 10
106.514500
 20
100.235470
 30
0.0
 10
107.992030
 20
100.167548
 30
0.0
 10
113.483063
 20
99.915126
 30
0.0
 10
124.771063
 20
97.760182
 30
0.0
 10
134.597958
 20
96.049271
 30
0.0
 10
140.471840
 20
95.026600
 30
0.0
 11
106.514500
 21
100.235470
 31
0.0
 11
110.941299
 21
99.975187
 31
0.0
 11
122.848374
 21
98.153950
 31
0.0
 11
140.471840
 21
95.026600
 31
0.0
  0
SPLINE
  5
10b
100
AcDbEntity
  8
Layer_1
 62
7
100
AcDbSpline
 70
0
 71
3
 72
10
 73
6
 74
4
 40
0.000000
 40
0.000000
 40
0.000000
 40
0.000000
 40
10.219800
 40
59.609177
 40
69.828979
 40
69.828979
 40
69.828979
 40
69.828979
 10
140.471840
 20
95.026600
 30
0.0
 10
141.852205
 20
90.844788
 30
0.0
 10
149.903477
 20
66.453470
 30
0.0
 10
121.982608
 20
151.096088
 30
0.0
 10
130.033893
 20
126.704773
 30
0.0
 10
131.414260
 20
122.522960
 30
0.0
 11
140.471840
 21
95.026600
 31
0.0
 11
143.675683
 21
85.321977
 31
0.0
 11
128.210410
 21
132.227583
 31
0.0
 11
131.414260
 21
122.522960
 31
0.0
  0
SPLINE
  5
10c
100
AcDbEntity
  8
Layer_1
 62
7
100
AcDbSpline
 70
0
 71
3
 72
16
 73
12
 74
10
 40
0.000000
 40
0.000000
 40
0.000000
 40
0.000000
 40
32.021488
 40
54.842445
 40
63.566157
 40
72.359225
 40
95.430121
 40
127.943748
 40
136.578295
 40
148.499019
 40
157.133572
 40
157.133572
 40
157.133572
 40
157.133572
 10
131.414260
 20
122.522960
 30
0.0
 10
127.966856
 20
133.310264
 30
0.0
 10
122.062568
 20
151.785425
 30
0.0
 10
116.933309
 20
166.776577
 30
0.0
 10
111.454649
 20
187.803912
 30
0.0
 10
119.127905
 20
167.249699
 30
0.0
 10
123.525148
 20
152.059085
 30
0.0
 10
130.668391
 20
129.636854
 30
0.0
 10
135.742651
 20
112.863050
 30
0.0
 10
138.577679
 20
103.523754
 30
0.0
 10
140.569208
 20
96.971424
 30
0.0
 10
141.405780
 20
94.219020
 30
0.0
 11
131.414260
 21
122.522960
 31
0.0
 11
121.576251
 21
152.995722
 31
0.0
 11
114.885626
 21
174.813871
 31
0.0
 11
112.875510
 21
183.302840
 31
0.0
 11
116.135626
 21
175.136465
 31
0.0
 11
123.291247
 21
153.203308
 31
0.0
 11
132.923330
 21
122.149180
 31
0.0
 11
135.433906
 21
113.887679
 31
0.0
 11
138.895204
 21
102.480528
 31
0.0
 11
141.405780
 21
94.219020
 31
0.0
  0
LWPOLYLINE
  5
10d
100
AcDbEntity
  8
Layer_1
 62
7
100
AcDbPolyline
 90
1
 70
1
 10
137.197040
 20
109.964080
 30
0.0
  0
SPLINE
  5
10e
100
AcDbEntity
  8
Layer_1
 62
7
100
AcDbSpline
 70
0
 71
3
 72
10
 73
6
 74
4
 40
0.000000
 40
0.000000
 40
0.000000
 40
0.000000
 40
18.589309
 40
30.932303
 40
35.430064
 40
35.430064
 40
35.430064
 40
35.430064
 10
141.405780
 20
94.219020
 30
0.0
 10
135.284287
 20
95.153192
 30
0.0
 10
125.098223
 20
96.707638
 30
0.0
 10
113.363428
 20
98.299814
 30
0.0
 10
107.958126
 20
99.827470
 30
0.0
 10
106.514500
 20
100.235470
 30
0.0
 11
141.405780
 21
94.219020
 31
0.0
 11
123.019981
 21
96.962163
 31
0.0
 11
110.857685
 21
99.066454
 31
0.0
 11
106.514500
 21
100.235470
 31
0.0
  0
LWPOLYLINE
  5
10f
100
AcDbEntity
  8
Layer_1
 62
7
100
AcDbPolyline
 90
1
 70
1
 10
106.514500
 20
100.235470
 30
0.0
  0
SPLINE
  5
110
100
AcDbEntity
  8
Layer_1
 62
7
100
AcDbSpline
 70
0
 71
3
 72
10
 73
6
 74
4
 40
0.000000
 40
0.000000
 40
0.000000
 40
0.000000
 40
12.775795
 40
46.699749
 40
95.243593
 40
95.243593
 40
95.243593
 40
95.243593
 10
56.000556
 20
96.119520
 30
0.0
 10
56.417424
 20
100.358279
 30
0.0
 10
57.941215
 20
115.852342
 30
0.0
 10
63.159628
 20
147.188095
 30
0.0
 10
67.405164
 20
174.343646
 30
0.0
 10
69.904256
 20
190.328490
 30
0.0
 11
56.000556
 21
96.119520
 31
0.0
 11
57.328615
 21
108.826101
 31
0.0
 11
62.312424
 21
142.381969
 31
0.0
 11
69.904256
 21
190.328490
 31
0.0
  0
SPLINE
  5
111
100
AcDbEntity
  8
Layer_1
 62
7
100
AcDbSpline
 70
0
 71
3
 72
10
 73
6
 74
4
 40
0.000000
 40
0.000000
 40
0.000000
 40
0.000000
 40
2.707570
 40
9.105082
 40
11.812649
 40
11.812649
 40
11.812649
 40
11.812649
 10
69.904256
 20
190.328500
 30
0.0
 10
70.686207
 20
189.877832
 30
0.0
 10
73.315769
 20
188.362314
 30
0.0
 10
76.727440
 20
186.396406
 30
0.0
 10
79.357005
 20
184.880896
 30
0.0
 10
80.138956
 20
184.430230
 30
0.0
 11
69.904256
 21
190.328500
 31
0.0
 11
72.250119
 21
188.976514
 31
0.0
 11
77.793093
 21
185.782209
 31
0.0
 11
80.138956
 21
184.430230
 31
0.0
  0
LWPOLYLINE
  5
112
100
AcDbEntity
  8
Layer_1
 62
7
100
AcDbPolyline
 90
1
 70
1
 10
69.904256
 20
190.328490
 30
0.0
  0
SPLINE
  5
113
100
AcDbEntity
  8
Layer_1
 62
7
100
AcDbSpline
 70
0
 71
3
 72
10
 73
6
 74
4
 40
0.000000
 40
0.000000
 40
0.000000
 40
0.000000
 40
11.803897
 40
23.166711
 40
34.156800
 40
34.156800
 40
34.156800
 40
34.156800
 10
80.138956
 20
184.430230
 30
0.0
 10
83.547239
 20
182.464286
 30
0.0
 10
90.236447
 20
178.605861
 30
0.0
 10
100.093512
 20
172.907591
 30
0.0
 10
106.537514
 20
169.167033
 30
0.0
 10
109.705790
 20
167.327940
 30
0.0
 11
80.138956
 21
184.430230
 31
0.0
 11
90.362847
 21
178.530736
 31
0.0
 11
100.199352
 21
172.842440
 31
0.0
 11
109.705790
 21
167.327940
 31
0.0
  0
LWPOLYLINE
  5
114
100
AcDbEntity
  8
Layer_1
 62
7
100
AcDbPolyline
 90
1
 70
1
 10
109.705790
 20
167.327940
 30
0.0
  0
SPLINE
  5
115
100
AcDbEntity
  8
Layer_1
 62
7
100
AcDbSpline
 70
0
 71
3
 72
28
 73
24
 74
22
 40
0.000000
 40
0.000000
 40
0.000000
 40
0.000000
 40
38.043391
 40
63.880301
 40
73.418815
 40
82.881577
 40
108.391546
 40
145.707724
 40
145.707725
 40
145.707727
 40
145.707734
 40
156.165947
 40
166.943998
 40
178.128594
 40
181.237731
 40
186.218617
 40
189.327750
 40
189.327751
 40
189.327753
 40
189.327760
 40
237.114544
 40
270.671772
 40
283.351971
 40
283.351971
 40
283.351971
 40
283.351971
 10
109.705790
 20
167.327940
 30
0.0
 10
108.555686
 20
153.892614
 30
0.0
 10
106.624496
 20
131.332778
 30
0.0
 10
105.268888
 20
113.168766
 30
0.0
 10
102.351385
 20
89.148279
 30
0.0
 10
103.417655
 20
113.092494
 30
0.0
 10
104.667466
 20
130.751701
 30
0.0
 10
107.813330
 20
153.911405
 30
0.0
 10
107.813330
 20
166.350131
 30
0.0
 10
107.813330
 20
166.350134
 30
0.0
 10
107.813332
 20
169.836209
 30
0.0
 10
97.353053
 20
170.990320
 30
0.0
 10
89.914850
 20
177.736036
 30
0.0
 10
82.478626
 20
181.562143
 30
0.0
 10
76.794156
 20
185.335255
 30
0.0
 10
74.398794
 20
185.849672
 30
0.0
 10
70.534336
 20
190.035578
 30
0.0
 10
70.534336
 20
188.999199
 30
0.0
 10
70.534336
 20
188.999196
 30
0.0
 10
70.534337
 20
173.070264
 30
0.0
 10
63.476733
 20
146.480426
 30
0.0
 10
60.034185
 20
115.349955
 30
0.0
 10
56.868670
 20
100.258277
 30
0.0
 10
56.000556
 20
96.119520
 30
0.0
 11
109.705790
 21
167.327940
 31
0.0
 11
106.522083
 21
129.417999
 31
0.0
 11
104.088534
 21
103.695951
 31
0.0
 11
102.772720
 21
94.248630
 31
0.0
 11
103.016176
 21
103.708260
 31
0.0
 11
104.802921
 21
129.155580
 31
0.0
 11
107.813330
 21
166.350130
 31
0.0
 11
107.813330
 21
166.350130
 31
0.0
 11
107.813330
 21
166.350133
 31
0.0
 11
107.813330
 21
166.350140
 31
0.0
 11
98.865859
 21
171.764655
 31
0.0
 11
89.652837
 21
177.358099
 31
0.0
 11
80.098146
 21
183.172140
 31
0.0
 11
77.442997
 21
184.789828
 31
0.0
 11
73.189485
 21
187.381519
 31
0.0
 11
70.534336
 21
188.999200
 31
0.0
 11
70.534336
 21
188.999200
 31
0.0
 11
70.534336
 21
188.999197
 31
0.0
 11
70.534336
 21
188.999190
 31
0.0
 11
63.649979
 21
141.710900
 31
0.0
 11
58.494146
 21
108.552117
 31
0.0
 11
56.000556
 21
96.119520
 31
0.0
  0
SPLINE
  5
116
100
AcDbEntity
  8
Layer_1
 62
7
100
AcDbSpline
 70
0
 71
3
 72
10
 73
6
 74
4
 40
0.000000
 40
0.000000
 40
0.000000
 40
0.000000
 40
3.632261
 40
13.641782
 40
28.808428
 40
28.808428
 40
28.808428
 40
28.808428
 10
66.477516
 20
177.690180
 30
0.0
 10
65.337228
 20
178.099435
 30
0.0
 10
61.054618
 20
179.636484
 30
0.0
 10
52.541673
 20
184.137613
 30
0.0
 10
45.071914
 20
187.949874
 30
0.0
 10
40.571976
 20
190.246460
 30
0.0
 11
66.477516
 21
177.690180
 31
0.0
 11
63.074478
 21
178.960083
 31
0.0
 11
54.060847
 21
183.312664
 31
0.0
 11
40.571976
 21
190.246460
 31
0.0
  0
SPLINE
  5
117
100
AcDbEntity
  8
Layer_1
 62
7
100
AcDbSpline
 70
0
 71
3
 72
13
 73
9
 74
7
 40
0.000000
 40
0.000000
 40
0.000000
 40
0.000000
 40
13.235285
 40
28.166295
 40
44.191779
 40
61.431433
 40
77.152857
 40
91.078383
 40
91.078383
 40
91.078383
 40
91.078383
 10
40.571976
 20
190.246460
 30
0.0
 10
40.022011
 20
185.869111
 30
0.0
 10
38.851617
 20
176.553580
 30
0.0
 10
36.989698
 20
161.941126
 30
0.0
 10
34.939544
 20
146.007088
 30
0.0
 10
32.828446
 20
129.815273
 30
0.0
 10
30.781447
 20
114.321012
 30
0.0
 10
29.453111
 20
104.528370
 30
0.0
 10
28.829176
 20
99.928650
 30
0.0
 11
40.571976
 21
190.246460
 31
0.0
 11
38.918474
 21
177.114868
 31
0.0
 11
37.032895
 21
162.303399
 31
0.0
 11
34.986886
 21
146.409060
 31
0.0
 11
32.757940
 21
129.314106
 31
0.0
 11
30.693482
 21
113.728818
 31
0.0
 11
28.829176
 21
99.928650
 31
0.0
  0
SPLINE
  5
118
100
AcDbEntity
  8
Layer_1
 62
7
100
AcDbSpline
 70
0
 71
3
 72
13
 73
9
 74
7
 40
0.000000
 40
0.000000
 40
0.000000
 40
0.000000
 40
13.769307
 40
22.819301
 40
26.094954
 40
29.423782
 40
38.751767
 40
53.199696
 40
53.199696
 40
53.199696
 40
53.199696
 10
28.829176
 20
99.928650
 30
0.0
 10
33.704819
 20
99.805231
 30
0.0
 10
41.785020
 20
99.600695
 30
0.0
 10
48.321110
 20
99.580535
 30
0.0
 10
56.642266
 20
98.684901
 30
0.0
 10
48.086886
 20
98.271707
 30
0.0
 10
41.348229
 20
98.628761
 30
0.0
 10
32.917067
 20
98.888036
 30
0.0
 10
27.793696
 20
99.045590
 30
0.0
 11
28.829176
 21
99.928650
 31
0.0
 11
42.595166
 21
99.626447
 31
0.0
 11
51.635156
 21
99.201037
 31
0.0
 11
54.878026
 21
98.738760
 31
0.0
 11
51.560763
 21
98.461529
 31
0.0
 11
42.233226
 21
98.553015
 31
0.0
 11
27.793696
 21
99.045590
 31
0.0
  0
SPLINE
  5
119
100
AcDbEntity
  8
Layer_1
 62
7
100
AcDbSpline
 70
0
 71
3
 72
13
 73
9
 74
7
 40
0.000000
 40
0.000000
 40
0.000000
 40
0.000000
 40
14.110031
 40
30.187178
 40
47.901592
 40
64.372624
 40
79.646430
 40
93.084671
 40
93.084671
 40
93.084671
 40
93.084671
 10
27.793696
 20
99.045590
 30
0.0
 10
28.384935
 20
103.711628
 30
0.0
 10
29.649840
 20
113.694207
 30
0.0
 10
31.711682
 20
129.527748
 30
0.0
 10
33.902459
 20
146.138099
 30
0.0
 10
36.085066
 20
162.479407
 30
0.0
 10
38.096822
 20
177.405477
 30
0.0
 10
39.392032
 20
186.888115
 30
0.0
 10
39.998236
 20
191.326320
 30
0.0
 11
27.793696
 21
99.045590
 31
0.0
 11
29.574940
 21
113.042738
 31
0.0
 11
31.645365
 21
128.986012
 31
0.0
 11
33.961636
 21
146.548340
 31
0.0
 11
36.141276
 21
162.874517
 31
0.0
 11
38.183309
 21
178.011203
 31
0.0
 11
39.998236
 21
191.326320
 31
0.0
  0
LWPOLYLINE
  5
11a
100
AcDbEntity
  8
Layer_1
 62
7
100
AcDbPolyline
 90
1
 70
1
 10
56.000556
 20
96.119520
 30
0.0
  0
SPLINE
  5
11b
100
AcDbEntity
  8
Layer_1
 62
7
100
AcDbSpline
 70
0
 71
3
 72
10
 73
6
 74
4
 40
0.000000
 40
0.000000
 40
0.000000
 40
0.000000
 40
15.832933
 40
26.118001
 40
29.804133
 40
29.804133
 40
29.804133
 40
29.804133
 10
39.998236
 20
191.326320
 30
0.0
 10
44.733513
 20
189.003915
 30
0.0
 10
52.544825
 20
185.172875
 30
0.0
 10
61.553798
 20
180.921411
 30
0.0
 10
65.449644
 20
178.364730
 30
0.0
 10
66.477516
 20
177.690180
 30
0.0
 11
39.998236
 21
191.326320
 31
0.0
 11
54.234732
 21
184.397833
 31
0.0
 11
63.371120
 21
179.674587
 31
0.0
 11
66.477516
 21
177.690180
 31
0.0
  0
SPLINE
  5
11c
100
AcDbEntity
  8
Layer_1
 62
7
100
AcDbSpline
 70
0
 71
3
 72
10
 73
6
 74
4
 40
0.000000
 40
0.000000
 40
0.000000
 40
0.000000
 40
1.822644
 40
6.938510
 40
14.920187
 40
14.920187
 40
14.920187
 40
14.920187
 10
18.208646
 20
79.655720
 30
0.0
 10
18.657444
 20
79.245433
 30
0.0
 10
20.365945
 20
77.683536
 30
0.0
 10
23.434404
 20
73.744843
 30
0.0
 10
26.194349
 20
70.367358
 30
0.0
 10
27.876266
 20
68.309110
 30
0.0
 11
18.208646
 21
79.655720
 31
0.0
 11
19.535613
 21
78.406244
 31
0.0
 11
22.855146
 21
74.513586
 31
0.0
 11
27.876266
 21
68.309110
 31
0.0
  0
SPLINE
  5
11d
100
AcDbEntity
  8
Layer_1
 62
7
100
AcDbSpline
 70
0
 71
3
 72
13
 73
9
 74
7
 40
0.000000
 40
0.000000
 40
0.000000
 40
0.000000
 40
17.337191
 40
39.051867
 40
64.204793
 40
84.404246
 40
102.866882
 40
118.615844
 40
118.615844
 40
118.615844
 40
118.615844
 10
27.876266
 20
68.309110
 30
0.0
 10
33.655270
 20
68.277084
 30
0.0
 10
46.672426
 20
68.204947
 30
0.0
 10
68.071738
 20
67.874130
 30
0.0
 10
90.423373
 20
67.449032
 30
0.0
 10
111.689609
 20
66.966574
 30
0.0
 10
129.820992
 20
66.513123
 30
0.0
 10
141.220125
 20
66.184286
 30
0.0
 10
146.467600
 20
66.032910
 30
0.0
 11
27.876266
 21
68.309110
 31
0.0
 11
45.213031
 21
68.187592
 31
0.0
 11
66.925527
 21
67.879914
 31
0.0
 11
92.073886
 21
67.400590
 31
0.0
 11
112.268206
 21
66.945280
 31
0.0
 11
130.724922
 21
66.477774
 31
0.0
 11
146.467600
 21
66.032910
 31
0.0
  0
SPLINE
  5
11e
100
AcDbEntity
  8
Layer_1
 62
7
100
AcDbSpline
 70
0
 71
3
 72
13
 73
9
 74
7
 40
0.000000
 40
0.000000
 40
0.000000
 40
0.000000
 40
13.030189
 40
21.537839
 40
24.601166
 40
27.712297
 40
36.476498
 40
50.140287
 40
50.140287
 40
50.140287
 40
50.140287
 10
146.467600
 20
66.032910
 30
0.0
 10
147.593358
 20
70.510259
 30
0.0
 10
149.454143
 20
77.910952
 30
0.0
 10
150.835648
 20
83.912670
 30
0.0
 10
153.310312
 20
91.359178
 30
0.0
 10
151.997091
 20
83.440631
 30
0.0
 10
150.384299
 20
77.292217
 30
0.0
 10
148.519680
 20
69.554869
 30
0.0
 10
147.383700
 20
64.841050
 30
0.0
 11
146.467600
 21
66.032910
 31
0.0
 11
149.606486
 21
78.679380
 31
0.0
 11
151.844437
 21
86.887406
 31
0.0
 11
152.912490
 21
89.758510
 31
0.0
 11
152.514218
 21
86.672977
 31
0.0
 11
150.625252
 21
78.114763
 31
0.0
 11
147.383700
 21
64.841050
 31
0.0
  0
SPLINE
  5
11f
100
AcDbEntity
  8
Layer_1
 62
7
100
AcDbSpline
 70
0
 71
3
 72
13
 73
9
 74
7
 40
0.000000
 40
0.000000
 40
0.000000
 40
0.000000
 40
15.831972
 40
34.542491
 40
55.122116
 40
80.758714
 40
102.771416
 40
120.156862
 40
120.156862
 40
120.156862
 40
120.156862
 10
147.383700
 20
64.841050
 30
0.0
 10
142.106577
 20
64.887564
 30
0.0
 10
130.592851
 20
64.989048
 30
0.0
 10
112.220262
 20
65.222745
 30
0.0
 10
90.580413
 20
65.547412
 30
0.0
 10
67.841388
 20
65.970607
 30
0.0
 10
46.168134
 20
66.448643
 30
0.0
 10
33.042090
 20
66.869331
 30
0.0
 10
27.249886
 20
67.054970
 30
0.0
 11
147.383700
 21
64.841050
 31
0.0
 11
131.552429
 21
64.990036
 31
0.0
 11
112.843343
 21
65.221600
 31
0.0
 11
92.266076
 21
65.533140
 31
0.0
 11
66.633893
 21
66.008917
 31
0.0
 11
44.627209
 21
66.523579
 31
0.0
 11
27.249886
 21
67.054970
 31
0.0
  0
LWPOLYLINE
  5
120
100
AcDbEntity
  8
Layer_1
 62
7
100
AcDbPolyline
 90
1
 70
1
 10
66.477516
 20
177.690180
 30
0.0
  0
SPLINE
  5
121
100
AcDbEntity
  8
Layer_1
 62
7
100
AcDbSpline
 70
0
 71
3
 72
10
 73
6
 74
4
 40
0.000000
 40
0.000000
 40
0.000000
 40
0.000000
 40
8.394120
 40
13.671884
 40
15.522336
 40
15.522336
 40
15.522336
 40
15.522336
 10
27.249886
 20
67.054970
 30
0.0
 10
25.576028
 20
69.293851
 30
0.0
 10
22.849741
 20
72.940417
 30
0.0
 10
19.641495
 20
77.025237
 30
0.0
 10
18.503948
 20
79.113593
 30
0.0
 10
18.208646
 20
79.655720
 30
0.0
 11
27.249886
 21
67.054970
 31
0.0
 11
22.190807
 21
73.753251
 31
0.0
 11
19.117178
 21
78.043659
 31
0.0
 11
18.208646
 21
79.655720
 31
0.0
  0
LWPOLYLINE
  5
122
100
AcDbEntity
  8
Layer_1
 62
7
100
AcDbPolyline
 90
1
 70
1
 10
18.208646
 20
79.655720
 30
0.0
  0
SPLINE
  5
123
100
AcDbEntity
  8
Layer_1
 62
7
100
AcDbSpline
 70
0
 71
3
 72
16
 73
12
 74
10
 40
0.000000
 40
0.000000
 40
0.000000
 40
0.000000
 40
3.406807
 40
12.973841
 40
27.797502
 40
46.942574
 40
69.544991
 40
94.592481
 40
97.319611
 40
100.027375
 40
102.716321
 40
102.716321
 40
102.716321
 40
102.716321
 10
14.841046
 20
87.887620
 30
0.0
 10
15.976900
 20
87.885393
 30
0.0
 10
20.302474
 20
87.876914
 30
0.0
 10
29.542153
 20
87.068331
 30
0.0
 10
44.037368
 20
86.401550
 30
0.0
 10
62.889323
 20
85.813690
 30
0.0
 10
85.161213
 20
86.227345
 30
0.0
 10
101.917193
 20
87.569826
 30
0.0
 10
111.999277
 20
88.832163
 30
0.0
 10
114.683502
 20
89.190251
 30
0.0
 10
116.463857
 20
89.447990
 30
0.0
 10
117.350930
 20
89.576410
 30
0.0
 11
14.841046
 21
87.887620
 31
0.0
 11
18.247701
 21
87.855503
 31
0.0
 11
27.796981
 21
87.272921
 31
0.0
 11
42.600456
 21
86.499590
 31
0.0
 11
61.738884
 21
85.995225
 31
0.0
 11
84.337090
 21
86.431515
 31
0.0
 11
109.299180
 21
88.498110
 31
0.0
 11
112.005220
 21
88.836614
 31
0.0
 11
114.689017
 21
89.196080
 31
0.0
 11
117.350930
 21
89.576410
 31
0.0
  0
LWPOLYLINE
  5
124
100
AcDbEntity
  8
Layer_1
 62
7
100
AcDbPolyline
 90
1
 70
1
 10
117.350930
 20
89.576410
 30
0.0
  0
SPLINE
  5
125
100
AcDbEntity
  8
Layer_1
 62
7
100
AcDbSpline
 70
0
 71
3
 72
19
 73
15
 74
13
 40
0.000000
 40
0.000000
 40
0.000000
 40
0.000000
 40
23.364988
 40
43.672480
 40
61.223006
 40
74.574612
 40
83.173902
 40
86.237974
 40
89.308396
 40
97.947271
 40
111.426628
 40
129.145223
 40
149.705168
 40
173.293264
 40
173.293264
 40
173.293264
 40
173.293264
 10
117.350940
 20
89.576420
 30
0.0
 10
125.021182
 20
90.888175
 30
0.0
 10
139.357954
 20
93.340032
 30
0.0
 10
159.136907
 20
99.089541
 30
0.0
 10
174.693648
 20
104.988642
 30
0.0
 10
187.594078
 20
111.175852
 30
0.0
 10
193.041107
 20
114.114148
 30
0.0
 10
199.939854
 20
117.967155
 30
0.0
 10
193.586729
 20
113.219645
 30
0.0
 10
188.184408
 20
110.078454
 30
0.0
 10
175.487628
 20
103.230683
 30
0.0
 10
159.862611
 20
96.971104
 30
0.0
 10
139.965247
 20
90.854968
 30
0.0
 10
125.478313
 20
88.322126
 30
0.0
 10
117.738010
 20
86.968840
 30
0.0
 11
117.350940
 21
89.576420
 31
0.0
 11
140.296474
 21
93.983813
 31
0.0
 11
159.817579
 21
99.580304
 31
0.0
 11
176.196440
 21
105.885370
 31
0.0
 11
188.262272
 21
111.602108
 31
0.0
 11
195.834464
 21
115.677606
 31
0.0
 11
198.562130
 21
117.073450
 31
0.0
 11
196.154938
 21
115.167429
 31
0.0
 11
188.870829
 21
110.522871
 31
0.0
 11
176.936790
 21
104.256150
 31
0.0
 11
160.558554
 21
97.495826
 31
0.0
 11
140.876653
 21
91.551577
 31
0.0
 11
117.738010
 21
86.968840
 31
0.0
  0
LWPOLYLINE
  5
126
100
AcDbEntity
  8
Layer_1
 62
7
100
AcDbPolyline
 90
1
 70
1
 10
117.738010
 20
86.968840
 30
0.0
  0
SPLINE
  5
127
100
AcDbEntity
  8
Layer_1
 62
7
100
AcDbSpline
 70
0
 71
3
 72
16
 73
12
 74
10
 40
0.000000
 40
0.000000
 40
0.000000
 40
0.000000
 40
2.713147
 40
5.445016
 40
8.196019
 40
33.447341
 40
56.182895
 40
75.420320
 40
90.293672
 40
99.874648
 40
103.282302
 40
103.282302
 40
103.282302
 40
103.282302
 10
117.738000
 20
86.968840
 30
0.0
 10
116.843182
 20
86.837620
 30
0.0
 10
115.047371
 20
86.574275
 30
0.0
 10
112.339608
 20
86.210558
 30
0.0
 10
102.174535
 20
84.935957
 30
0.0
 10
85.289350
 20
83.634355
 30
0.0
 10
62.871007
 20
83.500796
 30
0.0
 10
43.930135
 20
84.388011
 30
0.0
 10
29.438841
 20
85.769708
 30
0.0
 10
20.183889
 20
86.727222
 30
0.0
 10
15.951454
 20
87.646453
 30
0.0
 10
14.841046
 20
87.887620
 30
0.0
 11
117.738000
 21
86.968840
 31
0.0
 11
115.052779
 21
86.580571
 31
0.0
 11
112.345431
 21
86.215362
 31
0.0
 11
109.615770
 21
85.873360
 31
0.0
 11
84.442910
 21
83.884290
 31
0.0
 11
61.708020
 21
83.710520
 31
0.0
 11
42.492576
 21
84.629890
 31
0.0
 11
27.678987
 21
85.961882
 31
0.0
 11
18.177915
 21
87.196668
 31
0.0
 11
14.841046
 21
87.887620
 31
0.0
  0
LWPOLYLINE
  5
128
100
AcDbEntity
  8
Layer_1
 62
7
100
AcDbPolyline
 90
1
 70
1
 10
14.841046
 20
87.887620
 30
0.0
  0
ENDSEC
  0
SECTION
  2
OBJECTS
  0
DICTIONARY
  5
C
330
0
100
AcDbDictionary
  3
ACAD_GROUP
350
D
  3
ACAD_MLINESTYLE
350
17
  0
DICTIONARY
  5
D
330
C
100
AcDbDictionary
  0
DICTIONARY
  5
1A
330
C
100
AcDbDictionary
  0
DICTIONARY
  5
17
330
C
100
AcDbDictionary
  3
STANDARD
350
18
  0
DICTIONARY
  5
19
330
C
100
AcDbDictionary
  0
ENDSEC
  0
EOF
