  0
SECTION
  2
HEADER
  9
$ACADVER
  1
AC1014
  9
$HANDSEED
  5
FFFF
  9
$MEASUREMENT
 70
     1
  0
ENDSEC
  0
SECTION
  2
TABLES
  0
TABLE
  2
VPORT
  5
8
330
0
100
AcDbSymbolTable
 70
     4
  0
VPORT
  5
2E
330
8
100
AcDbSymbolTableRecord
100
AcDbViewportTableRecord
  2
*ACTIVE
 70
     0
 10
0.0
 20
0.0
 11
1.0
 21
1.0
 12
210.0
 22
148.5
 13
0.0
 23
0.0
 14
10.0
 24
10.0
 15
10.0
 25
10.0
 16
0.0
 26
0.0
 36
1.0
 17
0.0
 27
0.0
 37
0.0
 40
341.0
 41
1.24
 42
50.0
 43
0.0
 44
0.0
 50
0.0
 51
0.0
 71
     0
 72
   100
 73
     1
 74
     3
 75
     0
 76
     0
 77
     0
 78
     0
  0
ENDTAB
  0
TABLE
  2
LTYPE
  5
5
330
0
100
AcDbSymbolTable
 70
     1
  0
LTYPE
  5
14
330
5
100
AcDbSymbolTableRecord
100
AcDbLinetypeTableRecord
  2
BYBLOCK
 70
     0
  3

 72
    65
 73
     0
 40
0.0
  0
LTYPE
  5
15
330
5
100
AcDbSymbolTableRecord
100
AcDbLinetypeTableRecord
  2
BYLAYER
 70
     0
  3

 72
    65
 73
     0
 40
0.0
  0
LTYPE
  5
16
330
5
100
AcDbSymbolTableRecord
100
AcDbLinetypeTableRecord
  2
CONTINUOUS
 70
     0
  3
Solid line
 72
    65
 73
     0
 40
0.0
  0
ENDTAB
  0
TABLE
  2
LAYER
  5
2
100
AcDbSymbolTable
 70
2
  0
LAYER
  5
50
100
AcDbSymbolTableRecord
100
AcDbLayerTableRecord
  2
0
 70
0
  6
CONTINUOUS
  0
LAYER
  5
51
100
AcDbSymbolTableRecord
100
AcDbLayerTableRecord
  2
Layer_1
 70
0
  6
CONTINUOUS
  0
ENDTAB
  0
TABLE
  2
STYLE
  5
3
330
0
100
AcDbSymbolTable
 70
     1
  0
STYLE
  5
11
330
3
100
AcDbSymbolTableRecord
100
AcDbTextStyleTableRecord
  2
STANDARD
 70
     0
 40
0.0
 41
1.0
 50
0.0
 71
     0
 42
2.5
  3
txt
  4

  0
ENDTAB
  0
TABLE
  2
VIEW
  5
6
330
0
100
AcDbSymbolTable
 70
     0
  0
ENDTAB
  0
TABLE
  2
UCS
  5
7
330
0
100
AcDbSymbolTable
 70
     0
  0
ENDTAB
  0
TABLE
  2
APPID
  5
9
330
0
100
AcDbSymbolTable
 70
     2
  0
APPID
  5
12
330
9
100
AcDbSymbolTableRecord
100
AcDbRegAppTableRecord
  2
ACAD
 70
     0
  0
ENDTAB
  0
TABLE
  2
DIMSTYLE
  5
A
330
0
100
AcDbSymbolTable
 70
     1
  0
DIMSTYLE
105
27
330
A
100
AcDbSymbolTableRecord
100
AcDbDimStyleTableRecord
  2
ISO-25
 70
     0
  3

  4

  5

  6

  7

 40
1.0
 41
2.5
 42
0.625
 43
3.75
 44
1.25
 45
0.0
 46
0.0
 47
0.0
 48
0.0
140
2.5
141
2.5
142
0.0
143
0.03937007874016
144
1.0
145
0.0
146
1.0
147
0.625
 71
     0
 72
     0
 73
     0
 74
     0
 75
     0
 76
     0
 77
     1
 78
     8
170
     0
171
     3
172
     1
173
     0
174
     0
175
     0
176
     0
177
     0
178
     0
270
     2
271
     2
272
     2
273
     2
274
     3
340
11
275
     0
280
     0
281
     0
282
     0
283
     0
284
     8
285
     0
286
     0
287
     3
288
     0
  0
ENDTAB
  0
TABLE
  2
BLOCK_RECORD
  5
1
330
0
100
AcDbSymbolTable
 70
     1
  0
BLOCK_RECORD
  5
1F
330
1
100
AcDbSymbolTableRecord
100
AcDbBlockTableRecord
  2
*MODEL_SPACE
  0
BLOCK_RECORD
  5
1B
330
1
100
AcDbSymbolTableRecord
100
AcDbBlockTableRecord
  2
*PAPER_SPACE
  0
ENDTAB
  0
ENDSEC
  0
SECTION
  2
BLOCKS
  0
BLOCK
  5
20
330
1F
100
AcDbEntity
  8
0
100
AcDbBlockBegin
  2
*MODEL_SPACE
 70
     0
 10
0.0
 20
0.0
 30
0.0
  3
*MODEL_SPACE
  1

  0
ENDBLK
  5
21
330
1F
100
AcDbEntity
  8
0
100
AcDbBlockEnd
  0
BLOCK
  5
1C
330
1B
100
AcDbEntity
 67
     1
  8
0
100
AcDbBlockBegin
  2
*PAPER_SPACE
  1

  0
ENDBLK
  5
1D
330
1B
100
AcDbEntity
 67
     1
  8
0
100
AcDbBlockEnd
  0
ENDSEC
  0
SECTION
  2
ENTITIES
  0
LWPOLYLINE
  5
100
100
AcDbEntity
  8
Layer_1
 62
7
100
AcDbPolyline
 90
4
 70
1
 10
1.322917
 20
23.151055
 30
0.0
 10
36.247917
 20
23.151055
 30
0.0
 10
36.247917
 20
1.322930
 30
0.0
 10
1.322917
 20
1.322930
 30
0.0
  0
SPLINE
  5
101
100
AcDbEntity
  8
Layer_1
 62
7
100
AcDbSpline
 70
8
 71
3
 72
8
 73
4
 74
0
 40
0
 40
0
 40
0
 40
0
 40
1
 40
1
 40
1
 40
1
 10
9.691636
 20
21.939498
 30
0.0
 10
9.557947
 20
21.939498
 30
0.0
 10
9.453959
 20
21.909995
 30
0.0
 10
9.379761
 20
21.851172
 30
0.0
  0
SPLINE
  5
102
100
AcDbEntity
  8
Layer_1
 62
7
100
AcDbSpline
 70
8
 71
3
 72
8
 73
4
 74
0
 40
0
 40
0
 40
0
 40
0
 40
1
 40
1
 40
1
 40
1
 10
9.379761
 20
21.851172
 30
0.0
 10
9.304896
 20
21.793017
 30
0.0
 10
9.267508
 20
21.702489
 30
0.0
 10
9.267508
 20
21.579495
 30
0.0
  0
SPLINE
  5
103
100
AcDbEntity
  8
Layer_1
 62
7
100
AcDbSpline
 70
8
 71
3
 72
8
 73
4
 74
0
 40
0
 40
0
 40
0
 40
0
 40
1
 40
1
 40
1
 40
1
 10
9.267508
 20
21.579495
 30
0.0
 10
9.267508
 20
21.507971
 30
0.0
 10
9.281834
 20
21.440793
 30
0.0
 10
9.310577
 20
21.377959
 30
0.0
  0
SPLINE
  5
104
100
AcDbEntity
  8
Layer_1
 62
7
100
AcDbSpline
 70
8
 71
3
 72
8
 73
4
 74
0
 40
0
 40
0
 40
0
 40
0
 40
1
 40
1
 40
1
 40
1
 10
9.310577
 20
21.377959
 30
0.0
 10
9.338652
 20
21.315125
 30
0.0
 10
9.384775
 20
21.245652
 30
0.0
 10
9.448945
 20
21.169450
 30
0.0
  0
SPLINE
  5
105
100
AcDbEntity
  8
Layer_1
 62
7
100
AcDbSpline
 70
8
 71
3
 72
8
 73
4
 74
0
 40
0
 40
0
 40
0
 40
0
 40
1
 40
1
 40
1
 40
1
 10
9.448945
 20
21.169450
 30
0.0
 10
9.392127
 20
21.143381
 30
0.0
 10
9.347721
 20
21.103563
 30
0.0
 10
9.315636
 20
21.050087
 30
0.0
  0
SPLINE
  5
106
100
AcDbEntity
  8
Layer_1
 62
7
100
AcDbSpline
 70
8
 71
3
 72
8
 73
4
 74
0
 40
0
 40
0
 40
0
 40
0
 40
1
 40
1
 40
1
 40
1
 10
9.315636
 20
21.050087
 30
0.0
 10
9.283551
 20
20.997280
 30
0.0
 10
9.267508
 20
20.932821
 30
0.0
 10
9.267508
 20
20.856618
 30
0.0
  0
SPLINE
  5
107
100
AcDbEntity
  8
Layer_1
 62
7
100
AcDbSpline
 70
8
 71
3
 72
8
 73
4
 74
0
 40
0
 40
0
 40
0
 40
0
 40
1
 40
1
 40
1
 40
1
 10
9.267508
 20
20.856618
 30
0.0
 10
9.267508
 20
20.790442
 30
0.0
 10
9.281120
 20
20.727851
 30
0.0
 10
9.308526
 20
20.669028
 30
0.0
  0
SPLINE
  5
108
100
AcDbEntity
  8
Layer_1
 62
7
100
AcDbSpline
 70
8
 71
3
 72
8
 73
4
 74
0
 40
0
 40
0
 40
0
 40
0
 40
1
 40
1
 40
1
 40
1
 10
9.308526
 20
20.669028
 30
0.0
 10
9.335933
 20
20.610874
 30
0.0
 10
9.374034
 20
20.552430
 30
0.0
 10
9.422830
 20
20.493608
 30
0.0
  0
LWPOLYLINE
  5
109
100
AcDbEntity
  8
Layer_1
 62
7
100
AcDbPolyline
 90
4
 70
1
 10
5.922036
 20
18.882654
 30
0.0
 10
10.879005
 20
18.882654
 30
0.0
 10
10.879005
 20
5.723601
 30
0.0
 10
5.922036
 20
5.723601
 30
0.0
  0
SPLINE
  5
10a
100
AcDbEntity
  8
Layer_1
 62
7
100
AcDbSpline
 70
8
 71
3
 72
8
 73
4
 74
0
 40
0
 40
0
 40
0
 40
0
 40
1
 40
1
 40
1
 40
1
 10
9.582254
 20
20.493608
 30
0.0
 10
9.542816
 20
20.545078
 30
0.0
 10
9.510442
 20
20.596502
 30
0.0
 10
9.485041
 20
20.647972
 30
0.0
  0
SPLINE
  5
10b
100
AcDbEntity
  8
Layer_1
 62
7
100
AcDbSpline
 70
8
 71
3
 72
8
 73
4
 74
0
 40
0
 40
0
 40
0
 40
0
 40
1
 40
1
 40
1
 40
1
 10
9.485041
 20
20.647972
 30
0.0
 10
9.459640
 20
20.700111
 30
0.0
 10
9.446894
 20
20.751961
 30
0.0
 10
9.446894
 20
20.803432
 30
0.0
  0
SPLINE
  5
10c
100
AcDbEntity
  8
Layer_1
 62
7
100
AcDbSpline
 70
8
 71
3
 72
8
 73
4
 74
0
 40
0
 40
0
 40
0
 40
0
 40
1
 40
1
 40
1
 40
1
 10
9.446894
 20
20.803432
 30
0.0
 10
9.446894
 20
20.857575
 30
0.0
 10
9.454338
 20
20.898973
 30
0.0
 10
9.469044
 20
20.927717
 30
0.0
  0
SPLINE
  5
10d
100
AcDbEntity
  8
Layer_1
 62
7
100
AcDbSpline
 70
8
 71
3
 72
8
 73
4
 74
0
 40
0
 40
0
 40
0
 40
0
 40
1
 40
1
 40
1
 40
1
 10
9.469044
 20
20.927717
 30
0.0
 10
9.483081
 20
20.956460
 30
0.0
 10
9.504426
 20
20.978518
 30
0.0
 10
9.533169
 20
20.993892
 30
0.0
  0
SPLINE
  5
10e
100
AcDbEntity
  8
Layer_1
 62
7
100
AcDbSpline
 70
8
 71
3
 72
8
 73
4
 74
0
 40
0
 40
0
 40
0
 40
0
 40
1
 40
1
 40
1
 40
1
 10
9.533169
 20
20.993892
 30
0.0
 10
9.559907
 20
21.007930
 30
0.0
 10
9.595714
 20
21.016954
 30
0.0
 10
9.640500
 20
21.020964
 30
0.0
  0
SPLINE
  5
10f
100
AcDbEntity
  8
Layer_1
 62
7
100
AcDbSpline
 70
8
 71
3
 72
8
 73
4
 74
0
 40
0
 40
0
 40
0
 40
0
 40
1
 40
1
 40
1
 40
1
 10
9.640500
 20
21.020964
 30
0.0
 10
9.684617
 20
21.025644
 30
0.0
 10
9.731317
 20
21.028074
 30
0.0
 10
9.780782
 20
21.028074
 30
0.0
  0
LWPOLYLINE
  5
110
100
AcDbEntity
  8
Layer_1
 62
7
100
AcDbPolyline
 90
6
 70
0
 10
9.422830
 20
20.493608
 30
0.0
 10
9.298545
 20
20.493608
 30
0.0
 10
9.298545
 20
20.305061
 30
0.0
 10
10.418478
 20
20.305061
 30
0.0
 10
10.418478
 20
20.493608
 30
0.0
 10
9.582254
 20
20.493608
 30
0.0
  0
SPLINE
  5
111
100
AcDbEntity
  8
Layer_1
 62
7
100
AcDbSpline
 70
8
 71
3
 72
8
 73
4
 74
0
 40
0
 40
0
 40
0
 40
0
 40
1
 40
1
 40
1
 40
1
 10
9.701617
 20
21.216484
 30
0.0
 10
9.681564
 20
21.216484
 30
0.0
 10
9.661510
 20
21.215907
 30
0.0
 10
9.641457
 20
21.214570
 30
0.0
  0
SPLINE
  5
112
100
AcDbEntity
  8
Layer_1
 62
7
100
AcDbSpline
 70
8
 71
3
 72
8
 73
4
 74
0
 40
0
 40
0
 40
0
 40
0
 40
1
 40
1
 40
1
 40
1
 10
9.641457
 20
21.214570
 30
0.0
 10
9.620736
 20
21.213233
 30
0.0
 10
9.602687
 20
21.211516
 30
0.0
 10
9.587313
 20
21.209511
 30
0.0
  0
SPLINE
  5
113
100
AcDbEntity
  8
Layer_1
 62
7
100
AcDbSpline
 70
8
 71
3
 72
8
 73
4
 74
0
 40
0
 40
0
 40
0
 40
0
 40
1
 40
1
 40
1
 40
1
 10
9.587313
 20
21.209511
 30
0.0
 10
9.546538
 20
21.262318
 30
0.0
 10
9.513161
 20
21.315171
 30
0.0
 10
9.487092
 20
21.367978
 30
0.0
  0
SPLINE
  5
114
100
AcDbEntity
  8
Layer_1
 62
7
100
AcDbSpline
 70
8
 71
3
 72
8
 73
4
 74
0
 40
0
 40
0
 40
0
 40
0
 40
1
 40
1
 40
1
 40
1
 10
9.487092
 20
21.367978
 30
0.0
 10
9.460354
 20
21.420785
 30
0.0
 10
9.446894
 20
21.473501
 30
0.0
 10
9.446894
 20
21.526308
 30
0.0
  0
SPLINE
  5
115
100
AcDbEntity
  8
Layer_1
 62
7
100
AcDbSpline
 70
8
 71
3
 72
8
 73
4
 74
0
 40
0
 40
0
 40
0
 40
0
 40
1
 40
1
 40
1
 40
1
 10
9.446894
 20
21.526308
 30
0.0
 10
9.446894
 20
21.580452
 30
0.0
 10
9.454338
 20
21.621987
 30
0.0
 10
9.469044
 20
21.650730
 30
0.0
  0
SPLINE
  5
116
100
AcDbEntity
  8
Layer_1
 62
7
100
AcDbSpline
 70
8
 71
3
 72
8
 73
4
 74
0
 40
0
 40
0
 40
0
 40
0
 40
1
 40
1
 40
1
 40
1
 10
9.469044
 20
21.650730
 30
0.0
 10
9.483750
 20
21.679473
 30
0.0
 10
9.505383
 20
21.701532
 30
0.0
 10
9.534126
 20
21.716906
 30
0.0
  0
SPLINE
  5
117
100
AcDbEntity
  8
Layer_1
 62
7
100
AcDbSpline
 70
8
 71
3
 72
8
 73
4
 74
0
 40
0
 40
0
 40
0
 40
0
 40
1
 40
1
 40
1
 40
1
 10
9.534126
 20
21.716906
 30
0.0
 10
9.560864
 20
21.730944
 30
0.0
 10
9.596672
 20
21.739967
 30
0.0
 10
9.641457
 20
21.743978
 30
0.0
  0
SPLINE
  5
118
100
AcDbEntity
  8
Layer_1
 62
7
100
AcDbSpline
 70
8
 71
3
 72
8
 73
4
 74
0
 40
0
 40
0
 40
0
 40
0
 40
1
 40
1
 40
1
 40
1
 10
9.641457
 20
21.743978
 30
0.0
 10
9.686243
 20
21.748657
 30
0.0
 10
9.732654
 20
21.750951
 30
0.0
 10
9.780782
 20
21.750951
 30
0.0
  0
LWPOLYLINE
  5
119
100
AcDbEntity
  8
Layer_1
 62
7
100
AcDbPolyline
 90
4
 70
0
 10
9.780782
 20
21.028074
 30
0.0
 10
10.418478
 20
21.028074
 30
0.0
 10
10.418478
 20
21.216484
 30
0.0
 10
9.701617
 20
21.216484
 30
0.0
  0
SPLINE
  5
11a
100
AcDbEntity
  8
Layer_1
 62
7
100
AcDbSpline
 70
8
 71
3
 72
8
 73
4
 74
0
 40
0
 40
0
 40
0
 40
0
 40
1
 40
1
 40
1
 40
1
 10
9.365678
 20
20.062506
 30
0.0
 10
9.339609
 20
20.011036
 30
0.0
 10
9.317550
 20
19.954173
 30
0.0
 10
9.299502
 20
19.892007
 30
0.0
  0
SPLINE
  5
11b
100
AcDbEntity
  8
Layer_1
 62
7
100
AcDbSpline
 70
8
 71
3
 72
8
 73
4
 74
0
 40
0
 40
0
 40
0
 40
0
 40
1
 40
1
 40
1
 40
1
 10
9.299502
 20
19.892007
 30
0.0
 10
9.281454
 20
19.830511
 30
0.0
 10
9.272430
 20
19.767631
 30
0.0
 10
9.272430
 20
19.703461
 30
0.0
  0
SPLINE
  5
11c
100
AcDbEntity
  8
Layer_1
 62
7
100
AcDbSpline
 70
8
 71
3
 72
8
 73
4
 74
0
 40
0
 40
0
 40
0
 40
0
 40
1
 40
1
 40
1
 40
1
 10
9.272430
 20
19.703461
 30
0.0
 10
9.272430
 20
19.538355
 30
0.0
 10
9.324569
 20
19.405426
 30
0.0
 10
9.428846
 20
19.304491
 30
0.0
  0
SPLINE
  5
11d
100
AcDbEntity
  8
Layer_1
 62
7
100
AcDbSpline
 70
8
 71
3
 72
8
 73
4
 74
0
 40
0
 40
0
 40
0
 40
0
 40
1
 40
1
 40
1
 40
1
 10
9.428846
 20
19.304491
 30
0.0
 10
9.533124
 20
19.204224
 30
0.0
 10
9.676930
 20
19.154091
 30
0.0
 10
9.860084
 20
19.154091
 30
0.0
  0
SPLINE
  5
11e
100
AcDbEntity
  8
Layer_1
 62
7
100
AcDbSpline
 70
8
 71
3
 72
8
 73
4
 74
0
 40
0
 40
0
 40
0
 40
0
 40
1
 40
1
 40
1
 40
1
 10
9.860084
 20
19.154091
 30
0.0
 10
9.958345
 20
19.154091
 30
0.0
 10
10.044149
 20
19.167414
 30
0.0
 10
10.117678
 20
19.194152
 30
0.0
  0
SPLINE
  5
11f
100
AcDbEntity
  8
Layer_1
 62
7
100
AcDbSpline
 70
8
 71
3
 72
8
 73
4
 74
0
 40
0
 40
0
 40
0
 40
0
 40
1
 40
1
 40
1
 40
1
 10
10.117678
 20
19.194152
 30
0.0
 10
10.191207
 20
19.220890
 30
0.0
 10
10.252081
 20
19.258703
 30
0.0
 10
10.300209
 20
19.307499
 30
0.0
  0
SPLINE
  5
120
100
AcDbEntity
  8
Layer_1
 62
7
100
AcDbSpline
 70
8
 71
3
 72
8
 73
4
 74
0
 40
0
 40
0
 40
0
 40
0
 40
1
 40
1
 40
1
 40
1
 10
10.300209
 20
19.307499
 30
0.0
 10
10.348337
 20
19.355627
 30
0.0
 10
10.384433
 20
19.413356
 30
0.0
 10
10.408496
 20
19.480869
 30
0.0
  0
SPLINE
  5
121
100
AcDbEntity
  8
Layer_1
 62
7
100
AcDbSpline
 70
8
 71
3
 72
8
 73
4
 74
0
 40
0
 40
0
 40
0
 40
0
 40
1
 40
1
 40
1
 40
1
 10
10.408496
 20
19.480869
 30
0.0
 10
10.431893
 20
19.548382
 30
0.0
 10
10.443636
 20
19.622579
 30
0.0
 10
10.443636
 20
19.703461
 30
0.0
  0
SPLINE
  5
122
100
AcDbEntity
  8
Layer_1
 62
7
100
AcDbSpline
 70
8
 71
3
 72
8
 73
4
 74
0
 40
0
 40
0
 40
0
 40
0
 40
1
 40
1
 40
1
 40
1
 10
10.443636
 20
19.703461
 30
0.0
 10
10.443636
 20
19.766963
 30
0.0
 10
10.435189
 20
19.826835
 30
0.0
 10
10.418478
 20
19.882984
 30
0.0
  0
SPLINE
  5
123
100
AcDbEntity
  8
Layer_1
 62
7
100
AcDbSpline
 70
8
 71
3
 72
8
 73
4
 74
0
 40
0
 40
0
 40
0
 40
0
 40
1
 40
1
 40
1
 40
1
 10
10.418478
 20
19.882984
 30
0.0
 10
10.401767
 20
19.939801
 30
0.0
 10
10.378417
 20
19.999673
 30
0.0
 10
10.348337
 20
20.062506
 30
0.0
  0
LWPOLYLINE
  5
124
100
AcDbEntity
  8
Layer_1
 62
7
100
AcDbPolyline
 90
5
 70
0
 10
9.780782
 20
21.750951
 30
0.0
 10
10.418478
 20
21.750951
 30
0.0
 10
10.418478
 20
21.939498
 30
0.0
 10
9.691636
 20
21.939498
 30
0.0
 10
9.691636
 20
21.939498
 30
0.0
  0
SPLINE
  5
125
100
AcDbEntity
  8
Layer_1
 62
7
100
AcDbSpline
 70
8
 71
3
 72
8
 73
4
 74
0
 40
0
 40
0
 40
0
 40
0
 40
1
 40
1
 40
1
 40
1
 10
10.140785
 20
20.052389
 30
0.0
 10
10.152148
 20
20.038351
 30
0.0
 10
10.165897
 20
20.019300
 30
0.0
 10
10.181940
 20
19.995236
 30
0.0
  0
SPLINE
  5
126
100
AcDbEntity
  8
Layer_1
 62
7
100
AcDbSpline
 70
8
 71
3
 72
8
 73
4
 74
0
 40
0
 40
0
 40
0
 40
0
 40
1
 40
1
 40
1
 40
1
 10
10.181940
 20
19.995236
 30
0.0
 10
10.197314
 20
19.971172
 30
0.0
 10
10.211929
 20
19.945528
 30
0.0
 10
10.225966
 20
19.918122
 30
0.0
  0
SPLINE
  5
127
100
AcDbEntity
  8
Layer_1
 62
7
100
AcDbSpline
 70
8
 71
3
 72
8
 73
4
 74
0
 40
0
 40
0
 40
0
 40
0
 40
1
 40
1
 40
1
 40
1
 10
10.225966
 20
19.918122
 30
0.0
 10
10.242009
 20
19.886706
 30
0.0
 10
10.255043
 20
19.851187
 30
0.0
 10
10.265070
 20
19.811749
 30
0.0
  0
SPLINE
  5
128
100
AcDbEntity
  8
Layer_1
 62
7
100
AcDbSpline
 70
8
 71
3
 72
8
 73
4
 74
0
 40
0
 40
0
 40
0
 40
0
 40
1
 40
1
 40
1
 40
1
 10
10.265070
 20
19.811749
 30
0.0
 10
10.275096
 20
19.772310
 30
0.0
 10
10.280110
 20
19.733632
 30
0.0
 10
10.280110
 20
19.695530
 30
0.0
  0
SPLINE
  5
129
100
AcDbEntity
  8
Layer_1
 62
7
100
AcDbSpline
 70
8
 71
3
 72
8
 73
4
 74
0
 40
0
 40
0
 40
0
 40
0
 40
1
 40
1
 40
1
 40
1
 10
10.280110
 20
19.695530
 30
0.0
 10
10.280110
 20
19.585906
 30
0.0
 10
10.244014
 20
19.500679
 30
0.0
 10
10.171822
 20
19.439851
 30
0.0
  0
SPLINE
  5
12a
100
AcDbEntity
  8
Layer_1
 62
7
100
AcDbSpline
 70
8
 71
3
 72
8
 73
4
 74
0
 40
0
 40
0
 40
0
 40
0
 40
1
 40
1
 40
1
 40
1
 10
10.171822
 20
19.439851
 30
0.0
 10
10.098962
 20
19.379691
 30
0.0
 10
9.995110
 20
19.349611
 30
0.0
 10
9.860084
 20
19.349611
 30
0.0
  0
SPLINE
  5
12b
100
AcDbEntity
  8
Layer_1
 62
7
100
AcDbSpline
 70
8
 71
3
 72
8
 73
4
 74
0
 40
0
 40
0
 40
0
 40
0
 40
1
 40
1
 40
1
 40
1
 10
9.860084
 20
19.349611
 30
0.0
 10
9.721048
 20
19.349611
 30
0.0
 10
9.615767
 20
19.380268
 30
0.0
 10
9.544244
 20
19.441765
 30
0.0
  0
SPLINE
  5
12c
100
AcDbEntity
  8
Layer_1
 62
7
100
AcDbSpline
 70
8
 71
3
 72
8
 73
4
 74
0
 40
0
 40
0
 40
0
 40
0
 40
1
 40
1
 40
1
 40
1
 10
9.544244
 20
19.441765
 30
0.0
 10
9.472052
 20
19.503931
 30
0.0
 10
9.435956
 20
19.588580
 30
0.0
 10
9.435956
 20
19.695530
 30
0.0
  0
SPLINE
  5
12d
100
AcDbEntity
  8
Layer_1
 62
7
100
AcDbSpline
 70
8
 71
3
 72
8
 73
4
 74
0
 40
0
 40
0
 40
0
 40
0
 40
1
 40
1
 40
1
 40
1
 10
9.435956
 20
19.695530
 30
0.0
 10
9.435956
 20
19.753685
 30
0.0
 10
9.447988
 20
19.813131
 30
0.0
 10
9.472052
 20
19.873959
 30
0.0
  0
SPLINE
  5
12e
100
AcDbEntity
  8
Layer_1
 62
7
100
AcDbSpline
 70
8
 71
3
 72
8
 73
4
 74
0
 40
0
 40
0
 40
0
 40
0
 40
1
 40
1
 40
1
 40
1
 10
9.472052
 20
19.873959
 30
0.0
 10
9.496116
 20
19.935456
 30
0.0
 10
9.530495
 20
19.994902
 30
0.0
 10
9.575281
 20
20.052389
 30
0.0
  0
LWPOLYLINE
  5
12f
100
AcDbEntity
  8
Layer_1
 62
7
100
AcDbPolyline
 90
3
 70
0
 10
10.348337
 20
20.062506
 30
0.0
 10
10.140785
 20
20.062506
 30
0.0
 10
10.140785
 20
20.052389
 30
0.0
  0
SPLINE
  5
130
100
AcDbEntity
  8
Layer_1
 62
7
100
AcDbSpline
 70
8
 71
3
 72
8
 73
4
 74
0
 40
0
 40
0
 40
0
 40
0
 40
1
 40
1
 40
1
 40
1
 10
30.193589
 20
18.960708
 30
0.0
 10
30.193589
 20
18.642390
 30
0.0
 10
30.023768
 20
18.348252
 30
0.0
 10
29.748096
 20
18.189093
 30
0.0
  0
SPLINE
  5
131
100
AcDbEntity
  8
Layer_1
 62
7
100
AcDbSpline
 70
8
 71
3
 72
8
 73
4
 74
0
 40
0
 40
0
 40
0
 40
0
 40
1
 40
1
 40
1
 40
1
 10
29.748096
 20
18.189093
 30
0.0
 10
29.472425
 20
18.029934
 30
0.0
 10
29.132783
 20
18.029934
 30
0.0
 10
28.857112
 20
18.189093
 30
0.0
  0
SPLINE
  5
132
100
AcDbEntity
  8
Layer_1
 62
7
100
AcDbSpline
 70
8
 71
3
 72
8
 73
4
 74
0
 40
0
 40
0
 40
0
 40
0
 40
1
 40
1
 40
1
 40
1
 10
28.857112
 20
18.189093
 30
0.0
 10
28.581440
 20
18.348252
 30
0.0
 10
28.411620
 20
18.642390
 30
0.0
 10
28.411620
 20
18.960708
 30
0.0
  0
SPLINE
  5
133
100
AcDbEntity
  8
Layer_1
 62
7
100
AcDbSpline
 70
8
 71
3
 72
8
 73
4
 74
0
 40
0
 40
0
 40
0
 40
0
 40
1
 40
1
 40
1
 40
1
 10
28.411620
 20
18.960708
 30
0.0
 10
28.411620
 20
19.279026
 30
0.0
 10
28.581440
 20
19.573165
 30
0.0
 10
28.857112
 20
19.732324
 30
0.0
  0
SPLINE
  5
134
100
AcDbEntity
  8
Layer_1
 62
7
100
AcDbSpline
 70
8
 71
3
 72
8
 73
4
 74
0
 40
0
 40
0
 40
0
 40
0
 40
1
 40
1
 40
1
 40
1
 10
28.857112
 20
19.732324
 30
0.0
 10
29.132783
 20
19.891483
 30
0.0
 10
29.472425
 20
19.891483
 30
0.0
 10
29.748096
 20
19.732324
 30
0.0
  0
SPLINE
  5
135
100
AcDbEntity
  8
Layer_1
 62
7
100
AcDbSpline
 70
8
 71
3
 72
8
 73
4
 74
0
 40
0
 40
0
 40
0
 40
0
 40
1
 40
1
 40
1
 40
1
 10
29.748096
 20
19.732324
 30
0.0
 10
30.023768
 20
19.573165
 30
0.0
 10
30.193589
 20
19.279026
 30
0.0
 10
30.193589
 20
18.960708
 30
0.0
  0
LWPOLYLINE
  5
136
100
AcDbEntity
  8
Layer_1
 62
7
100
AcDbPolyline
 90
4
 70
0
 10
9.575281
 20
20.052389
 30
0.0
 10
9.575281
 20
20.062506
 30
0.0
 10
9.365678
 20
20.062506
 30
0.0
 10
9.365678
 20
20.062506
 30
0.0
  0
SPLINE
  5
137
100
AcDbEntity
  8
Layer_1
 62
7
100
AcDbSpline
 70
8
 71
3
 72
8
 73
4
 74
0
 40
0
 40
0
 40
0
 40
0
 40
1
 40
1
 40
1
 40
1
 10
29.604891
 20
16.930031
 30
0.0
 10
29.604891
 20
16.822035
 30
0.0
 10
29.547275
 20
16.722242
 30
0.0
 10
29.453747
 20
16.668244
 30
0.0
  0
SPLINE
  5
138
100
AcDbEntity
  8
Layer_1
 62
7
100
AcDbSpline
 70
8
 71
3
 72
8
 73
4
 74
0
 40
0
 40
0
 40
0
 40
0
 40
1
 40
1
 40
1
 40
1
 10
29.453747
 20
16.668244
 30
0.0
 10
29.360220
 20
16.614245
 30
0.0
 10
29.244989
 20
16.614245
 30
0.0
 10
29.151461
 20
16.668244
 30
0.0
  0
SPLINE
  5
139
100
AcDbEntity
  8
Layer_1
 62
7
100
AcDbSpline
 70
8
 71
3
 72
8
 73
4
 74
0
 40
0
 40
0
 40
0
 40
0
 40
1
 40
1
 40
1
 40
1
 10
29.151461
 20
16.668244
 30
0.0
 10
29.057933
 20
16.722242
 30
0.0
 10
29.000318
 20
16.822035
 30
0.0
 10
29.000318
 20
16.930031
 30
0.0
  0
SPLINE
  5
13a
100
AcDbEntity
  8
Layer_1
 62
7
100
AcDbSpline
 70
8
 71
3
 72
8
 73
4
 74
0
 40
0
 40
0
 40
0
 40
0
 40
1
 40
1
 40
1
 40
1
 10
29.000318
 20
16.930031
 30
0.0
 10
29.000318
 20
17.038028
 30
0.0
 10
29.057933
 20
17.137821
 30
0.0
 10
29.151461
 20
17.191819
 30
0.0
  0
SPLINE
  5
13b
100
AcDbEntity
  8
Layer_1
 62
7
100
AcDbSpline
 70
8
 71
3
 72
8
 73
4
 74
0
 40
0
 40
0
 40
0
 40
0
 40
1
 40
1
 40
1
 40
1
 10
29.151461
 20
17.191819
 30
0.0
 10
29.244989
 20
17.245817
 30
0.0
 10
29.360220
 20
17.245817
 30
0.0
 10
29.453747
 20
17.191819
 30
0.0
  0
SPLINE
  5
13c
100
AcDbEntity
  8
Layer_1
 62
7
100
AcDbSpline
 70
8
 71
3
 72
8
 73
4
 74
0
 40
0
 40
0
 40
0
 40
0
 40
1
 40
1
 40
1
 40
1
 10
29.453747
 20
17.191819
 30
0.0
 10
29.547275
 20
17.137821
 30
0.0
 10
29.604891
 20
17.038028
 30
0.0
 10
29.604891
 20
16.930031
 30
0.0
  0
LWPOLYLINE
  5
13d
100
AcDbEntity
  8
Layer_1
 62
7
100
AcDbPolyline
 90
1
 70
1
 10
30.193589
 20
18.960708
 30
0.0
  0
LWPOLYLINE
  5
13e
100
AcDbEntity
  8
Layer_1
 62
7
100
AcDbPolyline
 90
1
 70
1
 10
29.604891
 20
16.930031
 30
0.0
  0
LWPOLYLINE
  5
13f
100
AcDbEntity
  8
Layer_1
 62
7
100
AcDbPolyline
 90
5
 70
1
 10
2.256956
 20
14.914043
 30
0.0
 10
2.256956
 20
14.757627
 30
0.0
 10
4.126975
 20
14.757627
 30
0.0
 10
4.126975
 20
14.914043
 30
0.0
 10
2.256956
 20
14.914043
 30
0.0
  0
LWPOLYLINE
  5
140
100
AcDbEntity
  8
Layer_1
 62
7
100
AcDbPolyline
 90
13
 70
1
 10
2.291138
 20
14.534078
 30
0.0
 10
2.291138
 20
14.375611
 30
0.0
 10
2.870588
 20
14.375611
 30
0.0
 10
2.870588
 20
14.007678
 30
0.0
 10
3.029055
 20
14.007678
 30
0.0
 10
3.029055
 20
14.375611
 30
0.0
 10
3.260671
 20
14.375611
 30
0.0
 10
3.260671
 20
14.007678
 30
0.0
 10
3.419138
 20
14.007678
 30
0.0
 10
3.419138
 20
14.375611
 30
0.0
 10
3.993666
 20
14.375611
 30
0.0
 10
3.993666
 20
14.534078
 30
0.0
 10
2.291138
 20
14.534078
 30
0.0
  0
SPLINE
  5
141
100
AcDbEntity
  8
Layer_1
 62
7
100
AcDbSpline
 70
8
 71
3
 72
8
 73
4
 74
0
 40
0
 40
0
 40
0
 40
0
 40
1
 40
1
 40
1
 40
1
 10
2.692159
 20
13.823233
 30
0.0
 10
2.893361
 20
13.799169
 30
0.0
 10
3.084581
 20
13.733282
 30
0.0
 10
3.265730
 20
13.625662
 30
0.0
  0
SPLINE
  5
142
100
AcDbEntity
  8
Layer_1
 62
7
100
AcDbSpline
 70
8
 71
3
 72
8
 73
4
 74
0
 40
0
 40
0
 40
0
 40
0
 40
1
 40
1
 40
1
 40
1
 10
3.265730
 20
13.625662
 30
0.0
 10
3.446210
 20
13.518711
 30
0.0
 10
3.583575
 20
13.380632
 30
0.0
 10
3.677826
 20
13.211516
 30
0.0
  0
SPLINE
  5
143
100
AcDbEntity
  8
Layer_1
 62
7
100
AcDbSpline
 70
8
 71
3
 72
8
 73
4
 74
0
 40
0
 40
0
 40
0
 40
0
 40
1
 40
1
 40
1
 40
1
 10
3.677826
 20
13.211516
 30
0.0
 10
3.700553
 20
13.251622
 30
0.0
 10
3.739231
 20
13.292731
 30
0.0
 10
3.794044
 20
13.334844
 30
0.0
  0
SPLINE
  5
144
100
AcDbEntity
  8
Layer_1
 62
7
100
AcDbSpline
 70
8
 71
3
 72
8
 73
4
 74
0
 40
0
 40
0
 40
0
 40
0
 40
1
 40
1
 40
1
 40
1
 10
3.794044
 20
13.334844
 30
0.0
 10
3.507950
 20
13.739252
 30
0.0
 10
3.085827
 20
13.961555
 30
0.0
 10
2.527676
 20
14.001662
 30
0.0
  0
LWPOLYLINE
  5
145
100
AcDbEntity
  8
Layer_1
 62
7
100
AcDbPolyline
 90
4
 70
0
 10
2.527676
 20
14.001662
 30
0.0
 10
2.527676
 20
13.262652
 30
0.0
 10
2.692159
 20
13.262652
 30
0.0
 10
2.692159
 20
13.823233
 30
0.0
  0
LWPOLYLINE
  5
146
100
AcDbEntity
  8
Layer_1
 62
7
100
AcDbPolyline
 90
1
 70
1
 10
2.527676
 20
14.001662
 30
0.0
  0
LWPOLYLINE
  5
147
100
AcDbEntity
  8
Layer_1
 62
7
100
AcDbPolyline
 90
5
 70
1
 10
2.259007
 20
12.860673
 30
0.0
 10
2.259007
 20
12.704257
 30
0.0
 10
4.129025
 20
12.704257
 30
0.0
 10
4.129025
 20
12.860673
 30
0.0
 10
2.259007
 20
12.860673
 30
0.0
  0
SPLINE
  5
148
100
AcDbEntity
  8
Layer_1
 62
7
100
AcDbSpline
 70
8
 71
3
 72
8
 73
4
 74
0
 40
0
 40
0
 40
0
 40
0
 40
1
 40
1
 40
1
 40
1
 10
3.601532
 20
12.510652
 30
0.0
 10
3.683750
 20
12.187125
 30
0.0
 10
3.733595
 20
11.835614
 30
0.0
 10
3.750975
 20
11.455938
 30
0.0
  0
LWPOLYLINE
  5
149
100
AcDbEntity
  8
Layer_1
 62
7
100
AcDbPolyline
 90
2
 70
0
 10
3.769980
 20
12.512703
 30
0.0
 10
3.601532
 20
12.510652
 30
0.0
  0
SPLINE
  5
14a
100
AcDbEntity
  8
Layer_1
 62
7
100
AcDbSpline
 70
8
 71
3
 72
8
 73
4
 74
0
 40
0
 40
0
 40
0
 40
0
 40
1
 40
1
 40
1
 40
1
 10
3.917372
 20
11.293506
 30
0.0
 10
3.897318
 20
11.792834
 30
0.0
 10
3.848188
 20
12.199202
 30
0.0
 10
3.769980
 20
12.512703
 30
0.0
  0
LWPOLYLINE
  5
14b
100
AcDbEntity
  8
Layer_1
 62
7
100
AcDbPolyline
 90
10
 70
0
 10
3.750975
 20
11.455938
 30
0.0
 10
3.190530
 20
11.455938
 30
0.0
 10
3.190530
 20
12.355330
 30
0.0
 10
2.467516
 20
12.355330
 30
0.0
 10
2.467516
 20
11.291455
 30
0.0
 10
2.631999
 20
11.291455
 30
0.0
 10
2.631999
 20
12.192898
 30
0.0
 10
3.031106
 20
12.192898
 30
0.0
 10
3.031106
 20
11.293506
 30
0.0
 10
3.917372
 20
11.293506
 30
0.0
  0
LWPOLYLINE
  5
14c
100
AcDbEntity
  8
Layer_1
 62
7
100
AcDbPolyline
 90
1
 70
1
 10
3.769980
 20
12.512703
 30
0.0
  0
LWPOLYLINE
  5
14d
100
AcDbEntity
  8
Layer_1
 62
7
100
AcDbPolyline
 90
9
 70
1
 10
2.261058
 20
10.807167
 30
0.0
 10
2.261058
 20
10.650751
 30
0.0
 10
3.117244
 20
10.650751
 30
0.0
 10
3.117244
 20
10.088255
 30
0.0
 10
3.276668
 20
10.088255
 30
0.0
 10
3.276668
 20
10.650751
 30
0.0
 10
4.130940
 20
10.650751
 30
0.0
 10
4.130940
 20
10.807167
 30
0.0
 10
2.261058
 20
10.807167
 30
0.0
  0
SPLINE
  5
14e
100
AcDbEntity
  8
Layer_1
 62
7
100
AcDbSpline
 70
8
 71
3
 72
8
 73
4
 74
0
 40
0
 40
0
 40
0
 40
0
 40
1
 40
1
 40
1
 40
1
 10
2.692159
 20
9.870722
 30
0.0
 10
2.908735
 20
9.844653
 30
0.0
 10
3.114282
 20
9.768025
 30
0.0
 10
3.308799
 20
9.641021
 30
0.0
  0
SPLINE
  5
14f
100
AcDbEntity
  8
Layer_1
 62
7
100
AcDbSpline
 70
8
 71
3
 72
8
 73
4
 74
0
 40
0
 40
0
 40
0
 40
0
 40
1
 40
1
 40
1
 40
1
 10
3.308799
 20
9.641021
 30
0.0
 10
3.502648
 20
9.514684
 30
0.0
 10
3.646743
 20
9.349670
 30
0.0
 10
3.740994
 20
9.145794
 30
0.0
  0
SPLINE
  5
150
100
AcDbEntity
  8
Layer_1
 62
7
100
AcDbSpline
 70
8
 71
3
 72
8
 73
4
 74
0
 40
0
 40
0
 40
0
 40
0
 40
1
 40
1
 40
1
 40
1
 10
3.740994
 20
9.145794
 30
0.0
 10
3.769068
 20
9.180554
 30
0.0
 10
3.812760
 20
9.216650
 30
0.0
 10
3.872252
 20
9.254083
 30
0.0
  0
SPLINE
  5
151
100
AcDbEntity
  8
Layer_1
 62
7
100
AcDbSpline
 70
8
 71
3
 72
8
 73
4
 74
0
 40
0
 40
0
 40
0
 40
0
 40
1
 40
1
 40
1
 40
1
 10
3.872252
 20
9.254083
 30
0.0
 10
3.745247
 20
9.487369
 30
0.0
 10
3.562762
 20
9.674154
 30
0.0
 10
3.324796
 20
9.814528
 30
0.0
  0
SPLINE
  5
152
100
AcDbEntity
  8
Layer_1
 62
7
100
AcDbSpline
 70
8
 71
3
 72
8
 73
4
 74
0
 40
0
 40
0
 40
0
 40
0
 40
1
 40
1
 40
1
 40
1
 10
3.324796
 20
9.814528
 30
0.0
 10
3.086830
 20
9.954901
 30
0.0
 10
2.821123
 20
10.033823
 30
0.0
 10
2.527676
 20
10.051203
 30
0.0
  0
LWPOLYLINE
  5
153
100
AcDbEntity
  8
Layer_1
 62
7
100
AcDbPolyline
 90
4
 70
0
 10
2.527676
 20
10.051203
 30
0.0
 10
2.527676
 20
9.186813
 30
0.0
 10
2.692159
 20
9.186813
 30
0.0
 10
2.692159
 20
9.870722
 30
0.0
  0
LWPOLYLINE
  5
154
100
AcDbEntity
  8
Layer_1
 62
7
100
AcDbPolyline
 90
1
 70
1
 10
2.527676
 20
10.051203
 30
0.0
  0
LWPOLYLINE
  5
155
100
AcDbEntity
  8
Layer_1
 62
7
100
AcDbPolyline
 90
9
 70
1
 10
3.117244
 20
8.812864
 30
0.0
 10
3.117244
 20
8.485949
 30
0.0
 10
2.259007
 20
8.485949
 30
0.0
 10
2.259007
 20
8.330627
 30
0.0
 10
4.129025
 20
8.330627
 30
0.0
 10
4.129025
 20
8.485949
 30
0.0
 10
3.274754
 20
8.485949
 30
0.0
 10
3.274754
 20
8.812864
 30
0.0
 10
3.117244
 20
8.812864
 30
0.0
  0
LWPOLYLINE
  5
156
100
AcDbEntity
  8
Layer_1
 62
7
100
AcDbPolyline
 90
13
 70
1
 10
3.505276
 20
8.219331
 30
0.0
 10
3.525375
 20
7.911421
 30
0.0
 10
2.759292
 20
7.997696
 30
0.0
 10
2.759292
 20
7.829248
 30
0.0
 10
3.533442
 20
7.748989
 30
0.0
 10
3.546431
 20
7.535422
 30
0.0
 10
2.759292
 20
7.447232
 30
0.0
 10
2.759292
 20
7.270718
 30
0.0
 10
3.554498
 20
7.366974
 30
0.0
 10
3.570495
 20
7.063165
 30
0.0
 10
3.736892
 20
7.092289
 30
0.0
 10
3.654719
 20
8.219331
 30
0.0
 10
3.505276
 20
8.219331
 30
0.0
  0
LWPOLYLINE
  5
157
100
AcDbEntity
  8
Layer_1
 62
7
100
AcDbPolyline
 90
5
 70
1
 10
2.549826
 20
8.154112
 30
0.0
 10
2.549826
 20
7.120318
 30
0.0
 10
2.708156
 20
7.120318
 30
0.0
 10
2.708156
 20
8.154112
 30
0.0
 10
2.549826
 20
8.154112
 30
0.0
  0
SPLINE
  5
158
100
AcDbEntity
  8
Layer_1
 62
7
100
AcDbSpline
 70
8
 71
3
 72
8
 73
4
 74
0
 40
0
 40
0
 40
0
 40
0
 40
1
 40
1
 40
1
 40
1
 10
2.663036
 20
6.541825
 30
0.0
 10
2.572128
 20
6.541825
 30
0.0
 10
2.493631
 20
6.475648
 30
0.0
 10
2.427455
 20
6.343297
 30
0.0
  0
SPLINE
  5
159
100
AcDbEntity
  8
Layer_1
 62
7
100
AcDbSpline
 70
8
 71
3
 72
8
 73
4
 74
0
 40
0
 40
0
 40
0
 40
0
 40
1
 40
1
 40
1
 40
1
 10
2.427455
 20
6.343297
 30
0.0
 10
2.361279
 20
6.211613
 30
0.0
 10
2.328191
 20
6.051901
 30
0.0
 10
2.328191
 20
5.864068
 30
0.0
  0
SPLINE
  5
15a
100
AcDbEntity
  8
Layer_1
 62
7
100
AcDbSpline
 70
8
 71
3
 72
8
 73
4
 74
0
 40
0
 40
0
 40
0
 40
0
 40
1
 40
1
 40
1
 40
1
 10
2.328191
 20
5.864068
 30
0.0
 10
2.328191
 20
5.677572
 30
0.0
 10
2.361279
 20
5.518148
 30
0.0
 10
2.427455
 20
5.385796
 30
0.0
  0
SPLINE
  5
15b
100
AcDbEntity
  8
Layer_1
 62
7
100
AcDbSpline
 70
8
 71
3
 72
8
 73
4
 74
0
 40
0
 40
0
 40
0
 40
0
 40
1
 40
1
 40
1
 40
1
 10
2.427455
 20
5.385796
 30
0.0
 10
2.493631
 20
5.254113
 30
0.0
 10
2.572128
 20
5.188225
 30
0.0
 10
2.663036
 20
5.188225
 30
0.0
  0
SPLINE
  5
15c
100
AcDbEntity
  8
Layer_1
 62
7
100
AcDbSpline
 70
8
 71
3
 72
8
 73
4
 74
0
 40
0
 40
0
 40
0
 40
0
 40
1
 40
1
 40
1
 40
1
 10
2.663036
 20
5.188225
 30
0.0
 10
2.759961
 20
5.188225
 30
0.0
 10
2.840599
 20
5.250679
 30
0.0
 10
2.904770
 20
5.375678
 30
0.0
  0
SPLINE
  5
15d
100
AcDbEntity
  8
Layer_1
 62
7
100
AcDbSpline
 70
8
 71
3
 72
8
 73
4
 74
0
 40
0
 40
0
 40
0
 40
0
 40
1
 40
1
 40
1
 40
1
 10
2.904770
 20
5.375678
 30
0.0
 10
2.968272
 20
5.501345
 30
0.0
 10
2.999932
 20
5.664203
 30
0.0
 10
2.999932
 20
5.864068
 30
0.0
  0
SPLINE
  5
15e
100
AcDbEntity
  8
Layer_1
 62
7
100
AcDbSpline
 70
8
 71
3
 72
8
 73
4
 74
0
 40
0
 40
0
 40
0
 40
0
 40
1
 40
1
 40
1
 40
1
 10
2.999932
 20
5.864068
 30
0.0
 10
2.999932
 20
6.057248
 30
0.0
 10
2.966555
 20
6.218252
 30
0.0
 10
2.899711
 20
6.347262
 30
0.0
  0
SPLINE
  5
15f
100
AcDbEntity
  8
Layer_1
 62
7
100
AcDbSpline
 70
8
 71
3
 72
8
 73
4
 74
0
 40
0
 40
0
 40
0
 40
0
 40
1
 40
1
 40
1
 40
1
 10
2.899711
 20
6.347262
 30
0.0
 10
2.832867
 20
6.476940
 30
0.0
 10
2.753945
 20
6.541825
 30
0.0
 10
2.663036
 20
6.541825
 30
0.0
  0
LWPOLYLINE
  5
160
100
AcDbEntity
  8
Layer_1
 62
7
100
AcDbPolyline
 90
5
 70
1
 10
3.129276
 20
6.728321
 30
0.0
 10
3.129276
 20
4.999678
 30
0.0
 10
3.285692
 20
4.999678
 30
0.0
 10
3.285692
 20
6.728321
 30
0.0
 10
3.129276
 20
6.728321
 30
0.0
  0
LWPOLYLINE
  5
161
100
AcDbEntity
  8
Layer_1
 62
7
100
AcDbPolyline
 90
1
 70
1
 10
2.663036
 20
6.541825
 30
0.0
  0
LWPOLYLINE
  5
162
100
AcDbEntity
  8
Layer_1
 62
7
100
AcDbPolyline
 90
9
 70
1
 10
3.408063
 20
6.527742
 30
0.0
 10
3.408063
 20
5.200257
 30
0.0
 10
4.114943
 20
5.200257
 30
0.0
 10
4.114943
 20
5.356673
 30
0.0
 10
4.042751
 20
5.356673
 30
0.0
 10
4.042751
 20
6.371326
 30
0.0
 10
4.112892
 20
6.371326
 30
0.0
 10
4.112892
 20
6.527742
 30
0.0
 10
3.408063
 20
6.527742
 30
0.0
  0
SPLINE
  5
163
100
AcDbEntity
  8
Layer_1
 62
7
100
AcDbSpline
 70
8
 71
3
 72
8
 73
4
 74
0
 40
0
 40
0
 40
0
 40
0
 40
1
 40
1
 40
1
 40
1
 10
2.663036
 20
6.350270
 30
0.0
 10
2.713169
 20
6.350270
 30
0.0
 10
2.755996
 20
6.304147
 30
0.0
 10
2.791423
 20
6.211902
 30
0.0
  0
SPLINE
  5
164
100
AcDbEntity
  8
Layer_1
 62
7
100
AcDbSpline
 70
8
 71
3
 72
8
 73
4
 74
0
 40
0
 40
0
 40
0
 40
0
 40
1
 40
1
 40
1
 40
1
 10
2.791423
 20
6.211902
 30
0.0
 10
2.826182
 20
6.120325
 30
0.0
 10
2.843516
 20
6.005018
 30
0.0
 10
2.843516
 20
5.865982
 30
0.0
  0
SPLINE
  5
165
100
AcDbEntity
  8
Layer_1
 62
7
100
AcDbSpline
 70
8
 71
3
 72
8
 73
4
 74
0
 40
0
 40
0
 40
0
 40
0
 40
1
 40
1
 40
1
 40
1
 10
2.843516
 20
5.865982
 30
0.0
 10
2.843516
 20
5.726946
 30
0.0
 10
2.826182
 20
5.611350
 30
0.0
 10
2.791423
 20
5.519105
 30
0.0
  0
SPLINE
  5
166
100
AcDbEntity
  8
Layer_1
 62
7
100
AcDbSpline
 70
8
 71
3
 72
8
 73
4
 74
0
 40
0
 40
0
 40
0
 40
0
 40
1
 40
1
 40
1
 40
1
 10
2.791423
 20
5.519105
 30
0.0
 10
2.755996
 20
5.427528
 30
0.0
 10
2.713169
 20
5.381694
 30
0.0
 10
2.663036
 20
5.381694
 30
0.0
  0
SPLINE
  5
167
100
AcDbEntity
  8
Layer_1
 62
7
100
AcDbSpline
 70
8
 71
3
 72
8
 73
4
 74
0
 40
0
 40
0
 40
0
 40
0
 40
1
 40
1
 40
1
 40
1
 10
2.663036
 20
5.381694
 30
0.0
 10
2.614240
 20
5.381694
 30
0.0
 10
2.572553
 20
5.427817
 30
0.0
 10
2.537794
 20
5.520062
 30
0.0
  0
SPLINE
  5
168
100
AcDbEntity
  8
Layer_1
 62
7
100
AcDbSpline
 70
8
 71
3
 72
8
 73
4
 74
0
 40
0
 40
0
 40
0
 40
0
 40
1
 40
1
 40
1
 40
1
 10
2.537794
 20
5.520062
 30
0.0
 10
2.502367
 20
5.612307
 30
0.0
 10
2.484607
 20
5.727614
 30
0.0
 10
2.484607
 20
5.865982
 30
0.0
  0
SPLINE
  5
169
100
AcDbEntity
  8
Layer_1
 62
7
100
AcDbSpline
 70
8
 71
3
 72
8
 73
4
 74
0
 40
0
 40
0
 40
0
 40
0
 40
1
 40
1
 40
1
 40
1
 10
2.484607
 20
5.865982
 30
0.0
 10
2.484607
 20
6.005018
 30
0.0
 10
2.502367
 20
6.120325
 30
0.0
 10
2.537794
 20
6.211902
 30
0.0
  0
SPLINE
  5
16a
100
AcDbEntity
  8
Layer_1
 62
7
100
AcDbSpline
 70
8
 71
3
 72
8
 73
4
 74
0
 40
0
 40
0
 40
0
 40
0
 40
1
 40
1
 40
1
 40
1
 10
2.537794
 20
6.211902
 30
0.0
 10
2.572553
 20
6.304147
 30
0.0
 10
2.614240
 20
6.350270
 30
0.0
 10
2.663036
 20
6.350270
 30
0.0
  0
LWPOLYLINE
  5
16b
100
AcDbEntity
  8
Layer_1
 62
7
100
AcDbPolyline
 90
5
 70
1
 10
3.568444
 20
6.371326
 30
0.0
 10
3.885378
 20
6.371326
 30
0.0
 10
3.885378
 20
5.356673
 30
0.0
 10
3.568444
 20
5.356673
 30
0.0
 10
3.568444
 20
6.371326
 30
0.0
  0
LWPOLYLINE
  5
16c
100
AcDbEntity
  8
Layer_1
 62
7
100
AcDbPolyline
 90
1
 70
1
 10
2.663036
 20
6.350270
 30
0.0
  0
SPLINE
  5
16d
100
AcDbEntity
  8
Layer_1
 62
7
100
AcDbSpline
 70
8
 71
3
 72
8
 73
4
 74
0
 40
0
 40
0
 40
0
 40
0
 40
1
 40
1
 40
1
 40
1
 10
3.293759
 20
4.590590
 30
0.0
 10
3.201514
 20
4.303828
 30
0.0
 10
3.061140
 20
4.099284
 30
0.0
 10
2.872639
 20
3.976959
 30
0.0
  0
LWPOLYLINE
  5
16e
100
AcDbEntity
  8
Layer_1
 62
7
100
AcDbPolyline
 90
9
 70
1
 10
3.831234
 20
4.719935
 30
0.0
 10
3.831234
 20
3.886718
 30
0.0
 10
3.387964
 20
3.886718
 30
0.0
 10
3.387964
 20
3.730303
 30
0.0
 10
3.831234
 20
3.730303
 30
0.0
 10
3.831234
 20
2.911170
 30
0.0
 10
3.993666
 20
2.911170
 30
0.0
 10
3.993666
 20
4.719935
 30
0.0
 10
3.831234
 20
4.719935
 30
0.0
  0
SPLINE
  5
16f
100
AcDbEntity
  8
Layer_1
 62
7
100
AcDbSpline
 70
8
 71
3
 72
8
 73
4
 74
0
 40
0
 40
0
 40
0
 40
0
 40
1
 40
1
 40
1
 40
1
 10
2.872639
 20
3.636097
 30
0.0
 10
3.097236
 20
3.514441
 30
0.0
 10
3.237610
 20
3.304170
 30
0.0
 10
3.293759
 20
3.005375
 30
0.0
  0
SPLINE
  5
170
100
AcDbEntity
  8
Layer_1
 62
7
100
AcDbSpline
 70
8
 71
3
 72
8
 73
4
 74
0
 40
0
 40
0
 40
0
 40
0
 40
1
 40
1
 40
1
 40
1
 10
3.293759
 20
3.005375
 30
0.0
 10
3.319828
 20
3.041471
 30
0.0
 10
3.370964
 20
3.082580
 30
0.0
 10
3.447167
 20
3.128703
 30
0.0
  0
SPLINE
  5
171
100
AcDbEntity
  8
Layer_1
 62
7
100
AcDbSpline
 70
8
 71
3
 72
8
 73
4
 74
0
 40
0
 40
0
 40
0
 40
0
 40
1
 40
1
 40
1
 40
1
 10
3.447167
 20
3.128703
 30
0.0
 10
3.364948
 20
3.412792
 30
0.0
 10
3.196789
 20
3.640109
 30
0.0
 10
2.942780
 20
3.810561
 30
0.0
  0
SPLINE
  5
172
100
AcDbEntity
  8
Layer_1
 62
7
100
AcDbSpline
 70
8
 71
3
 72
8
 73
4
 74
0
 40
0
 40
0
 40
0
 40
0
 40
1
 40
1
 40
1
 40
1
 10
2.942780
 20
3.810561
 30
0.0
 10
3.049731
 20
3.878074
 30
0.0
 10
3.150712
 20
3.971322
 30
0.0
 10
3.245631
 20
4.090306
 30
0.0
  0
SPLINE
  5
173
100
AcDbEntity
  8
Layer_1
 62
7
100
AcDbSpline
 70
8
 71
3
 72
8
 73
4
 74
0
 40
0
 40
0
 40
0
 40
0
 40
1
 40
1
 40
1
 40
1
 10
3.245631
 20
4.090306
 30
0.0
 10
3.339881
 20
4.209957
 30
0.0
 10
3.405055
 20
4.327557
 30
0.0
 10
3.441151
 20
4.443198
 30
0.0
  0
SPLINE
  5
174
100
AcDbEntity
  8
Layer_1
 62
7
100
AcDbSpline
 70
8
 71
3
 72
8
 73
4
 74
0
 40
0
 40
0
 40
0
 40
0
 40
1
 40
1
 40
1
 40
1
 10
3.441151
 20
4.443198
 30
0.0
 10
3.387675
 20
4.473947
 30
0.0
 10
3.338545
 20
4.523077
 30
0.0
 10
3.293759
 20
4.590590
 30
0.0
  0
LWPOLYLINE
  5
175
100
AcDbEntity
  8
Layer_1
 62
7
100
AcDbPolyline
 90
6
 70
0
 10
2.872639
 20
3.976959
 30
0.0
 10
2.872639
 20
4.547522
 30
0.0
 10
2.710207
 20
4.547522
 30
0.0
 10
2.710207
 20
3.079618
 30
0.0
 10
2.872639
 20
3.079618
 30
0.0
 10
2.872639
 20
3.636097
 30
0.0
  0
LWPOLYLINE
  5
176
100
AcDbEntity
  8
Layer_1
 62
7
100
AcDbPolyline
 90
1
 70
1
 10
3.293759
 20
4.590590
 30
0.0
  0
SPLINE
  5
177
100
AcDbEntity
  8
Layer_1
 62
7
100
AcDbSpline
 70
8
 71
3
 72
8
 73
4
 74
0
 40
0
 40
0
 40
0
 40
0
 40
1
 40
1
 40
1
 40
1
 10
31.401623
 20
17.453115
 30
0.0
 10
30.916135
 20
16.777167
 30
0.0
 10
30.134833
 20
16.376383
 30
0.0
 10
29.302604
 20
16.376383
 30
0.0
  0
SPLINE
  5
178
100
AcDbEntity
  8
Layer_1
 62
7
100
AcDbSpline
 70
8
 71
3
 72
8
 73
4
 74
0
 40
0
 40
0
 40
0
 40
0
 40
1
 40
1
 40
1
 40
1
 10
29.302604
 20
16.376383
 30
0.0
 10
28.617200
 20
16.376383
 30
0.0
 10
27.959868
 20
16.648659
 30
0.0
 10
27.475215
 20
17.133313
 30
0.0
  0
SPLINE
  5
179
100
AcDbEntity
  8
Layer_1
 62
7
100
AcDbSpline
 70
8
 71
3
 72
8
 73
4
 74
0
 40
0
 40
0
 40
0
 40
0
 40
1
 40
1
 40
1
 40
1
 10
27.475215
 20
17.133313
 30
0.0
 10
26.990561
 20
17.617967
 30
0.0
 10
26.718286
 20
18.275299
 30
0.0
 10
26.718286
 20
18.960703
 30
0.0
  0
SPLINE
  5
17a
100
AcDbEntity
  8
Layer_1
 62
7
100
AcDbSpline
 70
8
 71
3
 72
8
 73
4
 74
0
 40
0
 40
0
 40
0
 40
0
 40
1
 40
1
 40
1
 40
1
 10
26.718286
 20
18.960703
 30
0.0
 10
26.718288
 20
20.387981
 30
0.0
 10
27.875326
 20
21.545018
 30
0.0
 10
29.302604
 20
21.545018
 30
0.0
  0
SPLINE
  5
17b
100
AcDbEntity
  8
Layer_1
 62
7
100
AcDbSpline
 70
8
 71
3
 72
8
 73
4
 74
0
 40
0
 40
0
 40
0
 40
0
 40
1
 40
1
 40
1
 40
1
 10
29.302604
 20
21.545018
 30
0.0
 10
30.107712
 20
21.545018
 30
0.0
 10
30.866827
 20
21.169796
 30
0.0
 10
31.355771
 20
20.530161
 30
0.0
  0
LWPOLYLINE
  5
17c
100
AcDbEntity
  8
Layer_1
 62
7
100
AcDbPolyline
 90
5
 70
1
 10
2.392316
 20
4.141441
 30
0.0
 10
2.392316
 20
3.487748
 30
0.0
 10
2.551740
 20
3.487748
 30
0.0
 10
2.551740
 20
4.141441
 30
0.0
 10
2.392316
 20
4.141441
 30
0.0
  0
SPLINE
  5
17d
100
AcDbEntity
  8
Layer_1
 62
7
100
AcDbSpline
 70
8
 71
3
 72
8
 73
4
 74
0
 40
0
 40
0
 40
0
 40
0
 40
1
 40
1
 40
1
 40
1
 10
31.324291
 20
17.451014
 30
0.0
 10
31.549824
 20
17.227592
 30
0.0
 10
32.058068
 20
16.691068
 30
0.0
 10
32.058068
 20
16.691068
 30
0.0
  0
LWPOLYLINE
  5
17e
100
AcDbEntity
  8
Layer_1
 62
7
100
AcDbPolyline
 90
2
 70
0
 10
25.598437
 20
19.013728
 30
0.0
 10
26.656771
 20
19.013728
 30
0.0
  0
SPLINE
  5
17f
100
AcDbEntity
  8
Layer_1
 62
7
100
AcDbSpline
 70
8
 71
3
 72
8
 73
4
 74
0
 40
0
 40
0
 40
0
 40
0
 40
1
 40
1
 40
1
 40
1
 10
32.625577
 20
16.047648
 30
0.0
 10
32.436468
 20
16.047648
 30
0.0
 10
32.295198
 20
16.017553
 30
0.0
 10
32.201860
 20
15.957271
 30
0.0
  0
SPLINE
  5
180
100
AcDbEntity
  8
Layer_1
 62
7
100
AcDbSpline
 70
8
 71
3
 72
8
 73
4
 74
0
 40
0
 40
0
 40
0
 40
0
 40
1
 40
1
 40
1
 40
1
 10
32.201860
 20
15.957271
 30
0.0
 10
32.108034
 20
15.897476
 30
0.0
 10
32.061167
 20
15.802345
 30
0.0
 10
32.061167
 20
15.672059
 30
0.0
  0
SPLINE
  5
181
100
AcDbEntity
  8
Layer_1
 62
7
100
AcDbSpline
 70
8
 71
3
 72
8
 73
4
 74
0
 40
0
 40
0
 40
0
 40
0
 40
1
 40
1
 40
1
 40
1
 10
32.061167
 20
15.672059
 30
0.0
 10
32.061167
 20
15.543231
 30
0.0
 10
32.107305
 20
15.448434
 30
0.0
 10
32.199672
 20
15.387666
 30
0.0
  0
SPLINE
  5
182
100
AcDbEntity
  8
Layer_1
 62
7
100
AcDbSpline
 70
8
 71
3
 72
8
 73
4
 74
0
 40
0
 40
0
 40
0
 40
0
 40
1
 40
1
 40
1
 40
1
 10
32.199672
 20
15.387666
 30
0.0
 10
32.291553
 20
15.326898
 30
0.0
 10
32.434083
 20
15.296605
 30
0.0
 10
32.627081
 20
15.296605
 30
0.0
  0
SPLINE
  5
183
100
AcDbEntity
  8
Layer_1
 62
7
100
AcDbSpline
 70
8
 71
3
 72
8
 73
4
 74
0
 40
0
 40
0
 40
0
 40
0
 40
1
 40
1
 40
1
 40
1
 10
32.627081
 20
15.296605
 30
0.0
 10
32.818621
 20
15.296605
 30
0.0
 10
32.960483
 20
15.326503
 30
0.0
 10
33.052850
 20
15.386298
 30
0.0
  0
SPLINE
  5
184
100
AcDbEntity
  8
Layer_1
 62
7
100
AcDbSpline
 70
8
 71
3
 72
8
 73
4
 74
0
 40
0
 40
0
 40
0
 40
0
 40
1
 40
1
 40
1
 40
1
 10
33.052850
 20
15.386298
 30
0.0
 10
33.145216
 20
15.446580
 30
0.0
 10
33.191491
 20
15.541772
 30
0.0
 10
33.191491
 20
15.672059
 30
0.0
  0
SPLINE
  5
185
100
AcDbEntity
  8
Layer_1
 62
7
100
AcDbSpline
 70
8
 71
3
 72
8
 73
4
 74
0
 40
0
 40
0
 40
0
 40
0
 40
1
 40
1
 40
1
 40
1
 10
33.191491
 20
15.672059
 30
0.0
 10
33.191491
 20
15.800400
 30
0.0
 10
33.145946
 20
15.895000
 30
0.0
 10
33.055038
 20
15.955768
 30
0.0
  0
SPLINE
  5
186
100
AcDbEntity
  8
Layer_1
 62
7
100
AcDbSpline
 70
8
 71
3
 72
8
 73
4
 74
0
 40
0
 40
0
 40
0
 40
0
 40
1
 40
1
 40
1
 40
1
 10
33.055038
 20
15.955768
 30
0.0
 10
32.963643
 20
16.017021
 30
0.0
 10
32.820519
 20
16.047648
 30
0.0
 10
32.625577
 20
16.047648
 30
0.0
  0
LWPOLYLINE
  5
187
100
AcDbEntity
  8
Layer_1
 62
7
100
AcDbPolyline
 90
2
 70
0
 10
31.344960
 20
20.450508
 30
0.0
 10
32.115932
 20
21.241168
 30
0.0
  0
SPLINE
  5
188
100
AcDbEntity
  8
Layer_1
 62
7
100
AcDbSpline
 70
8
 71
3
 72
8
 73
4
 74
0
 40
0
 40
0
 40
0
 40
0
 40
1
 40
1
 40
1
 40
1
 10
32.625577
 20
15.899573
 30
0.0
 10
32.700443
 20
15.899573
 30
0.0
 10
32.764613
 20
15.896459
 30
0.0
 10
32.818089
 20
15.890139
 30
0.0
  0
SPLINE
  5
189
100
AcDbEntity
  8
Layer_1
 62
7
100
AcDbSpline
 70
8
 71
3
 72
8
 73
4
 74
0
 40
0
 40
0
 40
0
 40
0
 40
1
 40
1
 40
1
 40
1
 10
32.818089
 20
15.890139
 30
0.0
 10
32.871079
 20
15.884305
 30
0.0
 10
32.917216
 20
15.872835
 30
0.0
 10
32.956594
 20
15.855820
 30
0.0
  0
SPLINE
  5
18a
100
AcDbEntity
  8
Layer_1
 62
7
100
AcDbSpline
 70
8
 71
3
 72
8
 73
4
 74
0
 40
0
 40
0
 40
0
 40
0
 40
1
 40
1
 40
1
 40
1
 10
32.956594
 20
15.855820
 30
0.0
 10
32.994999
 20
15.839291
 30
0.0
 10
33.023772
 20
15.815956
 30
0.0
 10
33.042732
 20
15.785816
 30
0.0
  0
SPLINE
  5
18b
100
AcDbEntity
  8
Layer_1
 62
7
100
AcDbSpline
 70
8
 71
3
 72
8
 73
4
 74
0
 40
0
 40
0
 40
0
 40
0
 40
1
 40
1
 40
1
 40
1
 10
33.042732
 20
15.785816
 30
0.0
 10
33.061691
 20
15.755675
 30
0.0
 10
33.071171
 20
15.717756
 30
0.0
 10
33.071171
 20
15.672059
 30
0.0
  0
SPLINE
  5
18c
100
AcDbEntity
  8
Layer_1
 62
7
100
AcDbSpline
 70
8
 71
3
 72
8
 73
4
 74
0
 40
0
 40
0
 40
0
 40
0
 40
1
 40
1
 40
1
 40
1
 10
33.071171
 20
15.672059
 30
0.0
 10
33.071171
 20
15.623444
 30
0.0
 10
33.061159
 20
15.584401
 30
0.0
 10
33.041228
 20
15.554746
 30
0.0
  0
SPLINE
  5
18d
100
AcDbEntity
  8
Layer_1
 62
7
100
AcDbSpline
 70
8
 71
3
 72
8
 73
4
 74
0
 40
0
 40
0
 40
0
 40
0
 40
1
 40
1
 40
1
 40
1
 10
33.041228
 20
15.554746
 30
0.0
 10
33.021296
 20
15.525578
 30
0.0
 10
32.992325
 20
15.502973
 30
0.0
 10
32.954406
 20
15.486930
 30
0.0
  0
SPLINE
  5
18e
100
AcDbEntity
  8
Layer_1
 62
7
100
AcDbSpline
 70
8
 71
3
 72
8
 73
4
 74
0
 40
0
 40
0
 40
0
 40
0
 40
1
 40
1
 40
1
 40
1
 10
32.954406
 20
15.486930
 30
0.0
 10
32.914056
 20
15.469429
 30
0.0
 10
32.868450
 20
15.457959
 30
0.0
 10
32.817406
 20
15.452611
 30
0.0
  0
SPLINE
  5
18f
100
AcDbEntity
  8
Layer_1
 62
7
100
AcDbSpline
 70
8
 71
3
 72
8
 73
4
 74
0
 40
0
 40
0
 40
0
 40
0
 40
1
 40
1
 40
1
 40
1
 10
32.817406
 20
15.452611
 30
0.0
 10
32.766361
 20
15.447264
 30
0.0
 10
32.702919
 20
15.444545
 30
0.0
 10
32.627081
 20
15.444545
 30
0.0
  0
SPLINE
  5
190
100
AcDbEntity
  8
Layer_1
 62
7
100
AcDbSpline
 70
8
 71
3
 72
8
 73
4
 74
0
 40
0
 40
0
 40
0
 40
0
 40
1
 40
1
 40
1
 40
1
 10
32.627081
 20
15.444545
 30
0.0
 10
32.558049
 20
15.444545
 30
0.0
 10
32.494607
 20
15.447461
 30
0.0
 10
32.436757
 20
15.453295
 30
0.0
  0
SPLINE
  5
191
100
AcDbEntity
  8
Layer_1
 62
7
100
AcDbSpline
 70
8
 71
3
 72
8
 73
4
 74
0
 40
0
 40
0
 40
0
 40
0
 40
1
 40
1
 40
1
 40
1
 10
32.436757
 20
15.453295
 30
0.0
 10
32.378906
 20
15.459615
 30
0.0
 10
32.331902
 20
15.471085
 30
0.0
 10
32.295928
 20
15.487614
 30
0.0
  0
SPLINE
  5
192
100
AcDbEntity
  8
Layer_1
 62
7
100
AcDbSpline
 70
8
 71
3
 72
8
 73
4
 74
0
 40
0
 40
0
 40
0
 40
0
 40
1
 40
1
 40
1
 40
1
 10
32.295928
 20
15.487614
 30
0.0
 10
32.257523
 20
15.505115
 30
0.0
 10
32.228885
 20
15.528647
 30
0.0
 10
32.209926
 20
15.558302
 30
0.0
  0
SPLINE
  5
193
100
AcDbEntity
  8
Layer_1
 62
7
100
AcDbSpline
 70
8
 71
3
 72
8
 73
4
 74
0
 40
0
 40
0
 40
0
 40
0
 40
1
 40
1
 40
1
 40
1
 10
32.209926
 20
15.558302
 30
0.0
 10
32.190967
 20
15.588442
 30
0.0
 10
32.181487
 20
15.626361
 30
0.0
 10
32.181487
 20
15.672059
 30
0.0
  0
SPLINE
  5
194
100
AcDbEntity
  8
Layer_1
 62
7
100
AcDbSpline
 70
8
 71
3
 72
8
 73
4
 74
0
 40
0
 40
0
 40
0
 40
0
 40
1
 40
1
 40
1
 40
1
 10
32.181487
 20
15.672059
 30
0.0
 10
32.181487
 20
15.718242
 30
0.0
 10
32.190967
 20
15.755963
 30
0.0
 10
32.209926
 20
15.785132
 30
0.0
  0
SPLINE
  5
195
100
AcDbEntity
  8
Layer_1
 62
7
100
AcDbSpline
 70
8
 71
3
 72
8
 73
4
 74
0
 40
0
 40
0
 40
0
 40
0
 40
1
 40
1
 40
1
 40
1
 10
32.209926
 20
15.785132
 30
0.0
 10
32.228885
 20
15.814787
 30
0.0
 10
32.257127
 20
15.838121
 30
0.0
 10
32.294561
 20
15.855136
 30
0.0
  0
SPLINE
  5
196
100
AcDbEntity
  8
Layer_1
 62
7
100
AcDbSpline
 70
8
 71
3
 72
8
 73
4
 74
0
 40
0
 40
0
 40
0
 40
0
 40
1
 40
1
 40
1
 40
1
 10
32.294561
 20
15.855136
 30
0.0
 10
32.332479
 20
15.872637
 30
0.0
 10
32.378617
 20
15.884305
 30
0.0
 10
32.433065
 20
15.890139
 30
0.0
  0
SPLINE
  5
197
100
AcDbEntity
  8
Layer_1
 62
7
100
AcDbSpline
 70
8
 71
3
 72
8
 73
4
 74
0
 40
0
 40
0
 40
0
 40
0
 40
1
 40
1
 40
1
 40
1
 10
32.433065
 20
15.890139
 30
0.0
 10
32.487513
 20
15.896459
 30
0.0
 10
32.551684
 20
15.899573
 30
0.0
 10
32.625577
 20
15.899573
 30
0.0
  0
LWPOLYLINE
  5
198
100
AcDbEntity
  8
Layer_1
 62
7
100
AcDbPolyline
 90
1
 70
1
 10
32.625577
 20
16.047648
 30
0.0
  0
LWPOLYLINE
  5
199
100
AcDbEntity
  8
Layer_1
 62
7
100
AcDbPolyline
 90
1
 70
1
 10
32.625577
 20
15.899573
 30
0.0
  0
LWPOLYLINE
  5
19a
100
AcDbEntity
  8
Layer_1
 62
7
100
AcDbPolyline
 90
14
 70
1
 10
24.306135
 20
19.444226
 30
0.0
 10
24.306135
 20
19.243647
 30
0.0
 10
24.910607
 20
18.963630
 30
0.0
 10
24.306135
 20
18.674178
 30
0.0
 10
24.306135
 20
18.477291
 30
0.0
 10
25.391886
 20
18.477291
 30
0.0
 10
25.391886
 20
18.612104
 30
0.0
 10
24.456399
 20
18.612104
 30
0.0
 10
25.093001
 20
18.911810
 30
0.0
 10
25.093001
 20
18.997948
 30
0.0
 10
24.456399
 20
19.299842
 30
0.0
 10
25.391886
 20
19.299842
 30
0.0
 10
25.391886
 20
19.444226
 30
0.0
 10
24.306135
 20
19.444226
 30
0.0
  0
LWPOLYLINE
  5
19b
100
AcDbEntity
  8
Layer_1
 62
7
100
AcDbPolyline
 90
13
 70
1
 10
31.904888
 20
22.436228
 30
0.0
 10
31.904888
 20
22.291844
 30
0.0
 10
32.330793
 20
22.291844
 30
0.0
 10
32.330793
 20
21.749994
 30
0.0
 10
31.904888
 20
21.749994
 30
0.0
 10
31.904888
 20
21.605610
 30
0.0
 10
32.990776
 20
21.605610
 30
0.0
 10
32.990776
 20
21.749994
 30
0.0
 10
32.459180
 20
21.749994
 30
0.0
 10
32.459180
 20
22.291844
 30
0.0
 10
32.990776
 20
22.291844
 30
0.0
 10
32.990776
 20
22.436228
 30
0.0
 10
31.904888
 20
22.436228
 30
0.0
  0
LWPOLYLINE
  5
19c
100
AcDbEntity
  8
Layer_1
 62
7
100
AcDbPolyline
 90
4
 70
1
 10
26.458333
 20
9.260417
 30
0.0
 10
30.427083
 20
9.260417
 30
0.0
 10
30.427083
 20
5.291667
 30
0.0
 10
26.458333
 20
5.291667
 30
0.0
  0
SPLINE
  5
19d
100
AcDbEntity
  8
Layer_1
 62
7
100
AcDbSpline
 70
8
 71
3
 72
8
 73
4
 74
0
 40
0
 40
0
 40
0
 40
0
 40
1
 40
1
 40
1
 40
1
 10
32.141699
 20
8.645510
 30
0.0
 10
32.023020
 20
8.645510
 30
0.0
 10
31.920475
 20
8.622266
 30
0.0
 10
31.834063
 20
8.575779
 30
0.0
  0
SPLINE
  5
19e
100
AcDbEntity
  8
Layer_1
 62
7
100
AcDbSpline
 70
8
 71
3
 72
8
 73
4
 74
0
 40
0
 40
0
 40
0
 40
0
 40
1
 40
1
 40
1
 40
1
 10
31.834063
 20
8.575779
 30
0.0
 10
31.747652
 20
8.529291
 30
0.0
 10
31.678467
 20
8.464483
 30
0.0
 10
31.626511
 20
8.381353
 30
0.0
  0
SPLINE
  5
19f
100
AcDbEntity
  8
Layer_1
 62
7
100
AcDbSpline
 70
8
 71
3
 72
8
 73
4
 74
0
 40
0
 40
0
 40
0
 40
0
 40
1
 40
1
 40
1
 40
1
 10
31.626511
 20
8.381353
 30
0.0
 10
31.596431
 20
8.332678
 30
0.0
 10
31.572914
 20
8.273065
 30
0.0
 10
31.555960
 20
8.202513
 30
0.0
  0
SPLINE
  5
1a0
100
AcDbEntity
  8
Layer_1
 62
7
100
AcDbSpline
 70
8
 71
3
 72
8
 73
4
 74
0
 40
0
 40
0
 40
0
 40
0
 40
1
 40
1
 40
1
 40
1
 10
31.555960
 20
8.202513
 30
0.0
 10
31.538459
 20
8.132509
 30
0.0
 10
31.529708
 20
8.037894
 30
0.0
 10
31.529708
 20
7.918668
 30
0.0
  0
LWPOLYLINE
  5
1a1
100
AcDbEntity
  8
Layer_1
 62
7
100
AcDbPolyline
 90
13
 70
1
 10
31.529708
 20
9.714443
 30
0.0
 10
31.529708
 20
8.909667
 30
0.0
 10
32.751229
 20
8.909667
 30
0.0
 10
32.751229
 20
9.714443
 30
0.0
 10
32.606845
 20
9.714443
 30
0.0
 10
32.606845
 20
9.072099
 30
0.0
 10
32.153184
 20
9.072099
 30
0.0
 10
32.153184
 20
9.714443
 30
0.0
 10
32.008800
 20
9.714443
 30
0.0
 10
32.008800
 20
9.072099
 30
0.0
 10
31.674092
 20
9.072099
 30
0.0
 10
31.674092
 20
9.714443
 30
0.0
 10
31.529708
 20
9.714443
 30
0.0
  0
SPLINE
  5
1a2
100
AcDbEntity
  8
Layer_1
 62
7
100
AcDbSpline
 70
8
 71
3
 72
8
 73
4
 74
0
 40
0
 40
0
 40
0
 40
0
 40
1
 40
1
 40
1
 40
1
 10
32.751229
 20
7.921949
 30
0.0
 10
32.751229
 20
8.034065
 30
0.0
 10
32.743573
 20
8.124306
 30
0.0
 10
32.728259
 20
8.192669
 30
0.0
  0
SPLINE
  5
1a3
100
AcDbEntity
  8
Layer_1
 62
7
100
AcDbSpline
 70
8
 71
3
 72
8
 73
4
 74
0
 40
0
 40
0
 40
0
 40
0
 40
1
 40
1
 40
1
 40
1
 10
32.728259
 20
8.192669
 30
0.0
 10
32.712946
 20
8.261579
 30
0.0
 10
32.688061
 20
8.323927
 30
0.0
 10
32.653606
 20
8.379712
 30
0.0
  0
SPLINE
  5
1a4
100
AcDbEntity
  8
Layer_1
 62
7
100
AcDbSpline
 70
8
 71
3
 72
8
 73
4
 74
0
 40
0
 40
0
 40
0
 40
0
 40
1
 40
1
 40
1
 40
1
 10
32.653606
 20
8.379712
 30
0.0
 10
32.603837
 20
8.460108
 30
0.0
 10
32.533833
 20
8.524369
 30
0.0
 10
32.443593
 20
8.572497
 30
0.0
  0
SPLINE
  5
1a5
100
AcDbEntity
  8
Layer_1
 62
7
100
AcDbSpline
 70
8
 71
3
 72
8
 73
4
 74
0
 40
0
 40
0
 40
0
 40
0
 40
1
 40
1
 40
1
 40
1
 10
32.443593
 20
8.572497
 30
0.0
 10
32.353353
 20
8.621172
 30
0.0
 10
32.252722
 20
8.645510
 30
0.0
 10
32.141699
 20
8.645510
 30
0.0
  0
LWPOLYLINE
  5
1a6
100
AcDbEntity
  8
Layer_1
 62
7
100
AcDbPolyline
 90
4
 70
0
 10
31.529708
 20
7.918668
 30
0.0
 10
31.529708
 20
7.613493
 30
0.0
 10
32.751229
 20
7.613493
 30
0.0
 10
32.751229
 20
7.921949
 30
0.0
  0
SPLINE
  5
1a7
100
AcDbEntity
  8
Layer_1
 62
7
100
AcDbSpline
 70
8
 71
3
 72
8
 73
4
 74
0
 40
0
 40
0
 40
0
 40
0
 40
1
 40
1
 40
1
 40
1
 10
32.139239
 20
8.475695
 30
0.0
 10
32.234400
 20
8.475695
 30
0.0
 10
32.313702
 20
8.460381
 30
0.0
 10
32.377143
 20
8.429754
 30
0.0
  0
SPLINE
  5
1a8
100
AcDbEntity
  8
Layer_1
 62
7
100
AcDbSpline
 70
8
 71
3
 72
8
 73
4
 74
0
 40
0
 40
0
 40
0
 40
0
 40
1
 40
1
 40
1
 40
1
 10
32.377143
 20
8.429754
 30
0.0
 10
32.440585
 20
8.399674
 30
0.0
 10
32.491721
 20
8.354281
 30
0.0
 10
32.530552
 20
8.293574
 30
0.0
  0
SPLINE
  5
1a9
100
AcDbEntity
  8
Layer_1
 62
7
100
AcDbSpline
 70
8
 71
3
 72
8
 73
4
 74
0
 40
0
 40
0
 40
0
 40
0
 40
1
 40
1
 40
1
 40
1
 10
32.530552
 20
8.293574
 30
0.0
 10
32.561725
 20
8.244899
 30
0.0
 10
32.583055
 20
8.191302
 30
0.0
 10
32.594540
 20
8.132783
 30
0.0
  0
SPLINE
  5
1aa
100
AcDbEntity
  8
Layer_1
 62
7
100
AcDbSpline
 70
8
 71
3
 72
8
 73
4
 74
0
 40
0
 40
0
 40
0
 40
0
 40
1
 40
1
 40
1
 40
1
 10
32.594540
 20
8.132783
 30
0.0
 10
32.606025
 20
8.074810
 30
0.0
 10
32.611768
 20
8.006720
 30
0.0
 10
32.611768
 20
7.928512
 30
0.0
  0
LWPOLYLINE
  5
1ab
100
AcDbEntity
  8
Layer_1
 62
7
100
AcDbPolyline
 90
1
 70
1
 10
32.141699
 20
8.645510
 30
0.0
  0
SPLINE
  5
1ac
100
AcDbEntity
  8
Layer_1
 62
7
100
AcDbSpline
 70
8
 71
3
 72
8
 73
4
 74
0
 40
0
 40
0
 40
0
 40
0
 40
1
 40
1
 40
1
 40
1
 10
31.669170
 20
7.928512
 30
0.0
 10
31.669170
 20
8.003986
 30
0.0
 10
31.674639
 20
8.068794
 30
0.0
 10
31.685578
 20
8.122938
 30
0.0
  0
SPLINE
  5
1ad
100
AcDbEntity
  8
Layer_1
 62
7
100
AcDbSpline
 70
8
 71
3
 72
8
 73
4
 74
0
 40
0
 40
0
 40
0
 40
0
 40
1
 40
1
 40
1
 40
1
 10
31.685578
 20
8.122938
 30
0.0
 10
31.695968
 20
8.177082
 30
0.0
 10
31.714837
 20
8.228218
 30
0.0
 10
31.742182
 20
8.276346
 30
0.0
  0
SPLINE
  5
1ae
100
AcDbEntity
  8
Layer_1
 62
7
100
AcDbSpline
 70
8
 71
3
 72
8
 73
4
 74
0
 40
0
 40
0
 40
0
 40
0
 40
1
 40
1
 40
1
 40
1
 10
31.742182
 20
8.276346
 30
0.0
 10
31.779919
 20
8.342522
 30
0.0
 10
31.831602
 20
8.392291
 30
0.0
 10
31.897231
 20
8.425652
 30
0.0
  0
SPLINE
  5
1af
100
AcDbEntity
  8
Layer_1
 62
7
100
AcDbSpline
 70
8
 71
3
 72
8
 73
4
 74
0
 40
0
 40
0
 40
0
 40
0
 40
1
 40
1
 40
1
 40
1
 10
31.897231
 20
8.425652
 30
0.0
 10
31.962860
 20
8.459014
 30
0.0
 10
32.043529
 20
8.475695
 30
0.0
 10
32.139239
 20
8.475695
 30
0.0
  0
LWPOLYLINE
  5
1b0
100
AcDbEntity
  8
Layer_1
 62
7
100
AcDbPolyline
 90
4
 70
0
 10
32.611768
 20
7.928512
 30
0.0
 10
32.611768
 20
7.775924
 30
0.0
 10
31.669170
 20
7.775924
 30
0.0
 10
31.669170
 20
7.928512
 30
0.0
  0
SPLINE
  5
1b1
100
AcDbEntity
  8
Layer_1
 62
7
100
AcDbSpline
 70
8
 71
3
 72
8
 73
4
 74
0
 40
0
 40
0
 40
0
 40
0
 40
1
 40
1
 40
1
 40
1
 10
32.140879
 20
7.355898
 30
0.0
 10
32.040248
 20
7.355898
 30
0.0
 10
31.950282
 20
7.342499
 30
0.0
 10
31.870979
 20
7.315700
 30
0.0
  0
SPLINE
  5
1b2
100
AcDbEntity
  8
Layer_1
 62
7
100
AcDbSpline
 70
8
 71
3
 72
8
 73
4
 74
0
 40
0
 40
0
 40
0
 40
0
 40
1
 40
1
 40
1
 40
1
 10
31.870979
 20
7.315700
 30
0.0
 10
31.791678
 20
7.289449
 30
0.0
 10
31.724681
 20
7.251439
 30
0.0
 10
31.669990
 20
7.201670
 30
0.0
  0
SPLINE
  5
1b3
100
AcDbEntity
  8
Layer_1
 62
7
100
AcDbSpline
 70
8
 71
3
 72
8
 73
4
 74
0
 40
0
 40
0
 40
0
 40
0
 40
1
 40
1
 40
1
 40
1
 10
31.669990
 20
7.201670
 30
0.0
 10
31.616940
 20
7.152996
 30
0.0
 10
31.576196
 20
7.093656
 30
0.0
 10
31.547757
 20
7.023651
 30
0.0
  0
SPLINE
  5
1b4
100
AcDbEntity
  8
Layer_1
 62
7
100
AcDbSpline
 70
8
 71
3
 72
8
 73
4
 74
0
 40
0
 40
0
 40
0
 40
0
 40
1
 40
1
 40
1
 40
1
 10
31.547757
 20
7.023651
 30
0.0
 10
31.518770
 20
6.954194
 30
0.0
 10
31.504277
 20
6.875713
 30
0.0
 10
31.504277
 20
6.788207
 30
0.0
  0
SPLINE
  5
1b5
100
AcDbEntity
  8
Layer_1
 62
7
100
AcDbSpline
 70
8
 71
3
 72
8
 73
4
 74
0
 40
0
 40
0
 40
0
 40
0
 40
1
 40
1
 40
1
 40
1
 10
31.504277
 20
6.788207
 30
0.0
 10
31.504277
 20
6.703983
 30
0.0
 10
31.518497
 20
6.626048
 30
0.0
 10
31.546936
 20
6.554403
 30
0.0
  0
SPLINE
  5
1b6
100
AcDbEntity
  8
Layer_1
 62
7
100
AcDbSpline
 70
8
 71
3
 72
8
 73
4
 74
0
 40
0
 40
0
 40
0
 40
0
 40
1
 40
1
 40
1
 40
1
 10
31.546936
 20
6.554403
 30
0.0
 10
31.575375
 20
6.483305
 30
0.0
 10
31.616394
 20
6.423693
 30
0.0
 10
31.669990
 20
6.375565
 30
0.0
  0
SPLINE
  5
1b7
100
AcDbEntity
  8
Layer_1
 62
7
100
AcDbSpline
 70
8
 71
3
 72
8
 73
4
 74
0
 40
0
 40
0
 40
0
 40
0
 40
1
 40
1
 40
1
 40
1
 10
31.669990
 20
6.375565
 30
0.0
 10
31.726322
 20
6.325249
 30
0.0
 10
31.794139
 20
6.286965
 30
0.0
 10
31.873441
 20
6.260713
 30
0.0
  0
SPLINE
  5
1b8
100
AcDbEntity
  8
Layer_1
 62
7
100
AcDbSpline
 70
8
 71
3
 72
8
 73
4
 74
0
 40
0
 40
0
 40
0
 40
0
 40
1
 40
1
 40
1
 40
1
 10
31.873441
 20
6.260713
 30
0.0
 10
31.952195
 20
6.234462
 30
0.0
 10
32.041342
 20
6.221336
 30
0.0
 10
32.140879
 20
6.221336
 30
0.0
  0
SPLINE
  5
1b9
100
AcDbEntity
  8
Layer_1
 62
7
100
AcDbSpline
 70
8
 71
3
 72
8
 73
4
 74
0
 40
0
 40
0
 40
0
 40
0
 40
1
 40
1
 40
1
 40
1
 10
32.140879
 20
6.221336
 30
0.0
 10
32.242058
 20
6.221336
 30
0.0
 10
32.332024
 20
6.234462
 30
0.0
 10
32.410778
 20
6.260713
 30
0.0
  0
SPLINE
  5
1ba
100
AcDbEntity
  8
Layer_1
 62
7
100
AcDbSpline
 70
8
 71
3
 72
8
 73
4
 74
0
 40
0
 40
0
 40
0
 40
0
 40
1
 40
1
 40
1
 40
1
 10
32.410778
 20
6.260713
 30
0.0
 10
32.489533
 20
6.287512
 30
0.0
 10
32.555983
 20
6.325522
 30
0.0
 10
32.610127
 20
6.374744
 30
0.0
  0
SPLINE
  5
1bb
100
AcDbEntity
  8
Layer_1
 62
7
100
AcDbSpline
 70
8
 71
3
 72
8
 73
4
 74
0
 40
0
 40
0
 40
0
 40
0
 40
1
 40
1
 40
1
 40
1
 10
32.610127
 20
6.374744
 30
0.0
 10
32.664271
 20
6.423966
 30
0.0
 10
32.705563
 20
6.483579
 30
0.0
 10
32.734002
 20
6.553583
 30
0.0
  0
SPLINE
  5
1bc
100
AcDbEntity
  8
Layer_1
 62
7
100
AcDbSpline
 70
8
 71
3
 72
8
 73
4
 74
0
 40
0
 40
0
 40
0
 40
0
 40
1
 40
1
 40
1
 40
1
 10
32.734002
 20
6.553583
 30
0.0
 10
32.762441
 20
6.624135
 30
0.0
 10
32.776660
 20
6.702343
 30
0.0
 10
32.776660
 20
6.788207
 30
0.0
  0
SPLINE
  5
1bd
100
AcDbEntity
  8
Layer_1
 62
7
100
AcDbSpline
 70
8
 71
3
 72
8
 73
4
 74
0
 40
0
 40
0
 40
0
 40
0
 40
1
 40
1
 40
1
 40
1
 10
32.776660
 20
6.788207
 30
0.0
 10
32.776660
 20
6.876259
 30
0.0
 10
32.762715
 20
6.954468
 30
0.0
 10
32.734822
 20
7.022831
 30
0.0
  0
SPLINE
  5
1be
100
AcDbEntity
  8
Layer_1
 62
7
100
AcDbSpline
 70
8
 71
3
 72
8
 73
4
 74
0
 40
0
 40
0
 40
0
 40
0
 40
1
 40
1
 40
1
 40
1
 10
32.734822
 20
7.022831
 30
0.0
 10
32.706930
 20
7.091742
 30
0.0
 10
32.665365
 20
7.151355
 30
0.0
 10
32.610127
 20
7.201670
 30
0.0
  0
SPLINE
  5
1bf
100
AcDbEntity
  8
Layer_1
 62
7
100
AcDbSpline
 70
8
 71
3
 72
8
 73
4
 74
0
 40
0
 40
0
 40
0
 40
0
 40
1
 40
1
 40
1
 40
1
 10
32.610127
 20
7.201670
 30
0.0
 10
32.557077
 20
7.250345
 30
0.0
 10
32.490901
 20
7.288082
 30
0.0
 10
32.411599
 20
7.314881
 30
0.0
  0
SPLINE
  5
1c0
100
AcDbEntity
  8
Layer_1
 62
7
100
AcDbSpline
 70
8
 71
3
 72
8
 73
4
 74
0
 40
0
 40
0
 40
0
 40
0
 40
1
 40
1
 40
1
 40
1
 10
32.411599
 20
7.314881
 30
0.0
 10
32.331751
 20
7.342226
 30
0.0
 10
32.241510
 20
7.355898
 30
0.0
 10
32.140879
 20
7.355898
 30
0.0
  0
LWPOLYLINE
  5
1c1
100
AcDbEntity
  8
Layer_1
 62
7
100
AcDbPolyline
 90
1
 70
1
 10
32.139239
 20
8.475695
 30
0.0
  0
SPLINE
  5
1c2
100
AcDbEntity
  8
Layer_1
 62
7
100
AcDbSpline
 70
8
 71
3
 72
8
 73
4
 74
0
 40
0
 40
0
 40
0
 40
0
 40
1
 40
1
 40
1
 40
1
 10
32.140879
 20
7.186904
 30
0.0
 10
32.301124
 20
7.186904
 30
0.0
 10
32.423904
 20
7.150808
 30
0.0
 10
32.509222
 20
7.078616
 30
0.0
  0
SPLINE
  5
1c3
100
AcDbEntity
  8
Layer_1
 62
7
100
AcDbSpline
 70
8
 71
3
 72
8
 73
4
 74
0
 40
0
 40
0
 40
0
 40
0
 40
1
 40
1
 40
1
 40
1
 10
32.509222
 20
7.078616
 30
0.0
 10
32.593993
 20
7.006971
 30
0.0
 10
32.636379
 20
6.910441
 30
0.0
 10
32.636379
 20
6.789028
 30
0.0
  0
SPLINE
  5
1c4
100
AcDbEntity
  8
Layer_1
 62
7
100
AcDbSpline
 70
8
 71
3
 72
8
 73
4
 74
0
 40
0
 40
0
 40
0
 40
0
 40
1
 40
1
 40
1
 40
1
 10
32.636379
 20
6.789028
 30
0.0
 10
32.636379
 20
6.667614
 30
0.0
 10
32.593993
 20
6.570811
 30
0.0
 10
32.509222
 20
6.498619
 30
0.0
  0
SPLINE
  5
1c5
100
AcDbEntity
  8
Layer_1
 62
7
100
AcDbSpline
 70
8
 71
3
 72
8
 73
4
 74
0
 40
0
 40
0
 40
0
 40
0
 40
1
 40
1
 40
1
 40
1
 10
32.509222
 20
6.498619
 30
0.0
 10
32.423904
 20
6.426427
 30
0.0
 10
32.301124
 20
6.390331
 30
0.0
 10
32.140879
 20
6.390331
 30
0.0
  0
SPLINE
  5
1c6
100
AcDbEntity
  8
Layer_1
 62
7
100
AcDbSpline
 70
8
 71
3
 72
8
 73
4
 74
0
 40
0
 40
0
 40
0
 40
0
 40
1
 40
1
 40
1
 40
1
 10
32.140879
 20
6.390331
 30
0.0
 10
31.982276
 20
6.390331
 30
0.0
 10
31.860041
 20
6.425606
 30
0.0
 10
31.774177
 20
6.496157
 30
0.0
  0
SPLINE
  5
1c7
100
AcDbEntity
  8
Layer_1
 62
7
100
AcDbSpline
 70
8
 71
3
 72
8
 73
4
 74
0
 40
0
 40
0
 40
0
 40
0
 40
1
 40
1
 40
1
 40
1
 10
31.774177
 20
6.496157
 30
0.0
 10
31.687765
 20
6.567256
 30
0.0
 10
31.644559
 20
6.664879
 30
0.0
 10
31.644559
 20
6.789028
 30
0.0
  0
SPLINE
  5
1c8
100
AcDbEntity
  8
Layer_1
 62
7
100
AcDbSpline
 70
8
 71
3
 72
8
 73
4
 74
0
 40
0
 40
0
 40
0
 40
0
 40
1
 40
1
 40
1
 40
1
 10
31.644559
 20
6.789028
 30
0.0
 10
31.644559
 20
6.912082
 30
0.0
 10
31.687765
 20
7.009158
 30
0.0
 10
31.774177
 20
7.080256
 30
0.0
  0
SPLINE
  5
1c9
100
AcDbEntity
  8
Layer_1
 62
7
100
AcDbSpline
 70
8
 71
3
 72
8
 73
4
 74
0
 40
0
 40
0
 40
0
 40
0
 40
1
 40
1
 40
1
 40
1
 10
31.774177
 20
7.080256
 30
0.0
 10
31.860041
 20
7.151355
 30
0.0
 10
31.982276
 20
7.186904
 30
0.0
 10
32.140879
 20
7.186904
 30
0.0
  0
LWPOLYLINE
  5
1ca
100
AcDbEntity
  8
Layer_1
 62
7
100
AcDbPolyline
 90
1
 70
1
 10
32.140879
 20
7.355898
 30
0.0
  0
LWPOLYLINE
  5
1cb
100
AcDbEntity
  8
Layer_1
 62
7
100
AcDbPolyline
 90
1
 70
1
 10
32.140879
 20
7.186904
 30
0.0
  0
LWPOLYLINE
  5
1cc
100
AcDbEntity
  8
Layer_1
 62
7
100
AcDbPolyline
 90
14
 70
1
 10
31.529708
 20
5.961281
 30
0.0
 10
31.529708
 20
5.735681
 30
0.0
 10
32.209790
 20
5.420661
 30
0.0
 10
31.529708
 20
5.094977
 30
0.0
 10
31.529708
 20
4.873479
 30
0.0
 10
32.751229
 20
4.873479
 30
0.0
 10
32.751229
 20
5.025246
 30
0.0
 10
31.698703
 20
5.025246
 30
0.0
 10
32.414881
 20
5.362416
 30
0.0
 10
32.414881
 20
5.459218
 30
0.0
 10
31.698703
 20
5.798849
 30
0.0
 10
32.751229
 20
5.798849
 30
0.0
 10
32.751229
 20
5.961281
 30
0.0
 10
31.529708
 20
5.961281
 30
0.0
  0
ENDSEC
  0
SECTION
  2
OBJECTS
  0
DICTIONARY
  5
C
330
0
100
AcDbDictionary
  3
ACAD_GROUP
350
D
  3
ACAD_MLINESTYLE
350
17
  0
DICTIONARY
  5
D
330
C
100
AcDbDictionary
  0
DICTIONARY
  5
1A
330
C
100
AcDbDictionary
  0
DICTIONARY
  5
17
330
C
100
AcDbDictionary
  3
STANDARD
350
18
  0
DICTIONARY
  5
19
330
C
100
AcDbDictionary
  0
ENDSEC
  0
EOF
