0
SECTION
2
HEADER
9
$INSUNITS
70
4
9
$ACADVER
1
AC1014
9
$HANDSEED
5
FFFF
0
ENDSEC
0
SECTION
2
TABLES
0
TABLE
2
VPORT
5
8
100
AcDbSymbolTable
0
ENDTAB
0
TABLE
2
LTYPE
5
5
100
AcDbSymbolTable
0
LTYPE
5
14
100
AcDbSymbolTableRecord
100
AcDbLinetypeTableRecord
2
BYBLOCK
70
0
0
LTYPE
5
15
100
AcDbSymbolTableRecord
100
AcDbLinetypeTableRecord
2
BYLAYER
70
0
0
ENDTAB
0
TABLE
2
LAYER
5
2
100
AcDbSymbolTable
70
2
0
LAYER
5
50
100
AcDbSymbolTableRecord
100
AcDbLayerTableRecord
2
0
70
0
6
CONTINUOUS
0
ENDTAB
0
TABLE
2
STYLE
5
3
100
AcDbSymbolTable
70
1
0
STYLE
5
11
100
AcDbSymbolTableRecord
100
AcDbTextStyleTableRecord
2
STANDARD
70
0
0
ENDTAB
0
TABLE
2
VIEW
5
6
100
AcDbSymbolTable
70
0
0
ENDTAB
0
TABLE
2
UCS
5
7
100
AcDbSymbolTable
70
0
0
ENDTAB
0
TABLE
2
APPID
5
9
100
AcDbSymbolTable
70
2
0
APPID
5
12
100
AcDbSymbolTableRecord
100
AcDbRegAppTableRecord
2
ACAD
70
0
0
ENDTAB
0
TABLE
2
DIMSTYLE
5
A
100
AcDbSymbolTable
70
1
0
ENDTAB
0
TABLE
2
BLOCK_RECORD
5
1
100
AcDbSymbolTable
70
1
0
BLOCK_RECORD
5
1F
100
AcDbSymbolTableRecord
100
AcDbBlockTableRecord
2
*MODEL_SPACE
0
BLOCK_RECORD
5
1B
100
AcDbSymbolTableRecord
100
AcDbBlockTableRecord
2
*PAPER_SPACE
0
ENDTAB
0
ENDSEC
0
SECTION
2
BLOCKS
0
BLOCK
5
20
100
AcDbEntity
100
AcDbBlockBegin
2
*MODEL_SPACE
0
ENDBLK
5
21
100
AcDbEntity
100
AcDbBlockEnd
0
BLOCK
5
1C
100
AcDbEntity
100
AcDbBlockBegin
2
*PAPER_SPACE
0
ENDBLK
5
1D
100
AcDbEntity
100
AcDbBlockEnd
0
ENDSEC
0
SECTION
2
ENTITIES
0
LWPOLYLINE
5
100
100
AcDbEntity
8
0
100
AcDbPolyline
90
12
70
1
43
0.0
10
29.29545442643192
20
18.851962137773089
10
29.29545442643192
20
31.480637664692331
42
0.63287510924110646
10
7.2720003752381865
20
-18.258362080251398
10
17.089038901545202
20
-11.122493427522009
10
18.653031444683485
20
-13.274127068504562
10
9.1122136636170339
20
-20.209214706479479
42
0.43048078740326573
10
52.790536529156157
20
-18.329672048103085
10
43.000000640750002
20
-10.000000149011626
10
44.723672262409991
20
-7.9740297295128642
10
54.444482668886536
20
-16.244380014946064
42
0.5906808792073186
10
31.95545442643192
20
31.430787621746099
10
31.95545442643192
20
18.851962137773089
0
LWPOLYLINE
5
101
100
AcDbEntity
8
0
100
AcDbPolyline
90
12
70
1
43
0.0
10
128.05700559574333
20
-7.9740297295128642
10
126.33333397408335
20
-10.000000149011626
10
136.1238698624895
20
-18.329672048103085
42
-0.43048078740326562
10
92.445546996950384
20
-20.209214706479479
10
101.98636477801683
20
-13.274127068504562
10
100.42237223487854
20
-11.122493427522009
10
90.60533370857155
20
-18.258362080251388
42
-0.63287510924110646
10
112.62878775976526
20
31.480637664692324
10
112.62878775976526
20
18.851962137773089
10
115.28878775976524
20
18.851962137773089
10
115.28878775976524
20
31.430787621746099
42
-0.59068087920731871
10
137.77781600221988
20
-16.244380014946067
0
LWPOLYLINE
5
102
100
AcDbEntity
8
0
100
AcDbPolyline
90
12
70
1
43
0.0
10
211.39033892907665
20
-7.9740297295128642
10
209.66666730741667
20
-10.000000149011626
10
219.4572031958229
20
-18.329672048103088
42
-0.43048078740326601
10
175.7788803302837
20
-20.209214706479479
10
185.31969811135016
20
-13.274127068504562
10
183.75570556821188
20
-11.122493427522009
10
173.93866704190486
20
-18.258362080251388
42
-0.63287510924110646
10
195.9621210930986
20
31.480637664692324
10
195.9621210930986
20
18.851962137773089
10
198.62212109309863
20
18.851962137773089
10
198.6221210930986
20
31.430787621746099
42
-0.59068087920731871
10
221.11114933555319
20
-16.244380014946067
0
LWPOLYLINE
5
103
100
AcDbEntity
8
0
100
AcDbPolyline
90
12
70
1
43
0.0
10
294.72367226240999
20
-7.9740297295128642
10
293.00000064074999
20
-10.000000149011626
10
302.79053652915616
20
-18.329672048103106
42
-0.43048078740326573
10
259.11221366361701
20
-20.209214706479479
10
268.65303144468351
20
-13.274127068504562
10
267.08903890154522
20
-11.122493427522009
10
257.27200037523818
20
-18.258362080251388
42
-0.63287510924110646
10
279.29545442643195
20
31.480637664692324
10
279.29545442643195
20
18.851962137773089
10
281.95545442643197
20
18.851962137773089
10
281.95545442643197
20
31.430787621746124
42
-0.59068087920731815
10
304.44448266888656
20
-16.244380014946067
0
LWPOLYLINE
5
104
100
AcDbEntity
8
0
100
AcDbPolyline
90
12
70
1
43
0.0
10
44.723672262409991
20
75.359303603820479
10
43.000000640750002
20
73.333333184321702
10
52.790536529156157
20
65.003661285230251
42
-0.43048078740326584
10
9.1122136636170357
20
63.124118626853864
10
18.653031444683485
20
70.059206264828774
10
17.089038901545202
20
72.210839905811326
10
7.2720003752381812
20
65.074971253081927
42
-0.63287510924110646
10
29.29545442643192
20
114.81397099802567
10
29.29545442643192
20
102.18529547110643
10
31.95545442643192
20
102.18529547110643
10
31.955454426431913
20
114.76412095507945
42
-0.59068087920731838
10
54.444482668886536
20
67.088953318387269
0
LWPOLYLINE
5
105
100
AcDbEntity
8
0
100
AcDbPolyline
90
12
70
1
43
0.0
10
128.05700559574333
20
75.359303603820479
10
126.33333397408335
20
73.333333184321702
10
136.1238698624895
20
65.003661285230265
42
-0.43048078740326573
10
92.445546996950384
20
63.124118626853864
10
101.98636477801683
20
70.059206264828774
10
100.42237223487854
20
72.210839905811326
10
90.605333708571521
20
65.074971253081927
42
-0.63287510924110646
10
112.62878775976526
20
114.81397099802567
10
112.62878775976526
20
102.18529547110643
10
115.28878775976524
20
102.18529547110643
10
115.28878775976524
20
114.76412095507942
42
-0.5906808792073186
10
137.77781600221988
20
67.088953318387269
0
LWPOLYLINE
5
106
100
AcDbEntity
8
0
100
AcDbPolyline
90
12
70
1
43
0.0
10
211.39033892907665
20
75.359303603820479
10
209.66666730741667
20
73.333333184321702
10
219.45720319582284
20
65.003661285230251
42
-0.43048078740326612
10
175.7788803302837
20
63.124118626853864
10
185.31969811135016
20
70.059206264828774
10
183.75570556821188
20
72.210839905811326
10
173.93866704190486
20
65.074971253081927
42
-0.63287510924110646
10
195.9621210930986
20
114.81397099802567
10
195.9621210930986
20
102.18529547110643
10
198.62212109309863
20
102.18529547110643
10
198.6221210930986
20
114.76412095507942
42
-0.59068087920731871
10
221.11114933555319
20
67.088953318387269
0
LWPOLYLINE
5
107
100
AcDbEntity
8
0
100
AcDbPolyline
90
12
70
1
43
0.0
10
294.72367226240999
20
75.359303603820479
10
293.00000064074999
20
73.333333184321702
10
302.79053652915616
20
65.003661285230237
42
-0.4304807874032659
10
259.11221366361701
20
63.124118626853864
10
268.65303144468351
20
70.059206264828774
10
267.08903890154522
20
72.210839905811326
10
257.27200037523812
20
65.074971253081927
42
-0.63287510924110646
10
279.29545442643195
20
114.81397099802567
10
279.29545442643195
20
102.18529547110643
10
281.95545442643197
20
102.18529547110643
10
281.95545442643197
20
114.76412095507946
42
-0.59068087920731815
10
304.44448266888656
20
67.088953318387269
0
LWPOLYLINE
5
108
100
AcDbEntity
8
0
100
AcDbPolyline
90
12
70
1
43
0.0
10
44.723672262409991
20
158.69263693715382
10
43.000000640750002
20
156.66666651765505
10
52.790536529156157
20
148.33699461856361
42
-0.43048078740326562
10
9.1122136636170357
20
146.4574519601872
10
18.653031444683485
20
153.3925395981621
10
17.089038901545202
20
155.54417323914467
10
7.2720003752382123
20
148.40830458641531
42
-0.63287510924110646
10
29.29545442643192
20
198.14730433135901
10
29.29545442643192
20
185.51862880443977
10
31.95545442643192
20
185.51862880443977
10
31.955454426431924
20
198.09745428841279
42
-0.5906808792073186
10
54.444482668886536
20
150.42228665172061
0
LWPOLYLINE
5
109
100
AcDbEntity
8
0
100
AcDbPolyline
90
12
70
1
43
0.0
10
128.05700559574333
20
158.69263693715382
10
126.33333397408335
20
156.66666651765505
10
136.1238698624895
20
148.33699461856358
42
-0.43048078740326551
10
92.445546996950384
20
146.4574519601872
10
101.98636477801683
20
153.3925395981621
10
100.42237223487854
20
155.54417323914467
10
90.605333708571564
20
148.40830458641531
42
-0.63287510924110646
10
112.62878775976526
20
198.14730433135901
10
112.62878775976526
20
185.51862880443977
10
115.28878775976524
20
185.51862880443977
10
115.28878775976526
20
198.09745428841282
42
-0.59068087920731871
10
137.77781600221988
20
150.42228665172061
0
LWPOLYLINE
5
110
100
AcDbEntity
8
0
100
AcDbPolyline
90
12
70
1
43
0.0
10
211.39033892907665
20
158.69263693715382
10
209.66666730741667
20
156.66666651765505
10
219.4572031958229
20
148.33699461856358
42
-0.4304807874032659
10
175.7788803302837
20
146.4574519601872
10
185.31969811135016
20
153.3925395981621
10
183.75570556821188
20
155.54417323914467
10
173.93866704190486
20
148.40830458641531
42
-0.63287510924110646
10
195.9621210930986
20
198.14730433135901
10
195.9621210930986
20
185.51862880443977
10
198.62212109309863
20
185.51862880443977
10
198.6221210930986
20
198.09745428841282
42
-0.59068087920731882
10
221.11114933555319
20
150.42228665172061
0
LWPOLYLINE
5
111
100
AcDbEntity
8
0
100
AcDbPolyline
90
12
70
1
43
0.0
10
294.72367226240999
20
158.69263693715382
10
293.00000064074999
20
156.66666651765505
10
302.79053652915616
20
148.33699461856358
42
-0.43048078740326562
10
259.11221366361701
20
146.4574519601872
10
268.65303144468351
20
153.3925395981621
10
267.08903890154522
20
155.54417323914467
10
257.27200037523818
20
148.40830458641531
42
-0.63287510924110646
10
279.29545442643195
20
198.14730433135901
10
279.29545442643195
20
185.51862880443977
10
281.95545442643197
20
185.51862880443977
10
281.95545442643197
20
198.09745428841282
42
-0.59068087920731815
10
304.44448266888656
20
150.42228665172061
0
LWPOLYLINE
5
112
100
AcDbEntity
8
0
100
AcDbPolyline
90
12
70
1
43
0.0
10
44.723672262409991
20
242.02597027048714
10
43.000000640750002
20
239.99999985098839
10
52.790536529156178
20
231.67032795189692
42
-0.43048078740326551
10
9.1122136636170357
20
229.79078529352051
10
18.653031444683485
20
236.72587293149545
10
17.089038901545202
20
238.87750657247801
10
7.2720003752382123
20
231.74163791974863
42
-0.63287510924110646
10
29.29545442643192
20
281.48063766469232
10
29.29545442643192
20
268.85196213777311
10
31.95545442643192
20
268.85196213777311
10
31.955454426431924
20
281.43078762174611
42
-0.5906808792073186
10
54.444482668886536
20
233.75561998505393
0
LWPOLYLINE
5
113
100
AcDbEntity
8
0
100
AcDbPolyline
90
12
70
1
43
0.0
10
128.05700559574333
20
242.02597027048714
10
126.33333397408335
20
239.99999985098839
10
136.1238698624895
20
231.67032795189692
42
-0.43048078740326534
10
92.445546996950384
20
229.79078529352051
10
101.98636477801683
20
236.72587293149545
10
100.42237223487854
20
238.87750657247801
10
90.60533370857155
20
231.74163791974863
42
-0.63287510924110624
10
112.62878775976526
20
281.48063766469232
10
112.62878775976526
20
268.85196213777311
10
115.28878775976524
20
268.85196213777311
10
115.28878775976526
20
281.43078762174616
42
-0.59068087920731871
10
137.77781600221988
20
233.75561998505393
0
LWPOLYLINE
5
114
100
AcDbEntity
8
0
100
AcDbPolyline
90
12
70
1
43
0.0
10
211.39033892907665
20
242.02597027048714
10
209.66666730741667
20
239.99999985098839
10
219.45720319582284
20
231.67032795189692
42
-0.43048078740326573
10
175.7788803302837
20
229.79078529352051
10
185.31969811135016
20
236.72587293149545
10
183.75570556821188
20
238.87750657247801
10
173.93866704190486
20
231.74163791974863
42
-0.63287510924110624
10
195.9621210930986
20
281.48063766469232
10
195.9621210930986
20
268.85196213777311
10
198.62212109309863
20
268.85196213777311
10
198.6221210930986
20
281.43078762174616
42
-0.59068087920731882
10
221.11114933555319
20
233.75561998505393
0
LWPOLYLINE
5
115
100
AcDbEntity
8
0
100
AcDbPolyline
90
12
70
1
43
0.0
10
294.72367226240999
20
242.02597027048714
10
293.00000064074999
20
239.99999985098839
10
302.79053652915616
20
231.67032795189687
42
-0.43048078740326551
10
259.11221366361701
20
229.79078529352051
10
268.65303144468351
20
236.72587293149545
10
267.08903890154522
20
238.87750657247801
10
257.27200037523818
20
231.74163791974863
42
-0.63287510924110624
10
279.29545442643195
20
281.48063766469232
10
279.29545442643195
20
268.85196213777311
10
281.95545442643197
20
268.85196213777311
10
281.95545442643197
20
281.43078762174616
42
-0.59068087920731815
10
304.44448266888656
20
233.75561998505393
0
ENDSEC
0
SECTION
2
OBJECTS
0
DICTIONARY
5
C
100
AcDbDictionary
3
ACAD_GROUP
350
D
3
ACAD_MLINESTYLE
350
17
0
DICTIONARY
5
D
100
AcDbDictionary
0
DICTIONARY
5
1A
330
C
100
AcDbDictionary
0
DICTIONARY
5
17
100
AcDbDictionary
0
ENDSEC
0
EOF
