0
SECTION
2
HEADER
9
$INSUNITS
70
4
9
$ACADVER
1
AC1014
9
$HANDSEED
5
FFFF
0
ENDSEC
0
SECTION
2
TABLES
0
TABLE
2
VPORT
5
8
100
AcDbSymbolTable
0
ENDTAB
0
TABLE
2
LTYPE
5
5
100
AcDbSymbolTable
0
LTYPE
5
14
100
AcDbSymbolTableRecord
100
AcDbLinetypeTableRecord
2
BYBLOCK
70
0
0
LTYPE
5
15
100
AcDbSymbolTableRecord
100
AcDbLinetypeTableRecord
2
BYLAYER
70
0
0
ENDTAB
0
TABLE
2
LAYER
5
2
100
AcDbSymbolTable
70
2
0
LAYER
5
50
100
AcDbSymbolTableRecord
100
AcDbLayerTableRecord
2
0
70
0
6
CONTINUOUS
0
ENDTAB
0
TABLE
2
STYLE
5
3
100
AcDbSymbolTable
70
1
0
STYLE
5
11
100
AcDbSymbolTableRecord
100
AcDbTextStyleTableRecord
2
STANDARD
70
0
0
ENDTAB
0
TABLE
2
VIEW
5
6
100
AcDbSymbolTable
70
0
0
ENDTAB
0
TABLE
2
UCS
5
7
100
AcDbSymbolTable
70
0
0
ENDTAB
0
TABLE
2
APPID
5
9
100
AcDbSymbolTable
70
2
0
APPID
5
12
100
AcDbSymbolTableRecord
100
AcDbRegAppTableRecord
2
ACAD
70
0
0
ENDTAB
0
TABLE
2
DIMSTYLE
5
A
100
AcDbSymbolTable
70
1
0
ENDTAB
0
TABLE
2
BLOCK_RECORD
5
1
100
AcDbSymbolTable
70
1
0
BLOCK_RECORD
5
1F
100
AcDbSymbolTableRecord
100
AcDbBlockTableRecord
2
*MODEL_SPACE
0
BLOCK_RECORD
5
1B
100
AcDbSymbolTableRecord
100
AcDbBlockTableRecord
2
*PAPER_SPACE
0
ENDTAB
0
ENDSEC
0
SECTION
2
BLOCKS
0
BLOCK
5
20
100
AcDbEntity
100
AcDbBlockBegin
2
*MODEL_SPACE
0
ENDBLK
5
21
100
AcDbEntity
100
AcDbBlockEnd
0
BLOCK
5
1C
100
AcDbEntity
100
AcDbBlockBegin
2
*PAPER_SPACE
0
ENDBLK
5
1D
100
AcDbEntity
100
AcDbBlockEnd
0
ENDSEC
0
SECTION
2
ENTITIES
0
LINE
5
100
100
AcDbEntity
8
0
100
AcDbLine
10
55.115494293977761
20
-32.802456868445802
30
0
11
55.115494992516503
21
-10.802456868445812
31
0
0
LINE
5
101
100
AcDbEntity
8
0
100
AcDbLine
10
55.115494992516503
20
-10.802456868445812
30
0
11
-169.88450500748348
21
-10.802456868445811
31
0
0
LINE
5
102
100
AcDbEntity
8
0
100
AcDbLine
10
-169.88450500748348
20
-10.802456868445811
30
0
11
-169.88450500748348
21
11.197543131554193
31
0
0
LINE
5
103
100
AcDbEntity
8
0
100
AcDbLine
10
-169.88450500748348
20
11.197543131554193
30
0
11
55.115494992516489
21
11.197543131554195
31
0
0
LINE
5
104
100
AcDbEntity
8
0
100
AcDbLine
10
55.115494992516489
20
11.197543131554195
30
0
11
55.115494992518066
21
417.1975431315542
31
0
0
LINE
5
105
100
AcDbEntity
8
0
100
AcDbLine
10
55.115494992518066
20
417.1975431315542
30
0
11
33.115494992518073
21
417.19754313155676
31
0
0
LINE
5
106
100
AcDbEntity
8
0
100
AcDbLine
10
33.115494992518073
20
417.19754313155676
30
0
11
33.115494992350122
21
192.19754313155676
31
0
0
LINE
5
107
100
AcDbEntity
8
0
100
AcDbLine
10
33.115494992350122
20
192.19754313155676
30
0
11
11.115494992350124
21
192.19754313153567
31
0
0
LINE
5
108
100
AcDbEntity
8
0
100
AcDbLine
10
11.115494992350124
20
192.19754313153567
30
0
11
11.115494992470945
21
417.19754313153567
31
0
0
LINE
5
109
100
AcDbEntity
8
0
100
AcDbLine
10
11.115494992470945
20
417.19754313153567
30
0
11
-350.88450500752907
21
417.19754313151452
31
0
0
LINE
5
110
100
AcDbEntity
8
0
100
AcDbLine
10
-350.88450500752907
20
417.19754313151452
30
0
11
-350.88450500753203
21
192.19754313151446
31
0
0
LINE
5
111
100
AcDbEntity
8
0
100
AcDbLine
10
-350.88450500753203
20
192.19754313151446
30
0
11
-372.88450500753208
21
192.19754313151512
31
0
0
LINE
5
112
100
AcDbEntity
8
0
100
AcDbLine
10
-372.88450500753208
20
192.19754313151512
30
0
11
-372.8845050071252
21
417.1975431315152
31
0
0
LINE
5
113
100
AcDbEntity
8
0
100
AcDbLine
10
-372.8845050071252
20
417.1975431315152
30
0
11
-394.88450500712526
21
417.19754313155045
31
0
0
LINE
5
114
100
AcDbEntity
8
0
100
AcDbLine
10
-394.88450500712526
20
417.19754313155045
30
0
11
-394.88450500793823
21
-32.802456868449575
31
0
0
LINE
5
115
100
AcDbEntity
8
0
100
AcDbLine
10
-394.88450500793823
20
-32.802456868449575
30
0
11
55.115494992061784
21
-32.802456868449575
31
0
0
LINE
5
116
100
AcDbEntity
8
0
100
AcDbLine
10
55.115494992516489
20
11.197543131554195
30
0
11
44.115494992516489
21
11.197543131554191
31
0
0
LWPOLYLINE
5
117
100
AcDbEntity
8
0
100
AcDbPolyline
90
4
70
1
43
0.0
10
46.615494992516489
20
25.697543131554191
10
46.615494992516489
20
18.697543131554188
42
-0.99999999999999989
10
41.615494992516489
20
18.697543131554188
10
41.615494992516489
20
25.697543131554191
42
-0.99999999999999989
0
LINE
5
118
100
AcDbEntity
8
0
100
AcDbLine
10
44.115494992516489
20
18.697543131554188
30
0
11
44.115494992516489
21
25.697543131554191
31
0
0
LINE
5
119
100
AcDbEntity
8
0
100
AcDbLine
10
55.115494992516489
20
11.197543131554195
30
0
11
55.115494992516531
21
22.197543131554198
31
0
0
LWPOLYLINE
5
120
100
AcDbEntity
8
0
100
AcDbPolyline
90
4
70
1
43
0.0
10
46.615494992516489
20
18.697543131554188
42
-0.99999999999999989
10
41.615494992516489
20
18.697543131554188
10
41.615494992516489
20
25.697543131554191
42
-0.99999999999999989
10
46.615494992516489
20
25.697543131554191
0
LINE
5
121
100
AcDbEntity
8
0
100
AcDbLine
10
55.115494992516489
20
11.197543131554195
30
0
11
55.115494992516531
21
22.197543131554198
31
0
0
LINE
5
122
100
AcDbEntity
8
0
100
AcDbLine
10
44.115494992516489
20
18.697543131554188
30
0
11
44.115494992516489
21
25.697543131554191
31
0
0
LINE
5
123
100
AcDbEntity
8
0
100
AcDbLine
10
55.115494992516489
20
11.197543131554195
30
0
11
44.115494992516489
21
11.197543131554191
31
0
0
LINE
5
124
100
AcDbEntity
8
0
100
AcDbLine
10
-394.88450500793823
20
-32.802456868449575
30
0
11
-394.88450500783881
21
22.197543131550425
31
0
0
LINE
5
125
100
AcDbEntity
8
0
100
AcDbLine
10
-394.88450500793823
20
-32.802456868449575
30
0
11
-383.88450500793823
21
-32.802456868449575
31
0
0
LWPOLYLINE
5
126
100
AcDbEntity
8
0
100
AcDbPolyline
90
4
70
1
43
0.0
10
-381.38450500793823
20
25.697543131550425
10
-381.38450500793823
20
18.697543131550422
42
-0.99999999999999989
10
-386.38450500793823
20
18.697543131550422
10
-386.38450500793823
20
25.697543131550425
42
-0.99999999999999989
0
LINE
5
127
100
AcDbEntity
8
0
100
AcDbLine
10
-383.88450500793823
20
18.697543131550422
30
0
11
-383.88450500793823
21
25.697543131550425
31
0
0
LWPOLYLINE
5
128
100
AcDbEntity
8
0
100
AcDbPolyline
90
4
70
1
43
0.0
10
46.615494992516489
20
-481.3024568684458
42
-0.99999999999999989
10
41.615494992516489
20
-481.3024568684458
10
41.615494992516489
20
-474.3024568684458
42
-0.99999999999999989
10
46.615494992516489
20
-474.3024568684458
0
LWPOLYLINE
5
129
100
AcDbEntity
8
0
100
AcDbPolyline
90
4
70
1
43
0.0
10
41.615494992516489
20
-474.3024568684458
42
-0.99999999999999989
10
46.615494992516489
20
-474.3024568684458
10
46.615494992516489
20
-481.3024568684458
42
-0.99999999999999989
10
41.615494992516489
20
-481.3024568684458
0
LWPOLYLINE
5
130
100
AcDbEntity
8
0
100
AcDbPolyline
90
4
70
1
43
0.0
10
-381.38450500793823
20
-474.30245686844955
10
-381.38450500793823
20
-481.30245686844955
42
-0.99999999999999989
10
-386.38450500793823
20
-481.30245686844955
10
-386.38450500793823
20
-474.30245686844955
42
-0.99999999999999989
0
LINE
5
131
100
AcDbEntity
8
0
100
AcDbLine
10
-383.88450500793823
20
-481.30245686844955
30
0
11
-383.88450500793823
21
-474.30245686844955
31
0
0
LINE
5
132
100
AcDbEntity
8
0
100
AcDbLine
10
44.115494992516489
20
-481.3024568684458
30
0
11
44.115494992516489
21
-474.3024568684458
31
0
0
LINE
5
133
100
AcDbEntity
8
0
100
AcDbLine
10
44.115494992516489
20
-481.3024568684458
30
0
11
44.115494992516489
21
-474.3024568684458
31
0
0
ENDSEC
0
SECTION
2
OBJECTS
0
DICTIONARY
5
C
100
AcDbDictionary
3
ACAD_GROUP
350
D
3
ACAD_MLINESTYLE
350
17
0
DICTIONARY
5
D
100
AcDbDictionary
0
DICTIONARY
5
1A
330
C
100
AcDbDictionary
0
DICTIONARY
5
17
100
AcDbDictionary
0
ENDSEC
0
EOF
